  0
SECTION
  2
HEADER
  9
$ACADVER
  1
AC1015
  9
$ACADMAINTVER
 70
     6
  9
$DWGCODEPAGE
  3
ANSI_949
  9
$INSBASE
 10
0.0
 20
0.0
 30
0.0
  9
$EXTMIN
 10
1.000000000000000E+20
 20
1.000000000000000E+20
 30
1.000000000000000E+20
  9
$EXTMAX
 10
-1.000000000000000E+20
 20
-1.000000000000000E+20
 30
-1.000000000000000E+20
  9
$LIMMIN
 10
0.0
 20
0.0
  9
$LIMMAX
 10
12.0
 20
9.0
  9
$ORTHOMODE
 70
     0
  9
$REGENMODE
 70
     1
  9
$FILLMODE
 70
     1
  9
$QTEXTMODE
 70
     0
  9
$MIRRTEXT
 70
     1
  9
$LTSCALE
 40
1.0
  9
$ATTMODE
 70
     1
  9
$TEXTSIZE
 40
0.2
  9
$TRACEWID
 40
0.05
  9
$TEXTSTYLE
  7
Standard
  9
$CLAYER
  8
0
  9
$CELTYPE
  6
ByLayer
  9
$CECOLOR
 62
   256
  9
$CELTSCALE
 40
1.0
  9
$DISPSILH
 70
     0
  9
$DIMSCALE
 40
1.0
  9
$DIMASZ
 40
0.18
  9
$DIMEXO
 40
0.0625
  9
$DIMDLI
 40
0.38
  9
$DIMRND
 40
0.0
  9
$DIMDLE
 40
0.0
  9
$DIMEXE
 40
0.18
  9
$DIMTP
 40
0.0
  9
$DIMTM
 40
0.0
  9
$DIMTXT
 40
0.18
  9
$DIMCEN
 40
0.09
  9
$DIMTSZ
 40
0.0
  9
$DIMTOL
 70
     0
  9
$DIMLIM
 70
     0
  9
$DIMTIH
 70
     1
  9
$DIMTOH
 70
     1
  9
$DIMSE1
 70
     0
  9
$DIMSE2
 70
     0
  9
$DIMTAD
 70
     0
  9
$DIMZIN
 70
     0
  9
$DIMBLK
  1

  9
$DIMASO
 70
     1
  9
$DIMSHO
 70
     1
  9
$DIMPOST
  1

  9
$DIMAPOST
  1

  9
$DIMALT
 70
     0
  9
$DIMALTD
 70
     2
  9
$DIMALTF
 40
25.4
  9
$DIMLFAC
 40
1.0
  9
$DIMTOFL
 70
     0
  9
$DIMTVP
 40
0.0
  9
$DIMTIX
 70
     0
  9
$DIMSOXD
 70
     0
  9
$DIMSAH
 70
     0
  9
$DIMBLK1
  1

  9
$DIMBLK2
  1

  9
$DIMSTYLE
  2
Standard
  9
$DIMCLRD
 70
     0
  9
$DIMCLRE
 70
     0
  9
$DIMCLRT
 70
     0
  9
$DIMTFAC
 40
1.0
  9
$DIMGAP
 40
0.09
  9
$DIMJUST
 70
     0
  9
$DIMSD1
 70
     0
  9
$DIMSD2
 70
     0
  9
$DIMTOLJ
 70
     1
  9
$DIMTZIN
 70
     0
  9
$DIMALTZ
 70
     0
  9
$DIMALTTZ
 70
     0
  9
$DIMUPT
 70
     0
  9
$DIMDEC
 70
     4
  9
$DIMTDEC
 70
     4
  9
$DIMALTU
 70
     2
  9
$DIMALTTD
 70
     2
  9
$DIMTXSTY
  7
Standard
  9
$DIMAUNIT
 70
     0
  9
$DIMADEC
 70
     0
  9
$DIMALTRND
 40
0.0
  9
$DIMAZIN
 70
     0
  9
$DIMDSEP
 70
    46
  9
$DIMATFIT
 70
     3
  9
$DIMFRAC
 70
     0
  9
$DIMLDRBLK
  1

  9
$DIMLUNIT
 70
     2
  9
$DIMLWD
 70
    -2
  9
$DIMLWE
 70
    -2
  9
$DIMTMOVE
 70
     0
  9
$LUNITS
 70
     2
  9
$LUPREC
 70
     4
  9
$SKETCHINC
 40
0.1
  9
$FILLETRAD
 40
0.5
  9
$AUNITS
 70
     0
  9
$AUPREC
 70
     0
  9
$MENU
  1
.
  9
$ELEVATION
 40
0.0
  9
$PELEVATION
 40
0.0
  9
$THICKNESS
 40
0.0
  9
$LIMCHECK
 70
     0
  9
$CHAMFERA
 40
0.5
  9
$CHAMFERB
 40
0.5
  9
$CHAMFERC
 40
1.0
  9
$CHAMFERD
 40
0.0
  9
$SKPOLY
 70
     0
  9
$TDCREATE
 40
2456522.616877211
  9
$TDUCREATE
 40
2456522.116877211
  9
$TDUPDATE
 40
2456522.616904248
  9
$TDUUPDATE
 40
2456522.116904248
  9
$TDINDWG
 40
0.0000000116
  9
$TDUSRTIMER
 40
0.0000000116
  9
$USRTIMER
 70
     1
  9
$ANGBASE
 50
0.0
  9
$ANGDIR
 70
     0
  9
$PDMODE
 70
     0
  9
$PDSIZE
 40
0.0
  9
$PLINEWID
 40
0.0
  9
$SPLFRAME
 70
     0
  9
$SPLINETYPE
 70
     6
  9
$SPLINESEGS
 70
     8
  9
$HANDSEED
  5
39D
  9
$SURFTAB1
 70
     6
  9
$SURFTAB2
 70
     6
  9
$SURFTYPE
 70
     6
  9
$SURFU
 70
     6
  9
$SURFV
 70
     6
  9
$UCSBASE
  2

  9
$UCSNAME
  2

  9
$UCSORG
 10
0.0
 20
0.0
 30
0.0
  9
$UCSXDIR
 10
1.0
 20
0.0
 30
0.0
  9
$UCSYDIR
 10
0.0
 20
1.0
 30
0.0
  9
$UCSORTHOREF
  2

  9
$UCSORTHOVIEW
 70
     0
  9
$UCSORGTOP
 10
0.0
 20
0.0
 30
0.0
  9
$UCSORGBOTTOM
 10
0.0
 20
0.0
 30
0.0
  9
$UCSORGLEFT
 10
0.0
 20
0.0
 30
0.0
  9
$UCSORGRIGHT
 10
0.0
 20
0.0
 30
0.0
  9
$UCSORGFRONT
 10
0.0
 20
0.0
 30
0.0
  9
$UCSORGBACK
 10
0.0
 20
0.0
 30
0.0
  9
$PUCSBASE
  2

  9
$PUCSNAME
  2

  9
$PUCSORG
 10
0.0
 20
0.0
 30
0.0
  9
$PUCSXDIR
 10
1.0
 20
0.0
 30
0.0
  9
$PUCSYDIR
 10
0.0
 20
1.0
 30
0.0
  9
$PUCSORTHOREF
  2

  9
$PUCSORTHOVIEW
 70
     0
  9
$PUCSORGTOP
 10
0.0
 20
0.0
 30
0.0
  9
$PUCSORGBOTTOM
 10
0.0
 20
0.0
 30
0.0
  9
$PUCSORGLEFT
 10
0.0
 20
0.0
 30
0.0
  9
$PUCSORGRIGHT
 10
0.0
 20
0.0
 30
0.0
  9
$PUCSORGFRONT
 10
0.0
 20
0.0
 30
0.0
  9
$PUCSORGBACK
 10
0.0
 20
0.0
 30
0.0
  9
$USERI1
 70
     0
  9
$USERI2
 70
     0
  9
$USERI3
 70
     0
  9
$USERI4
 70
     0
  9
$USERI5
 70
     0
  9
$USERR1
 40
0.0
  9
$USERR2
 40
0.0
  9
$USERR3
 40
0.0
  9
$USERR4
 40
0.0
  9
$USERR5
 40
0.0
  9
$WORLDVIEW
 70
     1
  9
$SHADEDGE
 70
     3
  9
$SHADEDIF
 70
    70
  9
$TILEMODE
 70
     1
  9
$MAXACTVP
 70
    64
  9
$PINSBASE
 10
0.0
 20
0.0
 30
0.0
  9
$PLIMCHECK
 70
     0
  9
$PEXTMIN
 10
1.000000000000000E+20
 20
1.000000000000000E+20
 30
1.000000000000000E+20
  9
$PEXTMAX
 10
-1.000000000000000E+20
 20
-1.000000000000000E+20
 30
-1.000000000000000E+20
  9
$PLIMMIN
 10
0.0
 20
0.0
  9
$PLIMMAX
 10
12.0
 20
9.0
  9
$UNITMODE
 70
     0
  9
$VISRETAIN
 70
     1
  9
$PLINEGEN
 70
     0
  9
$PSLTSCALE
 70
     1
  9
$TREEDEPTH
 70
  3020
  9
$CMLSTYLE
  2
Standard
  9
$CMLJUST
 70
     0
  9
$CMLSCALE
 40
1.0
  9
$PROXYGRAPHICS
 70
     1
  9
$MEASUREMENT
 70
     0
  9
$CELWEIGHT
370
    -1
  9
$ENDCAPS
280
     0
  9
$JOINSTYLE
280
     0
  9
$LWDISPLAY
290
     1
  9
$INSUNITS
 70
     4
  9
$HYPERLINKBASE
  1

  9
$STYLESHEET
  1

  9
$XEDIT
290
     1
  9
$CEPSNTYPE
380
     0
  9
$PSTYLEMODE
290
     1
  9
$FINGERPRINTGUID
  2
{E34491DB-90C8-4D19-BEC2-73C94D20071A}
  9
$VERSIONGUID
  2
{FAEB1C32-E019-11D5-929B-00C0DF256EC4}
  9
$EXTNAMES
290
     1
  9
$PSVPSCALE
 40
0.0
  9
$OLESTARTUP
290
     0
  0
ENDSEC
  0
SECTION
  2
CLASSES
  0
CLASS
  1
ACDBDICTIONARYWDFLT
  2
AcDbDictionaryWithDefault
  3
ObjectDBX Classes
 90
        0
280
     0
281
     0
  0
CLASS
  1
VISUALSTYLE
  2
AcDbVisualStyle
  3
ObjectDBX Classes
 90
     4095
280
     0
281
     0
  0
CLASS
  1
MATERIAL
  2
AcDbMaterial
  3
ObjectDBX Classes
 90
     1153
280
     0
281
     0
  0
CLASS
  1
WIPEOUT
  2
AcDbWipeout
  3
WipeOut|AutoCAD Express Tool|expresstools@autodesk.com
 90
      127
280
     0
281
     1
  0
CLASS
  1
SPATIAL_FILTER
  2
AcDbSpatialFilter
  3
ObjectDBX Classes
 90
        0
280
     0
281
     0
  0
CLASS
  1
SCALE
  2
AcDbScale
  3
ObjectDBX Classes
 90
     1153
280
     0
281
     0
  0
CLASS
  1
DICTIONARYVAR
  2
AcDbDictionaryVar
  3
ObjectDBX Classes
 90
        0
280
     0
281
     0
  0
CLASS
  1
ACDBPLACEHOLDER
  2
AcDbPlaceHolder
  3
ObjectDBX Classes
 90
        0
280
     0
281
     0
  0
CLASS
  1
LAYOUT
  2
AcDbLayout
  3
ObjectDBX Classes
 90
        0
280
     0
281
     0
  0
ENDSEC
  0
SECTION
  2
TABLES
  0
TABLE
  2
VPORT
  5
8
330
0
100
AcDbSymbolTable
 70
     1
  0
VPORT
  5
29
330
8
100
AcDbSymbolTableRecord
100
AcDbViewportTableRecord
  2
*Active
 70
     0
 10
0.0
 20
0.0
 11
1.0
 21
1.0
 12
147.4705283486712
 22
103.5134588513207
 13
0.0
 23
0.0
 14
0.5
 24
0.5
 15
0.5
 25
0.5
 16
0.0
 26
0.0
 36
1.0
 17
0.0
 27
0.0
 37
0.0
 40
207.0325439433057
 41
1.441899610748008
 42
50.0
 43
0.0
 44
0.0
 50
0.0
 51
0.0
 71
     0
 72
   100
 73
     1
 74
     3
 75
     0
 76
     0
 77
     0
 78
     0
281
     0
 65
     1
110
0.0
120
0.0
130
0.0
111
1.0
121
0.0
131
0.0
112
0.0
122
1.0
132
0.0
 79
     0
146
0.0
  0
ENDTAB
  0
TABLE
  2
LTYPE
  5
5
330
0
100
AcDbSymbolTable
 70
     4
  0
LTYPE
  5
14
330
5
100
AcDbSymbolTableRecord
100
AcDbLinetypeTableRecord
  2
ByBlock
 70
     0
  3

 72
    65
 73
     0
 40
0.0
  0
LTYPE
  5
15
330
5
100
AcDbSymbolTableRecord
100
AcDbLinetypeTableRecord
  2
ByLayer
 70
     0
  3

 72
    65
 73
     0
 40
0.0
  0
LTYPE
  5
16
330
5
100
AcDbSymbolTableRecord
100
AcDbLinetypeTableRecord
  2
Continuous
 70
     0
  3
Solid line
 72
    65
 73
     0
 40
0.0
  0
LTYPE
  5
E7
330
5
100
AcDbSymbolTableRecord
100
AcDbLinetypeTableRecord
  2
Wipeout_Contour
 70
     0
  3
- - - - - 
 72
    65
 73
     2
 40
1000.0
 49
0.0
 74
     0
 49
-1000.0
 74
     0
  0
LTYPE
  5
F5
330
5
100
AcDbSymbolTableRecord
100
AcDbLinetypeTableRecord
  2
Hidden Line
 70
     0
  3
- - - - - 
 72
    65
 73
     2
 40
3.912222232818603
 49
2.822222232818604
 74
     0
 49
-1.089999999999999
 74
     0
  0
LTYPE
  5
297
330
5
100
AcDbSymbolTableRecord
100
AcDbLinetypeTableRecord
  2
Dot & Dashed
 70
     0
  3
- - - - - 
 72
    65
 73
     4
 40
6.702777624130249
 49
3.527777671813965
 74
     0
 49
-1.763888835906982
 74
     0
 49
0.0
 74
     0
 49
-1.411111116409302
 74
     0
  0
ENDTAB
  0
TABLE
  2
LAYER
  5
2
330
0
100
AcDbSymbolTable
 70
     5
  0
LAYER
  5
10
330
2
100
AcDbSymbolTableRecord
100
AcDbLayerTableRecord
  2
0
 70
     0
 62
     7
  6
Continuous
370
    -3
390
F
  0
LAYER
  5
40
330
2
100
AcDbSymbolTableRecord
100
AcDbLayerTableRecord
  2
Doc_ Finishes
 70
     0
 62
     7
  6
Continuous
370
    -3
390
F
  0
LAYER
  5
DB
330
2
100
AcDbSymbolTableRecord
100
AcDbLayerTableRecord
  2
Doc_ Floor
 70
     0
 62
     7
  6
Continuous
370
    -3
390
F
  0
LAYER
  5
E8
330
2
100
AcDbSymbolTableRecord
100
AcDbLayerTableRecord
  2
Des_ Walls
 70
     0
 62
     7
  6
Continuous
370
    -3
390
F
  0
LAYER
  5
F1
330
2
100
AcDbSymbolTableRecord
100
AcDbLayerTableRecord
  2
Des_ Furniture
 70
     0
 62
     7
  6
Continuous
370
    -3
390
F
  0
ENDTAB
  0
TABLE
  2
STYLE
  5
3
330
0
100
AcDbSymbolTable
 70
     3
  0
STYLE
  5
11
330
3
100
AcDbSymbolTableRecord
100
AcDbTextStyleTableRecord
  2
Standard
 70
     0
 40
0.0
 41
1.0
 50
0.0
 71
     0
 42
0.2
  3
txt
  4

  0
STYLE
  5
D6
330
3
100
AcDbSymbolTableRecord
100
AcDbTextStyleTableRecord
  2
GENERATED_STYLE_1
 70
     0
 40
0.0
 41
1.0
 50
0.0
 71
     0
 42
0.2
  3

  4

1001
ACAD
1000
Century Gothic
1071
       34
  0
STYLE
  5
D9
330
3
100
AcDbSymbolTableRecord
100
AcDbTextStyleTableRecord
  2
GENERATED_STYLE_2
 70
     0
 40
0.0
 41
1.0
 50
0.0
 71
     0
 42
0.2
  3

  4

1001
ACAD
1000
DilleniaUPC
1071
 33554450
  0
ENDTAB
  0
TABLE
  2
VIEW
  5
6
330
0
100
AcDbSymbolTable
 70
     0
  0
ENDTAB
  0
TABLE
  2
UCS
  5
7
330
0
100
AcDbSymbolTable
 70
     0
  0
ENDTAB
  0
TABLE
  2
APPID
  5
9
330
0
100
AcDbSymbolTable
 70
     1
  0
APPID
  5
12
330
9
100
AcDbSymbolTableRecord
100
AcDbRegAppTableRecord
  2
ACAD
 70
     0
  0
ENDTAB
  0
TABLE
  2
DIMSTYLE
  5
A
330
0
100
AcDbSymbolTable
 70
     1
100
AcDbDimStyleTable
  0
DIMSTYLE
105
27
330
A
100
AcDbSymbolTableRecord
100
AcDbDimStyleTableRecord
  2
Standard
 70
     0
178
     0
340
11
  0
ENDTAB
  0
TABLE
  2
BLOCK_RECORD
  5
1
330
0
100
AcDbSymbolTable
 70
     3
  0
BLOCK_RECORD
  5
1F
330
1
100
AcDbSymbolTableRecord
100
AcDbBlockTableRecord
  2
*Model_Space
340
22
  0
BLOCK_RECORD
  5
1B
330
1
100
AcDbSymbolTableRecord
100
AcDbBlockTableRecord
  2
*Paper_Space
340
1E
  0
BLOCK_RECORD
  5
E3
330
1
100
AcDbSymbolTableRecord
100
AcDbBlockTableRecord
  2
Drawing_1_2
340
0
102
{BLKREFS
331
343
102
}
  0
BLOCK_RECORD
  5
347
330
1
100
AcDbSymbolTableRecord
100
AcDbBlockTableRecord
  2
C-TRS9-08 APRON DETAIL - SIDE -_STORY_MARKER
340
0
  0
ENDTAB
  0
ENDSEC
  0
SECTION
  2
BLOCKS
  0
BLOCK
  5
20
330
1F
100
AcDbEntity
  8
0
100
AcDbBlockBegin
  2
*Model_Space
 70
     0
 10
0.0
 20
0.0
 30
0.0
  3
*Model_Space
  1

  0
ENDBLK
  5
21
330
1F
100
AcDbEntity
  8
0
100
AcDbBlockEnd
  0
BLOCK
  5
1C
330
1B
100
AcDbEntity
 67
     1
  8
0
100
AcDbBlockBegin
  2
*Paper_Space
 70
     0
 10
0.0
 20
0.0
 30
0.0
  3
*Paper_Space
  1

  0
ENDBLK
  5
1D
330
1B
100
AcDbEntity
 67
     1
  8
0
100
AcDbBlockEnd
  0
BLOCK
  5
E4
330
E3
100
AcDbEntity
  8
0
100
AcDbBlockBegin
  2
Drawing_1_2
 70
     0
 10
-2107.144517011996
 20
304.3468474410897
 30
0.0
  3
Drawing_1_2
  1

  0
WIPEOUT
  5
E6
330
E3
100
AcDbEntity
  8
Des_ Walls
  6
Wipeout_Contour
 62
   254
 48
2034.086721115099
370
     0
 92
      488
310
E8010000060000000C0000000E000000120000000C00000016000000000000C20C0000001400000001000000CC0000000700000008000000D868F8AE73CB684077CE2D9E38D364400000000000000000D623E9AD734B694077CE2D9E38D364400000000000000000D623E9AD734B6940F870B59E3893644000000000000000
310
00D868F8AE73CB684030DB02C5729264400000000000000000D868F8AE73CB6840B0D9020F4CE7354000000000000000007E392BB0738B6C40B0D9020F4CE7354000000000000000007E392BB0738B6C40F464C428A5F266400000000000000000D868F8AE73CB6840F464C428A5F2664000000000000000000C0000000E00
310
0000FE000000E40000000600000009000000D868F8AE73CB684077CE2D9E38D364400000000000000000D623E9AD734B694077CE2D9E38D364400000000000000000D623E9AD734B6940F870B59E389364400000000000000000D868F8AE73CB684030DB02C5729264400000000000000000D868F8AE73CB6840B0D9020F4C
310
E7354000000000000000007E392BB0738B6C40B0D9020F4CE7354000000000000000007E392BB0738B6C40F464C428A5F266400000000000000000D868F8AE73CB6840F464C428A5F266400000000000000000D868F8AE73CB684077CE2D9E38D364400000000000000000
100
AcDbWipeout
 90
        0
 10
198.3578715183019
 20
21.90350431270208
 30
0.0
 11
30.00000057148753
 21
0.0
 31
0.0
 12
0.0
 22
161.6791567281597
 32
0.0
 13
1.0
 23
1.0
340
0
 70
    15
280
     1
281
    50
282
    50
283
     0
360
0
 71
     2
 91
        9
 14
-0.5
 24
-0.3949648178440073
 14
-0.366666686049242
 24
-0.3949648178440073
 14
-0.366666686049242
 24
-0.3825946410826129
 14
-0.5
 24
-0.3824452609252987
 14
-0.5
 24
0.5
 14
0.5
 24
0.5
 14
0.5
 24
-0.5
 14
-0.5
 24
-0.5
 14
-0.5
 24
-0.3949648178440073
  0
HATCH
  5
E9
330
E3
100
AcDbEntity
  8
Des_ Walls
  6
Continuous
100
AcDbHatch
 10
0.0
 20
0.0
 30
0.0
210
0.0
220
0.0
230
1.0
  2
Lightweight_Concrete_0002
 70
     0
 71
     0
 91
        1
 92
        3
 72
     0
 73
     1
 93
        8
 10
198.3578715183019
 20
166.6006613630923
 10
202.3578710130229
 20
166.6006613630923
 10
202.3578710130229
 20
164.6006616157317
 10
198.3578715183019
 20
164.5765099578653
 10
198.3578715183019
 20
21.90350431270208
 10
228.3578720897894
 20
21.90350431270208
 10
228.3578720897894
 20
183.5826610408618
 10
198.3578715183019
 20
183.5826610408618
 97
        0
 75
     0
 76
     2
 52
0.0
 41
1.0
 77
     0
 78
     8
 53
0.0
 43
-2107.144517011996
 44
304.3468474410897
 45
0.0
 46
31.17691453623978
 79
     2
 49
1.95
 49
-16.05
 53
0.0
 43
-2098.144517011996
 44
319.9353040717965
 45
0.0
 46
31.17691453623978
 79
     2
 49
1.95
 49
-16.05
 53
60.00000000000001
 43
-2107.144517011996
 44
304.3468474410897
 45
-27.0
 46
15.58845726811988
 79
     2
 49
1.95
 49
-16.05
 53
60.00000000000001
 43
-2089.144517011996
 44
304.3468474410897
 45
-27.0
 46
15.58845726811988
 79
     2
 49
1.95
 49
-16.05
 53
120.0
 43
-2105.194517083521
 44
304.3468474410897
 45
26.99999999999998
 46
15.58845726811991
 79
     2
 49
1.95
 49
-16.05
 53
120.0
 43
-2087.194516725893
 44
304.3468474410897
 45
26.99999999999998
 46
15.58845726811991
 79
     2
 49
1.95
 49
-16.05
 53
0.0
 43
-2107.144517011996
 44
307.3468474410897
 45
0.0
 46
6.0
 79
     4
 49
0.0
 49
-6.0
 49
0.0
 49
-9.0
 53
44.99999999999999
 43
-2104.144517011996
 44
307.3468474410897
 45
-4.242640687119285
 46
4.242640687119286
 79
     4
 49
0.0
 49
-4.5
 49
0.0
 49
-7.5
 98
        0
  0
HATCH
  5
EA
330
E3
100
AcDbEntity
  8
Doc_ Finishes
  6
Continuous
 62
   255
370
    18
100
AcDbHatch
 10
0.0
 20
0.0
 30
0.0
210
0.0
220
0.0
230
1.0
  2
SOLID
 70
     1
 71
     0
 91
        1
 92
        3
 72
     1
 73
     1
 93
        4
 10
202.3578712670311
 20
164.6006629023435
 42
0.0
 10
202.3578712670311
 20
166.6006629023435
 42
0.0
 10
198.3578712670311
 20
166.6006629023435
 42
-0.2857453009519162
 10
198.3578712670311
 20
164.6006629023435
 42
0.0
 97
        0
 75
     0
 76
     1
 98
        0
  0
HATCH
  5
EB
330
E3
100
AcDbEntity
  8
Doc_ Finishes
  6
Continuous
100
AcDbHatch
 10
0.0
 20
0.0
 30
0.0
210
0.0
220
0.0
230
1.0
  2
Hexagonal_0002
 70
     0
 71
     0
 91
        1
 92
        3
 72
     1
 73
     1
 93
        4
 10
202.3578712670311
 20
164.6006629023435
 42
0.0
 10
202.3578712670311
 20
166.6006629023435
 42
0.0
 10
198.3578712670311
 20
166.6006629023435
 42
-0.2857453009519162
 10
198.3578712670311
 20
164.6006629023435
 42
0.0
 97
        0
 75
     0
 76
     2
 52
0.0
 41
1.0
 77
     0
 78
     6
 53
90.00000000000001
 43
-2107.144517011996
 44
304.3468474410897
 45
-1.039230484541326
 46
0.0
 79
     2
 49
0.6000000000000001
 49
-1.2
 53
90.00000000000001
 43
-2107.66413224494
 44
305.2468474410897
 45
-1.039230484541326
 46
0.0
 79
     2
 49
0.6000000000000001
 49
-1.2
 53
150.0000000000001
 43
-2107.144517011996
 44
304.9468474410897
 45
0.5196152422706625
 46
0.9000000000000004
 79
     2
 49
0.6000000000000001
 49
-1.2
 53
150.0000000000001
 43
-2108.183747477884
 44
304.9468474410897
 45
0.5196152422706625
 46
0.9000000000000004
 79
     2
 49
0.6000000000000001
 49
-1.2
 53
210.0000000000001
 43
-2107.144517011996
 44
304.3468474410897
 45
-0.5196152422706641
 46
0.8999999999999994
 79
     2
 49
0.6000000000000001
 49
-1.2
 53
210.0000000000001
 43
-2108.183747477884
 44
304.3468474410897
 45
-0.5196152422706641
 46
0.8999999999999994
 79
     2
 49
0.6000000000000001
 49
-1.2
 98
        0
  0
LINE
  5
EC
330
E3
100
AcDbEntity
  8
Doc_ Finishes
  6
Continuous
100
AcDbLine
 10
202.3578710130229
 20
164.6006609233009
 30
0.0
 11
202.3578710130229
 21
166.6006650317409
 31
0.0
  0
LINE
  5
ED
330
E3
100
AcDbEntity
  8
Doc_ Finishes
  6
Continuous
100
AcDbLine
 10
202.3578710130229
 20
166.6006650317409
 30
0.0
 11
198.3578715183019
 21
166.6006650317409
 31
0.0
  0
ARC
  5
EE
330
E3
100
AcDbEntity
  8
Doc_ Finishes
  6
Continuous
100
AcDbCircle
 10
196.7509338652181
 20
165.6006629023435
 30
0.0
 40
1.89268270276492
100
AcDbArc
 50
328.1059223734285
 51
31.8940776265714
  0
LINE
  5
EF
330
E3
100
AcDbEntity
  8
Doc_ Finishes
  6
Continuous
100
AcDbLine
 10
198.3578715183019
 20
164.6006609233009
 30
0.0
 11
202.3578710130229
 21
164.6006609233009
 31
0.0
  0
LINE
  5
F0
330
E3
100
AcDbEntity
  8
Des_ Furniture
  6
Continuous
100
AcDbLine
 10
173.5012713289329
 20
112.0895795106437
 30
0.0
 11
173.5138312376825
 21
111.8499076685765
 31
0.0
  0
LINE
  5
F2
330
E3
100
AcDbEntity
  8
Des_ Furniture
  6
Continuous
100
AcDbLine
 10
175.1153111859284
 20
81.29184156821869
 30
0.0
 11
175.1278710946781
 21
81.05216972615149
 31
0.0
  0
LINE
  5
F3
330
E3
100
AcDbEntity
  8
Des_ Walls
  6
Continuous
100
AcDbLine
 10
198.3578715183019
 20
183.582660348431
 30
0.0
 11
198.3578715183019
 21
166.6006650317409
 31
0.0
  0
LINE
  5
F4
330
E3
100
AcDbEntity
  8
Des_ Walls
  6
Continuous
100
AcDbLine
 10
228.3578720897894
 20
183.5826610408618
 30
0.0
 11
228.3578720897894
 21
21.90350431270208
 31
0.0
  0
LINE
  5
F6
330
E3
100
AcDbEntity
  8
Des_ Furniture
  6
Hidden Line
100
AcDbLine
 10
197.1394033707283
 20
161.9392511478895
 30
0.0
 11
197.1394033707283
 21
121.862876255595
 31
0.0
  0
LINE
  5
F7
330
E3
100
AcDbEntity
  8
Des_ Walls
  6
Continuous
100
AcDbLine
 10
198.3578715183019
 20
164.6006616157317
 30
0.0
 11
198.3578715183019
 21
21.90350431270208
 31
0.0
  0
LINE
  5
F8
330
E3
100
AcDbEntity
  8
Des_ Furniture
  6
Continuous
 62
   251
370
    18
100
AcDbLine
 10
49.33274871704529
 20
78.29056851198521
 30
0.0
 11
195.5032484799586
 21
78.29056851198521
 31
0.0
  0
LINE
  5
F9
330
E3
100
AcDbEntity
  8
Des_ Furniture
  6
Hidden Line
 62
   251
370
    18
100
AcDbLine
 10
49.33274871704529
 20
83.26162339622985
 30
0.0
 11
195.5032484799586
 21
83.26162339622985
 31
0.0
  0
LINE
  5
FA
330
E3
100
AcDbEntity
  8
Des_ Furniture
  6
Hidden Line
 62
   251
370
    18
100
AcDbLine
 10
49.33274871704529
 20
113.8616212752779
 30
0.0
 11
195.5032484799586
 21
113.8616212752779
 31
0.0
  0
LINE
  5
FB
330
E3
100
AcDbEntity
  8
Des_ Furniture
  6
Continuous
 62
   251
370
    18
100
AcDbLine
 10
49.33274871704529
 20
118.8616206436792
 30
0.0
 11
195.5032484799586
 21
118.8616206436792
 31
0.0
  0
LINE
  5
FC
330
E3
100
AcDbEntity
  8
Des_ Furniture
  6
Continuous
 62
   251
370
    18
100
AcDbLine
 10
49.33274871704529
 20
119.9747818063301
 30
0.0
 11
196.1324999083151
 21
119.9747818063301
 31
0.0
  0
LINE
  5
FD
330
E3
100
AcDbEntity
  8
Des_ Furniture
  6
Hidden Line
100
AcDbLine
 10
49.33274871704529
 20
121.2636988309667
 30
0.0
 11
196.5708058350419
 21
121.2636988309667
 31
0.0
  0
HATCH
  5
FE
330
E3
100
AcDbEntity
  8
Des_ Walls
  6
Continuous
 62
   255
370
     0
100
AcDbHatch
 10
0.0
 20
0.0
 30
0.0
210
0.0
220
0.0
230
1.0
  2
SOLID
 70
     1
 71
     0
 91
        1
 92
        3
 72
     1
 73
     1
 93
        2
 10
194.2521230827498
 20
148.062926516599
 42
0.4999999999999998
 10
194.2521230827498
 20
145.662926516599
 42
0.0
 97
        0
 75
     0
 76
     1
 98
        0
  0
ARC
  5
FF
330
E3
100
AcDbEntity
  8
Des_ Walls
  6
Continuous
100
AcDbCircle
 10
195.1521230827499
 20
146.862926516599
 30
0.0
 40
1.500000000000012
100
AcDbArc
 50
126.8698976458442
 51
233.1301023541558
  0
LINE
  5
100
330
E3
100
AcDbEntity
  8
Des_ Walls
  6
Continuous
100
AcDbLine
 10
194.252124569636
 20
145.6629264543544
 30
0.0
 11
194.252124569636
 21
148.0629244067553
 31
0.0
  0
HATCH
  5
101
330
E3
100
AcDbEntity
  8
Des_ Walls
  6
Continuous
 62
   255
370
     0
100
AcDbHatch
 10
0.0
 20
0.0
 30
0.0
210
0.0
220
0.0
230
1.0
  2
SOLID
 70
     1
 71
     0
 91
        1
 92
        3
 72
     0
 73
     1
 93
        4
 10
193.6521230827499
 20
146.222926516599
 10
193.7955096521811
 20
146.222926516599
 10
193.7955096521811
 20
147.502926516599
 10
193.6521230827499
 20
147.502926516599
 97
        0
 75
     0
 76
     1
 98
        0
  0
LINE
  5
102
330
E3
100
AcDbEntity
  8
Des_ Walls
  6
Continuous
100
AcDbLine
 10
193.6521229009961
 20
146.2229283024903
 30
0.0
 11
193.7955108314749
 21
146.2229283024903
 31
0.0
  0
LINE
  5
103
330
E3
100
AcDbEntity
  8
Des_ Walls
  6
Continuous
100
AcDbLine
 10
193.7955108314749
 20
146.2229283024903
 30
0.0
 11
193.7955108314749
 21
147.5029269196988
 31
0.0
  0
LINE
  5
104
330
E3
100
AcDbEntity
  8
Des_ Walls
  6
Continuous
100
AcDbLine
 10
193.7955108314749
 20
147.5029269196988
 30
0.0
 11
193.6521229009961
 21
147.5029269196988
 31
0.0
  0
LINE
  5
105
330
E3
100
AcDbEntity
  8
Des_ Walls
  6
Continuous
100
AcDbLine
 10
193.6521229009961
 20
147.5029269196988
 30
0.0
 11
193.6521229009961
 21
146.2229283024903
 31
0.0
  0
HATCH
  5
106
330
E3
100
AcDbEntity
  8
Des_ Walls
  6
Continuous
 62
   255
370
     0
100
AcDbHatch
 10
0.0
 20
0.0
 30
0.0
210
0.0
220
0.0
230
1.0
  2
SOLID
 70
     1
 71
     0
 91
        1
 92
        3
 72
     1
 73
     1
 93
        4
 10
194.2521230827498
 20
145.462926516599
 42
0.0
 10
195.0521230827498
 20
145.462926516599
 42
-0.4285714285714285
 10
195.0521230827498
 20
148.262926516599
 42
0.0
 10
194.2521230827498
 20
148.262926516599
 42
0.0
 97
        0
 75
     0
 76
     1
 98
        0
  0
LINE
  5
107
330
E3
100
AcDbEntity
  8
Des_ Walls
  6
Continuous
100
AcDbLine
 10
194.252124569636
 20
145.4629273518343
 30
0.0
 11
195.0521209797167
 21
145.4629273518343
 31
0.0
  0
ARC
  5
108
330
E3
100
AcDbEntity
  8
Des_ Walls
  6
Continuous
100
AcDbCircle
 10
196.3854564160831
 20
146.862926516599
 30
0.0
 40
1.933333333333356
100
AcDbArc
 50
133.6028189727044
 51
226.3971810272961
  0
LINE
  5
109
330
E3
100
AcDbEntity
  8
Des_ Walls
  6
Continuous
100
AcDbLine
 10
195.0521209797167
 20
148.2629278703549
 30
0.0
 11
194.252124569636
 21
148.2629278703549
 31
0.0
  0
LINE
  5
10A
330
E3
100
AcDbEntity
  8
Des_ Walls
  6
Continuous
100
AcDbLine
 10
194.252124569636
 20
148.2629278703549
 30
0.0
 11
194.252124569636
 21
145.4629273518343
 31
0.0
  0
HATCH
  5
10B
330
E3
100
AcDbEntity
  8
Des_ Walls
  6
Continuous
 62
   255
370
     0
100
AcDbHatch
 10
0.0
 20
0.0
 30
0.0
210
0.0
220
0.0
230
1.0
  2
SOLID
 70
     1
 71
     0
 91
        1
 92
        3
 72
     0
 73
     1
 93
        5
 10
194.4521230827498
 20
146.542926516599
 10
203.8121230827499
 20
146.542926516599
 10
204.4521230827501
 20
146.862926516599
 10
203.8121230827499
 20
147.182926516599
 10
194.4521230827498
 20
147.182926516599
 97
        0
 75
     0
 76
     1
 98
        0
  0
LINE
  5
10C
330
E3
100
AcDbEntity
  8
Des_ Walls
  6
Continuous
100
AcDbLine
 10
194.4521236721562
 20
146.5429268665226
 30
0.0
 11
203.8121209198149
 21
146.5429268665226
 31
0.0
  0
LINE
  5
10D
330
E3
100
AcDbEntity
  8
Des_ Walls
  6
Continuous
100
AcDbLine
 10
203.8121209198149
 20
146.5429268665226
 30
0.0
 11
204.4521224089588
 21
146.8629254305548
 31
0.0
  0
LINE
  5
10E
330
E3
100
AcDbEntity
  8
Des_ Walls
  6
Continuous
100
AcDbLine
 10
204.4521224089588
 20
146.8629254305548
 30
0.0
 11
203.8121209198149
 21
147.1829283556666
 31
0.0
  0
LINE
  5
10F
330
E3
100
AcDbEntity
  8
Des_ Walls
  6
Continuous
100
AcDbLine
 10
203.8121209198149
 20
147.1829283556666
 30
0.0
 11
194.4521236721562
 21
147.1829283556666
 31
0.0
  0
LINE
  5
110
330
E3
100
AcDbEntity
  8
Des_ Walls
  6
Continuous
100
AcDbLine
 10
194.4521236721562
 20
147.1829283556666
 30
0.0
 11
194.4521236721562
 21
146.5429268665226
 31
0.0
  0
LINE
  5
111
330
E3
100
AcDbEntity
  8
Des_ Walls
  6
Continuous
100
AcDbLine
 10
194.4521236721562
 20
147.3829274581867
 30
0.0
 11
194.5910109686664
 21
147.3809475281269
 31
0.0
  0
LINE
  5
112
330
E3
100
AcDbEntity
  8
Des_ Walls
  6
Continuous
100
AcDbLine
 10
194.5910109686664
 20
147.3809475281269
 30
0.0
 11
194.7299026262561
 21
147.3750251822651
 31
0.0
  0
LINE
  5
113
330
E3
100
AcDbEntity
  8
Des_ Walls
  6
Continuous
100
AcDbLine
 10
194.7299026262561
 20
147.3750251822651
 30
0.0
 11
194.8687899227663
 21
147.365208392475
 31
0.0
  0
LINE
  5
114
330
E3
100
AcDbEntity
  8
Des_ Walls
  6
Continuous
100
AcDbLine
 10
194.8687899227663
 20
147.365208392475
 30
0.0
 11
195.0076772192766
 21
147.3515669360275
 31
0.0
  0
LINE
  5
115
330
E3
100
AcDbEntity
  8
Des_ Walls
  6
Continuous
100
AcDbLine
 10
195.0076772192766
 20
147.3515669360275
 30
0.0
 11
195.1465688768662
 21
147.3342054788288
 31
0.0
  0
LINE
  5
116
330
E3
100
AcDbEntity
  8
Des_ Walls
  6
Continuous
100
AcDbLine
 10
195.1465688768662
 20
147.3342054788288
 30
0.0
 11
195.2854561733765
 21
147.3132592143411
 31
0.0
  0
LINE
  5
117
330
E3
100
AcDbEntity
  8
Des_ Walls
  6
Continuous
100
AcDbLine
 10
195.2854561733765
 20
147.3132592143411
 30
0.0
 11
195.4243434698867
 21
147.2888851414239
 31
0.0
  0
LINE
  5
118
330
E3
100
AcDbEntity
  8
Des_ Walls
  6
Continuous
100
AcDbLine
 10
195.4243434698867
 20
147.2888851414239
 30
0.0
 11
195.5632351274764
 21
147.2612707864924
 31
0.0
  0
LINE
  5
119
330
E3
100
AcDbEntity
  8
Des_ Walls
  6
Continuous
100
AcDbLine
 10
195.5632351274764
 20
147.2612707864924
 30
0.0
 11
195.7021224239866
 21
147.2306211202798
 31
0.0
  0
LINE
  5
11A
330
E3
100
AcDbEntity
  8
Des_ Walls
  6
Continuous
100
AcDbLine
 10
195.7021224239866
 20
147.2306211202798
 30
0.0
 11
195.8410140815763
 21
147.1971760021544
 31
0.0
  0
LINE
  5
11B
330
E3
100
AcDbEntity
  8
Des_ Walls
  6
Continuous
100
AcDbLine
 10
195.8410140815763
 20
147.1971760021544
 30
0.0
 11
195.9799013780865
 21
147.1611883747232
 31
0.0
  0
LINE
  5
11C
330
E3
100
AcDbEntity
  8
Des_ Walls
  6
Continuous
100
AcDbLine
 10
195.9799013780865
 20
147.1611883747232
 30
0.0
 11
196.1187886745968
 21
147.1229286249105
 31
0.0
  0
LINE
  5
11D
330
E3
100
AcDbEntity
  8
Des_ Walls
  6
Continuous
100
AcDbLine
 10
196.1187886745968
 20
147.1229286249105
 30
0.0
 11
196.2576803321865
 21
147.082688945038
 31
0.0
  0
LINE
  5
11E
330
E3
100
AcDbEntity
  8
Des_ Walls
  6
Continuous
100
AcDbLine
 10
196.2576803321865
 20
147.082688945038
 30
0.0
 11
196.3965676286967
 21
147.0407789717449
 31
0.0
  0
LINE
  5
11F
330
E3
100
AcDbEntity
  8
Des_ Walls
  6
Continuous
100
AcDbLine
 10
196.3965676286967
 20
147.0407789717449
 30
0.0
 11
196.5354549252069
 21
146.9975127027501
 31
0.0
  0
LINE
  5
120
330
E3
100
AcDbEntity
  8
Des_ Walls
  6
Continuous
100
AcDbLine
 10
196.5354549252069
 20
146.9975127027501
 30
0.0
 11
196.6743465827966
 21
146.95322158009
 31
0.0
  0
LINE
  5
121
330
E3
100
AcDbEntity
  8
Des_ Walls
  6
Continuous
100
AcDbLine
 10
196.6743465827966
 20
146.95322158009
 30
0.0
 11
196.8132338793069
 21
146.9082457679598
 31
0.0
  0
LINE
  5
122
330
E3
100
AcDbEntity
  8
Des_ Walls
  6
Continuous
100
AcDbLine
 10
196.8132338793069
 20
146.9082457679598
 30
0.0
 11
196.9521211758171
 21
146.8629254305548
 31
0.0
  0
LINE
  5
123
330
E3
100
AcDbEntity
  8
Des_ Walls
  6
Continuous
100
AcDbLine
 10
196.9521211758171
 20
146.8629254305548
 30
0.0
 11
197.0910128334068
 21
146.81760509315
 31
0.0
  0
LINE
  5
124
330
E3
100
AcDbEntity
  8
Des_ Walls
  6
Continuous
100
AcDbLine
 10
197.0910128334068
 20
146.81760509315
 30
0.0
 11
197.229900129917
 21
146.7726292810198
 31
0.0
  0
LINE
  5
125
330
E3
100
AcDbEntity
  8
Des_ Walls
  6
Continuous
100
AcDbLine
 10
197.229900129917
 20
146.7726292810198
 30
0.0
 11
197.3687917875067
 21
146.728342519439
 31
0.0
  0
LINE
  5
126
330
E3
100
AcDbEntity
  8
Des_ Walls
  6
Continuous
100
AcDbLine
 10
197.3687917875067
 20
146.728342519439
 30
0.0
 11
197.507679084017
 21
146.6850762504442
 31
0.0
  0
LINE
  5
127
330
E3
100
AcDbEntity
  8
Des_ Walls
  6
Continuous
100
AcDbLine
 10
197.507679084017
 20
146.6850762504442
 30
0.0
 11
197.6465663805272
 21
146.6431662771512
 31
0.0
  0
LINE
  5
128
330
E3
100
AcDbEntity
  8
Des_ Walls
  6
Continuous
100
AcDbLine
 10
197.6465663805272
 20
146.6431662771512
 30
0.0
 11
197.7854580381168
 21
146.6029265972786
 31
0.0
  0
LINE
  5
129
330
E3
100
AcDbEntity
  8
Des_ Walls
  6
Continuous
100
AcDbLine
 10
197.7854580381168
 20
146.6029265972786
 30
0.0
 11
197.9243453346271
 21
146.564666847466
 31
0.0
  0
LINE
  5
12A
330
E3
100
AcDbEntity
  8
Des_ Walls
  6
Continuous
100
AcDbLine
 10
197.9243453346271
 20
146.564666847466
 30
0.0
 11
198.0632326311373
 21
146.5286748589553
 31
0.0
  0
LINE
  5
12B
330
E3
100
AcDbEntity
  8
Des_ Walls
  6
Continuous
100
AcDbLine
 10
198.0632326311373
 20
146.5286748589553
 30
0.0
 11
198.202124288727
 21
146.49522974083
 31
0.0
  0
LINE
  5
12C
330
E3
100
AcDbEntity
  8
Des_ Walls
  6
Continuous
100
AcDbLine
 10
198.202124288727
 20
146.49522974083
 30
0.0
 11
198.3410115852373
 21
146.4645844356968
 31
0.0
  0
LINE
  5
12D
330
E3
100
AcDbEntity
  8
Des_ Walls
  6
Continuous
100
AcDbLine
 10
198.3410115852373
 20
146.4645844356968
 30
0.0
 11
198.4798988817475
 21
146.4369657196859
 31
0.0
  0
LINE
  5
12E
330
E3
100
AcDbEntity
  8
Des_ Walls
  6
Continuous
100
AcDbLine
 10
198.4798988817475
 20
146.4369657196859
 30
0.0
 11
198.6187905393372
 21
146.4125916467686
 31
0.0
  0
LINE
  5
12F
330
E3
100
AcDbEntity
  8
Des_ Walls
  6
Continuous
100
AcDbLine
 10
198.6187905393372
 20
146.4125916467686
 30
0.0
 11
198.7576778358474
 21
146.391645382281
 31
0.0
  0
LINE
  5
130
330
E3
100
AcDbEntity
  8
Des_ Walls
  6
Continuous
100
AcDbLine
 10
198.7576778358474
 20
146.391645382281
 30
0.0
 11
198.8965694934371
 21
146.3742882861617
 31
0.0
  0
LINE
  5
131
330
E3
100
AcDbEntity
  8
Des_ Walls
  6
Continuous
100
AcDbLine
 10
198.8965694934371
 20
146.3742882861617
 30
0.0
 11
199.0354567899473
 21
146.3606468297141
 31
0.0
  0
LINE
  5
132
330
E3
100
AcDbEntity
  8
Des_ Walls
  6
Continuous
100
AcDbLine
 10
199.0354567899473
 20
146.3606468297141
 30
0.0
 11
199.1743440864576
 21
146.3508256788446
 31
0.0
  0
LINE
  5
133
330
E3
100
AcDbEntity
  8
Des_ Walls
  6
Continuous
100
AcDbLine
 10
199.1743440864576
 20
146.3508256788446
 30
0.0
 11
199.3132357440472
 21
146.3449033329828
 31
0.0
  0
LINE
  5
134
330
E3
100
AcDbEntity
  8
Des_ Walls
  6
Continuous
100
AcDbLine
 10
199.3132357440472
 20
146.3449033329828
 30
0.0
 11
199.4521230405575
 21
146.3429277640024
 31
0.0
  0
LINE
  5
135
330
E3
100
AcDbEntity
  8
Des_ Walls
  6
Continuous
100
AcDbLine
 10
199.4521230405575
 20
146.3429277640024
 30
0.0
 11
199.5910103370678
 21
146.3449033329828
 31
0.0
  0
LINE
  5
136
330
E3
100
AcDbEntity
  8
Des_ Walls
  6
Continuous
100
AcDbLine
 10
196.9521211758171
 20
147.3829274581867
 30
0.0
 11
197.0910128334068
 21
147.3809475281269
 31
0.0
  0
LINE
  5
137
330
E3
100
AcDbEntity
  8
Des_ Walls
  6
Continuous
100
AcDbLine
 10
197.0910128334068
 20
147.3809475281269
 30
0.0
 11
197.229900129917
 21
147.3750251822651
 31
0.0
  0
LINE
  5
138
330
E3
100
AcDbEntity
  8
Des_ Walls
  6
Continuous
100
AcDbLine
 10
197.229900129917
 20
147.3750251822651
 30
0.0
 11
197.3687917875067
 21
147.365208392475
 31
0.0
  0
LINE
  5
139
330
E3
100
AcDbEntity
  8
Des_ Walls
  6
Continuous
100
AcDbLine
 10
197.3687917875067
 20
147.365208392475
 30
0.0
 11
197.507679084017
 21
147.3515669360275
 31
0.0
  0
LINE
  5
13A
330
E3
100
AcDbEntity
  8
Des_ Walls
  6
Continuous
100
AcDbLine
 10
197.507679084017
 20
147.3515669360275
 30
0.0
 11
197.6465663805272
 21
147.3342054788288
 31
0.0
  0
LINE
  5
13B
330
E3
100
AcDbEntity
  8
Des_ Walls
  6
Continuous
100
AcDbLine
 10
197.6465663805272
 20
147.3342054788288
 30
0.0
 11
197.7854580381168
 21
147.3132592143411
 31
0.0
  0
LINE
  5
13C
330
E3
100
AcDbEntity
  8
Des_ Walls
  6
Continuous
100
AcDbLine
 10
197.7854580381168
 20
147.3132592143411
 30
0.0
 11
197.9243453346271
 21
147.2888851414239
 31
0.0
  0
LINE
  5
13D
330
E3
100
AcDbEntity
  8
Des_ Walls
  6
Continuous
100
AcDbLine
 10
197.9243453346271
 20
147.2888851414239
 30
0.0
 11
198.0632326311373
 21
147.2612707864924
 31
0.0
  0
LINE
  5
13E
330
E3
100
AcDbEntity
  8
Des_ Walls
  6
Continuous
100
AcDbLine
 10
198.0632326311373
 20
147.2612707864924
 30
0.0
 11
198.202124288727
 21
147.2306211202798
 31
0.0
  0
LINE
  5
13F
330
E3
100
AcDbEntity
  8
Des_ Walls
  6
Continuous
100
AcDbLine
 10
198.202124288727
 20
147.2306211202798
 30
0.0
 11
198.3410115852373
 21
147.1971760021544
 31
0.0
  0
LINE
  5
140
330
E3
100
AcDbEntity
  8
Des_ Walls
  6
Continuous
100
AcDbLine
 10
198.3410115852373
 20
147.1971760021544
 30
0.0
 11
198.4798988817475
 21
147.1611883747232
 31
0.0
  0
LINE
  5
141
330
E3
100
AcDbEntity
  8
Des_ Walls
  6
Continuous
100
AcDbLine
 10
198.4798988817475
 20
147.1611883747232
 30
0.0
 11
198.6187905393372
 21
147.1229286249105
 31
0.0
  0
LINE
  5
142
330
E3
100
AcDbEntity
  8
Des_ Walls
  6
Continuous
100
AcDbLine
 10
198.6187905393372
 20
147.1229286249105
 30
0.0
 11
198.7576778358474
 21
147.082688945038
 31
0.0
  0
LINE
  5
143
330
E3
100
AcDbEntity
  8
Des_ Walls
  6
Continuous
100
AcDbLine
 10
198.7576778358474
 20
147.082688945038
 30
0.0
 11
198.8965694934371
 21
147.0407789717449
 31
0.0
  0
LINE
  5
144
330
E3
100
AcDbEntity
  8
Des_ Walls
  6
Continuous
100
AcDbLine
 10
198.8965694934371
 20
147.0407789717449
 30
0.0
 11
199.0354567899473
 21
146.9975127027501
 31
0.0
  0
LINE
  5
145
330
E3
100
AcDbEntity
  8
Des_ Walls
  6
Continuous
100
AcDbLine
 10
199.0354567899473
 20
146.9975127027501
 30
0.0
 11
199.1743440864576
 21
146.95322158009
 31
0.0
  0
LINE
  5
146
330
E3
100
AcDbEntity
  8
Des_ Walls
  6
Continuous
100
AcDbLine
 10
199.1743440864576
 20
146.95322158009
 30
0.0
 11
199.3132357440472
 21
146.9082457679598
 31
0.0
  0
LINE
  5
147
330
E3
100
AcDbEntity
  8
Des_ Walls
  6
Continuous
100
AcDbLine
 10
199.3132357440472
 20
146.9082457679598
 30
0.0
 11
199.4521230405575
 21
146.8629254305548
 31
0.0
  0
LINE
  5
148
330
E3
100
AcDbEntity
  8
Des_ Walls
  6
Continuous
100
AcDbLine
 10
199.4521230405575
 20
146.8629254305548
 30
0.0
 11
199.5910103370678
 21
146.81760509315
 31
0.0
  0
LINE
  5
149
330
E3
100
AcDbEntity
  8
Des_ Walls
  6
Continuous
100
AcDbLine
 10
199.5910103370678
 20
146.81760509315
 30
0.0
 11
199.7299019946574
 21
146.7726292810198
 31
0.0
  0
LINE
  5
14A
330
E3
100
AcDbEntity
  8
Des_ Walls
  6
Continuous
100
AcDbLine
 10
199.7299019946574
 20
146.7726292810198
 30
0.0
 11
199.8687892911677
 21
146.728342519439
 31
0.0
  0
LINE
  5
14B
330
E3
100
AcDbEntity
  8
Des_ Walls
  6
Continuous
100
AcDbLine
 10
199.8687892911677
 20
146.728342519439
 30
0.0
 11
200.0076765876779
 21
146.6850762504442
 31
0.0
  0
LINE
  5
14C
330
E3
100
AcDbEntity
  8
Des_ Walls
  6
Continuous
100
AcDbLine
 10
200.0076765876779
 20
146.6850762504442
 30
0.0
 11
200.1465682452676
 21
146.6431662771512
 31
0.0
  0
LINE
  5
14D
330
E3
100
AcDbEntity
  8
Des_ Walls
  6
Continuous
100
AcDbLine
 10
200.1465682452676
 20
146.6431662771512
 30
0.0
 11
200.2854555417778
 21
146.6029265972786
 31
0.0
  0
LINE
  5
14E
330
E3
100
AcDbEntity
  8
Des_ Walls
  6
Continuous
100
AcDbLine
 10
200.2854555417778
 20
146.6029265972786
 30
0.0
 11
200.4243471993675
 21
146.564666847466
 31
0.0
  0
LINE
  5
14F
330
E3
100
AcDbEntity
  8
Des_ Walls
  6
Continuous
100
AcDbLine
 10
200.4243471993675
 20
146.564666847466
 30
0.0
 11
200.5632344958777
 21
146.5286748589553
 31
0.0
  0
LINE
  5
150
330
E3
100
AcDbEntity
  8
Des_ Walls
  6
Continuous
100
AcDbLine
 10
200.5632344958777
 20
146.5286748589553
 30
0.0
 11
200.702121792388
 21
146.49522974083
 31
0.0
  0
LINE
  5
151
330
E3
100
AcDbEntity
  8
Des_ Walls
  6
Continuous
100
AcDbLine
 10
200.702121792388
 20
146.49522974083
 30
0.0
 11
200.8410134499777
 21
146.4645844356968
 31
0.0
  0
LINE
  5
152
330
E3
100
AcDbEntity
  8
Des_ Walls
  6
Continuous
100
AcDbLine
 10
200.8410134499777
 20
146.4645844356968
 30
0.0
 11
200.9799007464879
 21
146.4369657196859
 31
0.0
  0
LINE
  5
153
330
E3
100
AcDbEntity
  8
Des_ Walls
  6
Continuous
100
AcDbLine
 10
200.9799007464879
 20
146.4369657196859
 30
0.0
 11
201.1187880429981
 21
146.4125916467686
 31
0.0
  0
LINE
  5
154
330
E3
100
AcDbEntity
  8
Des_ Walls
  6
Continuous
100
AcDbLine
 10
201.1187880429981
 20
146.4125916467686
 30
0.0
 11
201.2576797005878
 21
146.391645382281
 31
0.0
  0
LINE
  5
155
330
E3
100
AcDbEntity
  8
Des_ Walls
  6
Continuous
100
AcDbLine
 10
201.2576797005878
 20
146.391645382281
 30
0.0
 11
201.396566997098
 21
146.3742882861617
 31
0.0
  0
LINE
  5
156
330
E3
100
AcDbEntity
  8
Des_ Walls
  6
Continuous
100
AcDbLine
 10
201.396566997098
 20
146.3742882861617
 30
0.0
 11
201.5354542936083
 21
146.3606468297141
 31
0.0
  0
LINE
  5
157
330
E3
100
AcDbEntity
  8
Des_ Walls
  6
Continuous
100
AcDbLine
 10
201.5354542936083
 20
146.3606468297141
 30
0.0
 11
201.6743459511979
 21
146.3508256788446
 31
0.0
  0
LINE
  5
158
330
E3
100
AcDbEntity
  8
Des_ Walls
  6
Continuous
100
AcDbLine
 10
201.6743459511979
 20
146.3508256788446
 30
0.0
 11
201.8132332477082
 21
146.3449033329828
 31
0.0
  0
LINE
  5
159
330
E3
100
AcDbEntity
  8
Des_ Walls
  6
Continuous
100
AcDbLine
 10
201.8132332477082
 20
146.3449033329828
 30
0.0
 11
201.9521249052979
 21
146.3429277640024
 31
0.0
  0
LINE
  5
15A
330
E3
100
AcDbEntity
  8
Des_ Walls
  6
Continuous
100
AcDbLine
 10
201.9521249052979
 20
146.3429277640024
 30
0.0
 11
202.0910122018081
 21
146.3449033329828
 31
0.0
  0
LINE
  5
15B
330
E3
100
AcDbEntity
  8
Des_ Walls
  6
Continuous
100
AcDbLine
 10
199.4521230405575
 20
147.3829274581867
 30
0.0
 11
199.5910103370678
 21
147.3809475281269
 31
0.0
  0
LINE
  5
15C
330
E3
100
AcDbEntity
  8
Des_ Walls
  6
Continuous
100
AcDbLine
 10
199.5910103370678
 20
147.3809475281269
 30
0.0
 11
199.7299019946574
 21
147.3750251822651
 31
0.0
  0
LINE
  5
15D
330
E3
100
AcDbEntity
  8
Des_ Walls
  6
Continuous
100
AcDbLine
 10
199.7299019946574
 20
147.3750251822651
 30
0.0
 11
199.8687892911677
 21
147.365208392475
 31
0.0
  0
LINE
  5
15E
330
E3
100
AcDbEntity
  8
Des_ Walls
  6
Continuous
100
AcDbLine
 10
199.8687892911677
 20
147.365208392475
 30
0.0
 11
200.0076765876779
 21
147.3515669360275
 31
0.0
  0
LINE
  5
15F
330
E3
100
AcDbEntity
  8
Des_ Walls
  6
Continuous
100
AcDbLine
 10
200.0076765876779
 20
147.3515669360275
 30
0.0
 11
200.1465682452676
 21
147.3342054788288
 31
0.0
  0
LINE
  5
160
330
E3
100
AcDbEntity
  8
Des_ Walls
  6
Continuous
100
AcDbLine
 10
200.1465682452676
 20
147.3342054788288
 30
0.0
 11
200.2854555417778
 21
147.3132592143411
 31
0.0
  0
LINE
  5
161
330
E3
100
AcDbEntity
  8
Des_ Walls
  6
Continuous
100
AcDbLine
 10
200.2854555417778
 20
147.3132592143411
 30
0.0
 11
200.4243471993675
 21
147.2888851414239
 31
0.0
  0
LINE
  5
162
330
E3
100
AcDbEntity
  8
Des_ Walls
  6
Continuous
100
AcDbLine
 10
200.4243471993675
 20
147.2888851414239
 30
0.0
 11
200.5632344958777
 21
147.2612707864924
 31
0.0
  0
LINE
  5
163
330
E3
100
AcDbEntity
  8
Des_ Walls
  6
Continuous
100
AcDbLine
 10
200.5632344958777
 20
147.2612707864924
 30
0.0
 11
200.702121792388
 21
147.2306211202798
 31
0.0
  0
LINE
  5
164
330
E3
100
AcDbEntity
  8
Des_ Walls
  6
Continuous
100
AcDbLine
 10
200.702121792388
 20
147.2306211202798
 30
0.0
 11
200.8410134499777
 21
147.1971760021544
 31
0.0
  0
LINE
  5
165
330
E3
100
AcDbEntity
  8
Des_ Walls
  6
Continuous
100
AcDbLine
 10
200.8410134499777
 20
147.1971760021544
 30
0.0
 11
200.9799007464879
 21
147.1611883747232
 31
0.0
  0
LINE
  5
166
330
E3
100
AcDbEntity
  8
Des_ Walls
  6
Continuous
100
AcDbLine
 10
200.9799007464879
 20
147.1611883747232
 30
0.0
 11
201.1187880429981
 21
147.1229286249105
 31
0.0
  0
LINE
  5
167
330
E3
100
AcDbEntity
  8
Des_ Walls
  6
Continuous
100
AcDbLine
 10
201.1187880429981
 20
147.1229286249105
 30
0.0
 11
201.2576797005878
 21
147.082688945038
 31
0.0
  0
LINE
  5
168
330
E3
100
AcDbEntity
  8
Des_ Walls
  6
Continuous
100
AcDbLine
 10
201.2576797005878
 20
147.082688945038
 30
0.0
 11
201.396566997098
 21
147.0407789717449
 31
0.0
  0
LINE
  5
169
330
E3
100
AcDbEntity
  8
Des_ Walls
  6
Continuous
100
AcDbLine
 10
201.396566997098
 20
147.0407789717449
 30
0.0
 11
201.5354542936083
 21
146.9975127027501
 31
0.0
  0
LINE
  5
16A
330
E3
100
AcDbEntity
  8
Des_ Walls
  6
Continuous
100
AcDbLine
 10
201.5354542936083
 20
146.9975127027501
 30
0.0
 11
201.6743459511979
 21
146.95322158009
 31
0.0
  0
LINE
  5
16B
330
E3
100
AcDbEntity
  8
Des_ Walls
  6
Continuous
100
AcDbLine
 10
201.6743459511979
 20
146.95322158009
 30
0.0
 11
201.8132332477082
 21
146.9082457679598
 31
0.0
  0
LINE
  5
16C
330
E3
100
AcDbEntity
  8
Des_ Walls
  6
Continuous
100
AcDbLine
 10
201.8132332477082
 20
146.9082457679598
 30
0.0
 11
201.9521249052979
 21
146.8629254305548
 31
0.0
  0
LINE
  5
16D
330
E3
100
AcDbEntity
  8
Des_ Walls
  6
Continuous
100
AcDbLine
 10
201.9521249052979
 20
146.8629254305548
 30
0.0
 11
202.0910122018081
 21
146.81760509315
 31
0.0
  0
LINE
  5
16E
330
E3
100
AcDbEntity
  8
Des_ Walls
  6
Continuous
100
AcDbLine
 10
202.0910122018081
 20
146.81760509315
 30
0.0
 11
202.2298994983184
 21
146.7726292810198
 31
0.0
  0
LINE
  5
16F
330
E3
100
AcDbEntity
  8
Des_ Walls
  6
Continuous
100
AcDbLine
 10
202.2298994983184
 20
146.7726292810198
 30
0.0
 11
202.3687911559081
 21
146.728342519439
 31
0.0
  0
LINE
  5
170
330
E3
100
AcDbEntity
  8
Des_ Walls
  6
Continuous
100
AcDbLine
 10
202.3687911559081
 20
146.728342519439
 30
0.0
 11
202.5076784524183
 21
146.6850762504442
 31
0.0
  0
LINE
  5
171
330
E3
100
AcDbEntity
  8
Des_ Walls
  6
Continuous
100
AcDbLine
 10
202.5076784524183
 20
146.6850762504442
 30
0.0
 11
202.6465657489285
 21
146.6431662771512
 31
0.0
  0
LINE
  5
172
330
E3
100
AcDbEntity
  8
Des_ Walls
  6
Continuous
100
AcDbLine
 10
202.6465657489285
 20
146.6431662771512
 30
0.0
 11
202.7854574065182
 21
146.6029265972786
 31
0.0
  0
LINE
  5
173
330
E3
100
AcDbEntity
  8
Des_ Walls
  6
Continuous
100
AcDbLine
 10
202.7854574065182
 20
146.6029265972786
 30
0.0
 11
202.9243447030285
 21
146.564666847466
 31
0.0
  0
LINE
  5
174
330
E3
100
AcDbEntity
  8
Des_ Walls
  6
Continuous
100
AcDbLine
 10
202.9243447030285
 20
146.564666847466
 30
0.0
 11
203.0632363606181
 21
146.5286748589553
 31
0.0
  0
LINE
  5
175
330
E3
100
AcDbEntity
  8
Des_ Walls
  6
Continuous
100
AcDbLine
 10
203.0632363606181
 20
146.5286748589553
 30
0.0
 11
203.2021236571284
 21
146.49522974083
 31
0.0
  0
LINE
  5
176
330
E3
100
AcDbEntity
  8
Des_ Walls
  6
Continuous
100
AcDbLine
 10
194.4521236721562
 20
146.8629254305548
 30
0.0
 11
194.5910109686664
 21
146.81760509315
 31
0.0
  0
LINE
  5
177
330
E3
100
AcDbEntity
  8
Des_ Walls
  6
Continuous
100
AcDbLine
 10
194.5910109686664
 20
146.81760509315
 30
0.0
 11
194.7299026262561
 21
146.7726292810198
 31
0.0
  0
LINE
  5
178
330
E3
100
AcDbEntity
  8
Des_ Walls
  6
Continuous
100
AcDbLine
 10
194.7299026262561
 20
146.7726292810198
 30
0.0
 11
194.8687899227663
 21
146.728342519439
 31
0.0
  0
LINE
  5
179
330
E3
100
AcDbEntity
  8
Des_ Walls
  6
Continuous
100
AcDbLine
 10
194.8687899227663
 20
146.728342519439
 30
0.0
 11
195.0076772192766
 21
146.6850762504442
 31
0.0
  0
LINE
  5
17A
330
E3
100
AcDbEntity
  8
Des_ Walls
  6
Continuous
100
AcDbLine
 10
195.0076772192766
 20
146.6850762504442
 30
0.0
 11
195.1465688768662
 21
146.6431662771512
 31
0.0
  0
LINE
  5
17B
330
E3
100
AcDbEntity
  8
Des_ Walls
  6
Continuous
100
AcDbLine
 10
195.1465688768662
 20
146.6431662771512
 30
0.0
 11
195.2854561733765
 21
146.6029265972786
 31
0.0
  0
LINE
  5
17C
330
E3
100
AcDbEntity
  8
Des_ Walls
  6
Continuous
100
AcDbLine
 10
195.2854561733765
 20
146.6029265972786
 30
0.0
 11
195.4243434698867
 21
146.564666847466
 31
0.0
  0
LINE
  5
17D
330
E3
100
AcDbEntity
  8
Des_ Walls
  6
Continuous
100
AcDbLine
 10
195.4243434698867
 20
146.564666847466
 30
0.0
 11
195.5632351274764
 21
146.5286748589553
 31
0.0
  0
LINE
  5
17E
330
E3
100
AcDbEntity
  8
Des_ Walls
  6
Continuous
100
AcDbLine
 10
195.5632351274764
 20
146.5286748589553
 30
0.0
 11
195.7021224239866
 21
146.49522974083
 31
0.0
  0
LINE
  5
17F
330
E3
100
AcDbEntity
  8
Des_ Walls
  6
Continuous
100
AcDbLine
 10
195.7021224239866
 20
146.49522974083
 30
0.0
 11
195.8410140815763
 21
146.4645844356968
 31
0.0
  0
LINE
  5
180
330
E3
100
AcDbEntity
  8
Des_ Walls
  6
Continuous
100
AcDbLine
 10
195.8410140815763
 20
146.4645844356968
 30
0.0
 11
195.9799013780865
 21
146.4369657196859
 31
0.0
  0
LINE
  5
181
330
E3
100
AcDbEntity
  8
Des_ Walls
  6
Continuous
100
AcDbLine
 10
195.9799013780865
 20
146.4369657196859
 30
0.0
 11
196.1187886745968
 21
146.4125916467686
 31
0.0
  0
LINE
  5
182
330
E3
100
AcDbEntity
  8
Des_ Walls
  6
Continuous
100
AcDbLine
 10
196.1187886745968
 20
146.4125916467686
 30
0.0
 11
196.2576803321865
 21
146.391645382281
 31
0.0
  0
LINE
  5
183
330
E3
100
AcDbEntity
  8
Des_ Walls
  6
Continuous
100
AcDbLine
 10
196.2576803321865
 20
146.391645382281
 30
0.0
 11
196.3965676286967
 21
146.3742882861617
 31
0.0
  0
LINE
  5
184
330
E3
100
AcDbEntity
  8
Des_ Walls
  6
Continuous
100
AcDbLine
 10
196.3965676286967
 20
146.3742882861617
 30
0.0
 11
196.5354549252069
 21
146.3606468297141
 31
0.0
  0
LINE
  5
185
330
E3
100
AcDbEntity
  8
Des_ Walls
  6
Continuous
100
AcDbLine
 10
196.5354549252069
 20
146.3606468297141
 30
0.0
 11
196.6743465827966
 21
146.3508256788446
 31
0.0
  0
LINE
  5
186
330
E3
100
AcDbEntity
  8
Des_ Walls
  6
Continuous
100
AcDbLine
 10
196.6743465827966
 20
146.3508256788446
 30
0.0
 11
196.8132338793069
 21
146.3449033329828
 31
0.0
  0
LINE
  5
187
330
E3
100
AcDbEntity
  8
Des_ Walls
  6
Continuous
100
AcDbLine
 10
196.8132338793069
 20
146.3449033329828
 30
0.0
 11
196.9521211758171
 21
146.3429277640024
 31
0.0
  0
LINE
  5
188
330
E3
100
AcDbEntity
  8
Des_ Walls
  6
Continuous
100
AcDbLine
 10
196.9521211758171
 20
146.3429277640024
 30
0.0
 11
197.0910128334068
 21
146.3449033329828
 31
0.0
  0
LINE
  5
189
330
E3
100
AcDbEntity
  8
Des_ Walls
  6
Continuous
100
AcDbLine
 10
201.9521249052979
 20
147.3829274581867
 30
0.0
 11
202.0910122018081
 21
147.3809475281269
 31
0.0
  0
LINE
  5
18A
330
E3
100
AcDbEntity
  8
Des_ Walls
  6
Continuous
100
AcDbLine
 10
202.0910122018081
 20
147.3809475281269
 30
0.0
 11
202.2298994983184
 21
147.3750251822651
 31
0.0
  0
LINE
  5
18B
330
E3
100
AcDbEntity
  8
Des_ Walls
  6
Continuous
100
AcDbLine
 10
202.2298994983184
 20
147.3750251822651
 30
0.0
 11
202.3687911559081
 21
147.365208392475
 31
0.0
  0
LINE
  5
18C
330
E3
100
AcDbEntity
  8
Des_ Walls
  6
Continuous
100
AcDbLine
 10
202.3687911559081
 20
147.365208392475
 30
0.0
 11
202.5076784524183
 21
147.3515669360275
 31
0.0
  0
LINE
  5
18D
330
E3
100
AcDbEntity
  8
Des_ Walls
  6
Continuous
100
AcDbLine
 10
202.5076784524183
 20
147.3515669360275
 30
0.0
 11
202.6465657489285
 21
147.3342054788288
 31
0.0
  0
LINE
  5
18E
330
E3
100
AcDbEntity
  8
Des_ Walls
  6
Continuous
100
AcDbLine
 10
202.6465657489285
 20
147.3342054788288
 30
0.0
 11
202.7854574065182
 21
147.3132592143411
 31
0.0
  0
LINE
  5
18F
330
E3
100
AcDbEntity
  8
Des_ Walls
  6
Continuous
100
AcDbLine
 10
202.7854574065182
 20
147.3132592143411
 30
0.0
 11
202.9243447030285
 21
147.2888851414239
 31
0.0
  0
LINE
  5
190
330
E3
100
AcDbEntity
  8
Des_ Walls
  6
Continuous
100
AcDbLine
 10
202.9243447030285
 20
147.2888851414239
 30
0.0
 11
203.0632363606181
 21
147.2612707864924
 31
0.0
  0
LINE
  5
191
330
E3
100
AcDbEntity
  8
Des_ Walls
  6
Continuous
100
AcDbLine
 10
203.0632363606181
 20
147.2612707864924
 30
0.0
 11
203.2021236571284
 21
147.2306211202798
 31
0.0
  0
LINE
  5
192
330
E3
100
AcDbEntity
  8
Des_ Walls
  6
Continuous
100
AcDbLine
 10
1.137126465162914
 20
128.9961446359366
 30
0.0
 11
2.18691578340179
 21
128.9961446359366
 31
0.0
  0
LINE
  5
193
330
E3
100
AcDbEntity
  8
Des_ Walls
  6
Continuous
100
AcDbLine
 10
2.18691578340179
 20
128.9961446359366
 30
0.0
 11
5.986911828077288
 21
122.3758743896672
 31
0.0
  0
LINE
  5
194
330
E3
100
AcDbEntity
  8
Des_ Walls
  6
Continuous
100
AcDbLine
 10
5.986911828077288
 20
122.3758743896672
 30
0.0
 11
14.58691248615938
 21
122.3758743896672
 31
0.0
  0
LINE
  5
195
330
E3
100
AcDbEntity
  8
Des_ Walls
  6
Continuous
100
AcDbLine
 10
14.58691248615938
 20
122.3758743896672
 30
0.0
 11
15.18691415479931
 21
123.0379036909967
 31
0.0
  0
LINE
  5
196
330
E3
100
AcDbEntity
  8
Des_ Walls
  6
Continuous
100
AcDbLine
 10
15.18691415479931
 20
123.0379036909967
 30
0.0
 11
22.1869132705612
 21
123.0379036909967
 31
0.0
  0
LINE
  5
197
330
E3
100
AcDbEntity
  8
Des_ Walls
  6
Continuous
100
AcDbLine
 10
22.1869132705612
 20
123.0379036909967
 30
0.0
 11
22.78691493920113
 21
122.3758743896672
 31
0.0
  0
LINE
  5
198
330
E3
100
AcDbEntity
  8
Des_ Walls
  6
Continuous
100
AcDbLine
 10
22.78691493920113
 20
122.3758743896672
 30
0.0
 11
31.38691559728322
 21
122.3758743896672
 31
0.0
  0
LINE
  5
199
330
E3
100
AcDbEntity
  8
Des_ Walls
  6
Continuous
100
AcDbLine
 10
31.38691559728322
 20
122.3758743896672
 30
0.0
 11
34.98691252588454
 21
128.9961412364858
 31
0.0
  0
LINE
  5
19A
330
E3
100
AcDbEntity
  8
Des_ Walls
  6
Continuous
100
AcDbLine
 10
34.98691252588454
 20
128.9961412364858
 30
0.0
 11
39.98691189428588
 21
128.9961412364858
 31
0.0
  0
LINE
  5
19B
330
E3
100
AcDbEntity
  8
Des_ Walls
  6
Continuous
100
AcDbLine
 10
39.98691189428588
 20
128.9961412364858
 30
0.0
 11
43.78691228648679
 21
122.3758743896672
 31
0.0
  0
LINE
  5
19C
330
E3
100
AcDbEntity
  8
Des_ Walls
  6
Continuous
100
AcDbLine
 10
43.78691228648679
 20
122.3758743896672
 30
0.0
 11
52.38691294456889
 21
122.3758743896672
 31
0.0
  0
LINE
  5
19D
330
E3
100
AcDbEntity
  8
Des_ Walls
  6
Continuous
100
AcDbLine
 10
52.38691294456889
 20
122.3758743896672
 30
0.0
 11
52.98691461320881
 21
123.0379036909967
 31
0.0
  0
LINE
  5
19E
330
E3
100
AcDbEntity
  8
Des_ Walls
  6
Continuous
100
AcDbLine
 10
52.98691461320881
 20
123.0379036909967
 30
0.0
 11
59.98691372897071
 21
123.0379036909967
 31
0.0
  0
LINE
  5
19F
330
E3
100
AcDbEntity
  8
Des_ Walls
  6
Continuous
100
AcDbLine
 10
59.98691372897071
 20
123.0379036909967
 30
0.0
 11
60.58691539761063
 21
122.3758743896672
 31
0.0
  0
LINE
  5
1A0
330
E3
100
AcDbEntity
  8
Des_ Walls
  6
Continuous
100
AcDbLine
 10
60.58691539761063
 20
122.3758743896672
 30
0.0
 11
69.1869116946133
 21
122.3758743896672
 31
0.0
  0
LINE
  5
1A1
330
E3
100
AcDbEntity
  8
Des_ Walls
  6
Continuous
100
AcDbLine
 10
69.1869116946133
 20
122.3758743896672
 30
0.0
 11
72.78691298429405
 21
128.9961412364858
 31
0.0
  0
LINE
  5
1A2
330
E3
100
AcDbEntity
  8
Des_ Walls
  6
Continuous
100
AcDbLine
 10
72.78691298429405
 20
128.9961412364858
 30
0.0
 11
77.7869123526954
 21
128.9961412364858
 31
0.0
  0
LINE
  5
1A3
330
E3
100
AcDbEntity
  8
Des_ Walls
  6
Continuous
100
AcDbLine
 10
77.7869123526954
 20
128.9961412364858
 30
0.0
 11
81.58691274489631
 21
122.3758743896672
 31
0.0
  0
LINE
  5
1A4
330
E3
100
AcDbEntity
  8
Des_ Walls
  6
Continuous
100
AcDbLine
 10
81.58691274489631
 20
122.3758743896672
 30
0.0
 11
90.18691340297839
 21
122.3758743896672
 31
0.0
  0
LINE
  5
1A5
330
E3
100
AcDbEntity
  8
Des_ Walls
  6
Continuous
100
AcDbLine
 10
90.18691340297839
 20
122.3758743896672
 30
0.0
 11
90.78691507161834
 21
123.0379036909967
 31
0.0
  0
LINE
  5
1A6
330
E3
100
AcDbEntity
  8
Des_ Walls
  6
Continuous
100
AcDbLine
 10
90.78691507161834
 20
123.0379036909967
 30
0.0
 11
97.78691418738022
 21
123.0379036909967
 31
0.0
  0
LINE
  5
1A7
330
E3
100
AcDbEntity
  8
Des_ Walls
  6
Continuous
100
AcDbLine
 10
97.78691418738022
 20
123.0379036909967
 30
0.0
 11
98.38691149494072
 21
122.3758743896672
 31
0.0
  0
LINE
  5
1A8
330
E3
100
AcDbEntity
  8
Des_ Walls
  6
Continuous
100
AcDbLine
 10
98.38691149494072
 20
122.3758743896672
 30
0.0
 11
106.9869121530228
 21
122.3758743896672
 31
0.0
  0
LINE
  5
1A9
330
E3
100
AcDbEntity
  8
Des_ Walls
  6
Continuous
100
AcDbLine
 10
106.9869121530228
 20
122.3758743896672
 30
0.0
 11
110.5869134427035
 21
128.9961412364858
 31
0.0
  0
LINE
  5
1AA
330
E3
100
AcDbEntity
  8
Des_ Walls
  6
Continuous
100
AcDbLine
 10
110.5869134427035
 20
128.9961412364858
 30
0.0
 11
115.5869128111049
 21
128.9961412364858
 31
0.0
  0
LINE
  5
1AB
330
E3
100
AcDbEntity
  8
Des_ Walls
  6
Continuous
100
AcDbLine
 10
115.5869128111049
 20
128.9961412364858
 30
0.0
 11
119.3869132033058
 21
122.3758743896672
 31
0.0
  0
LINE
  5
1AC
330
E3
100
AcDbEntity
  8
Des_ Walls
  6
Continuous
100
AcDbLine
 10
119.3869132033058
 20
122.3758743896672
 30
0.0
 11
127.9869138613879
 21
122.3758743896672
 31
0.0
  0
LINE
  5
1AD
330
E3
100
AcDbEntity
  8
Des_ Walls
  6
Continuous
100
AcDbLine
 10
127.9869138613879
 20
122.3758743896672
 30
0.0
 11
128.5869155300279
 21
123.0379036909967
 31
0.0
  0
LINE
  5
1AE
330
E3
100
AcDbEntity
  8
Des_ Walls
  6
Continuous
100
AcDbLine
 10
128.5869155300279
 20
123.0379036909967
 30
0.0
 11
135.5869146457897
 21
123.0379036909967
 31
0.0
  0
LINE
  5
1AF
330
E3
100
AcDbEntity
  8
Des_ Walls
  6
Continuous
100
AcDbLine
 10
135.5869146457897
 20
123.0379036909967
 30
0.0
 11
136.1869119533502
 21
122.3758743896672
 31
0.0
  0
LINE
  5
1B0
330
E3
100
AcDbEntity
  8
Des_ Walls
  6
Continuous
100
AcDbLine
 10
136.1869119533502
 20
122.3758743896672
 30
0.0
 11
144.7869126114323
 21
122.3758743896672
 31
0.0
  0
LINE
  5
1B1
330
E3
100
AcDbEntity
  8
Des_ Walls
  6
Continuous
100
AcDbLine
 10
144.7869126114323
 20
122.3758743896672
 30
0.0
 11
148.3869139011131
 21
128.9961412364858
 31
0.0
  0
LINE
  5
1B2
330
E3
100
AcDbEntity
  8
Des_ Walls
  6
Continuous
100
AcDbLine
 10
148.3869139011131
 20
128.9961412364858
 30
0.0
 11
153.3869132695144
 21
128.9961412364858
 31
0.0
  0
LINE
  5
1B3
330
E3
100
AcDbEntity
  8
Des_ Walls
  6
Continuous
100
AcDbLine
 10
153.3869132695144
 20
128.9961412364858
 30
0.0
 11
157.1869136617153
 21
122.3758743896672
 31
0.0
  0
LINE
  5
1B4
330
E3
100
AcDbEntity
  8
Des_ Walls
  6
Continuous
100
AcDbLine
 10
157.1869136617153
 20
122.3758743896672
 30
0.0
 11
165.7869143197974
 21
122.3758743896672
 31
0.0
  0
LINE
  5
1B5
330
E3
100
AcDbEntity
  8
Des_ Walls
  6
Continuous
100
AcDbLine
 10
165.7869143197974
 20
122.3758743896672
 30
0.0
 11
166.3869116273579
 21
123.0379036909967
 31
0.0
  0
LINE
  5
1B6
330
E3
100
AcDbEntity
  8
Des_ Walls
  6
Continuous
100
AcDbLine
 10
166.3869116273579
 20
123.0379036909967
 30
0.0
 11
173.3869151041992
 21
123.0379036909967
 31
0.0
  0
LINE
  5
1B7
330
E3
100
AcDbEntity
  8
Des_ Walls
  6
Continuous
100
AcDbLine
 10
173.3869151041992
 20
123.0379036909967
 30
0.0
 11
173.9869124117597
 21
122.3758743896672
 31
0.0
  0
LINE
  5
1B8
330
E3
100
AcDbEntity
  8
Des_ Walls
  6
Continuous
100
AcDbLine
 10
173.9869124117597
 20
122.3758743896672
 30
0.0
 11
182.5869130698418
 21
122.3758743896672
 31
0.0
  0
LINE
  5
1B9
330
E3
100
AcDbEntity
  8
Des_ Walls
  6
Continuous
100
AcDbLine
 10
182.5869130698418
 20
122.3758743896672
 30
0.0
 11
186.1869143595226
 21
128.9961412364858
 31
0.0
  0
LINE
  5
1BA
330
E3
100
AcDbEntity
  8
Des_ Walls
  6
Continuous
100
AcDbLine
 10
186.1869143595226
 20
128.9961412364858
 30
0.0
 11
191.1869137279239
 21
128.9961412364858
 31
0.0
  0
LINE
  5
1BB
330
E3
100
AcDbEntity
  8
Des_ Walls
  6
Continuous
100
AcDbLine
 10
191.1869137279239
 20
128.9961412364858
 30
0.0
 11
194.9869141201249
 21
122.3758743896672
 31
0.0
  0
LINE
  5
1BC
330
E3
100
AcDbEntity
  8
Des_ Walls
  6
Continuous
100
AcDbLine
 10
194.9869141201249
 20
122.3758743896672
 30
0.0
 11
195.6801774723102
 21
122.3758743896672
 31
0.0
  0
HATCH
  5
1BD
330
E3
100
AcDbEntity
  8
Des_ Walls
  6
Continuous
 62
   255
370
     0
100
AcDbHatch
 10
0.0
 20
0.0
 30
0.0
210
0.0
220
0.0
230
1.0
  2
SOLID
 70
     1
 71
     0
 91
        1
 92
        3
 72
     1
 73
     1
 93
        2
 10
153.0221334846655
 20
130.5023228358915
 42
0.4999999999999998
 10
150.6221334846654
 20
130.5023228358915
 42
0.0
 97
        0
 75
     0
 76
     1
 98
        0
  0
ARC
  5
1BE
330
E3
100
AcDbEntity
  8
Des_ Walls
  6
Continuous
100
AcDbCircle
 10
151.8221334846654
 20
129.6023228358915
 30
0.0
 40
1.500000000000112
100
AcDbArc
 50
36.86989764584402
 51
143.130102354156
  0
LINE
  5
1BF
330
E3
100
AcDbEntity
  8
Des_ Walls
  6
Continuous
100
AcDbLine
 10
150.6221328284459
 20
130.5023228770939
 30
0.0
 11
153.0221351419261
 21
130.5023228770939
 31
0.0
  0
HATCH
  5
1C0
330
E3
100
AcDbEntity
  8
Des_ Walls
  6
Continuous
 62
   255
370
     0
100
AcDbHatch
 10
0.0
 20
0.0
 30
0.0
210
0.0
220
0.0
230
1.0
  2
SOLID
 70
     1
 71
     0
 91
        1
 92
        3
 72
     0
 73
     1
 93
        4
 10
151.1821334846655
 20
131.1023228358915
 10
151.1821334846655
 20
130.9589362664604
 10
152.4621334846654
 20
130.9589362664604
 10
152.4621334846654
 20
131.1023228358915
 97
        0
 75
     0
 76
     1
 98
        0
  0
LINE
  5
1C1
330
E3
100
AcDbEntity
  8
Des_ Walls
  6
Continuous
100
AcDbLine
 10
151.1821346765818
 20
131.1023245457338
 30
0.0
 11
151.1821346765818
 21
130.958936615255
 31
0.0
  0
LINE
  5
1C2
330
E3
100
AcDbEntity
  8
Des_ Walls
  6
Continuous
100
AcDbLine
 10
151.1821346765818
 20
130.958936615255
 30
0.0
 11
152.4621332937903
 21
130.958936615255
 31
0.0
  0
LINE
  5
1C3
330
E3
100
AcDbEntity
  8
Des_ Walls
  6
Continuous
100
AcDbLine
 10
152.4621332937903
 20
130.958936615255
 30
0.0
 11
152.4621332937903
 21
131.1023245457338
 31
0.0
  0
LINE
  5
1C4
330
E3
100
AcDbEntity
  8
Des_ Walls
  6
Continuous
100
AcDbLine
 10
152.4621332937903
 20
131.1023245457338
 30
0.0
 11
151.1821346765818
 21
131.1023245457338
 31
0.0
  0
HATCH
  5
1C5
330
E3
100
AcDbEntity
  8
Des_ Walls
  6
Continuous
 62
   255
370
     0
100
AcDbHatch
 10
0.0
 20
0.0
 30
0.0
210
0.0
220
0.0
230
1.0
  2
SOLID
 70
     1
 71
     0
 91
        1
 92
        3
 72
     1
 73
     1
 93
        4
 10
150.4221334846658
 20
130.5023228358915
 42
0.0
 10
150.4221334846658
 20
129.7023228358915
 42
-0.4285714285714285
 10
153.2221334846655
 20
129.7023228358915
 42
0.0
 10
153.2221334846655
 20
130.5023228358915
 42
0.0
 97
        0
 75
     0
 76
     1
 98
        0
  0
LINE
  5
1C6
330
E3
100
AcDbEntity
  8
Des_ Walls
  6
Continuous
100
AcDbLine
 10
150.4221337259257
 20
130.5023228770939
 30
0.0
 11
150.4221337259257
 21
129.7023221059338
 31
0.0
  0
ARC
  5
1C7
330
E3
100
AcDbEntity
  8
Des_ Walls
  6
Continuous
100
AcDbCircle
 10
151.8221334846657
 20
128.3689895025583
 30
0.0
 40
1.93333333333312
100
AcDbArc
 50
43.60281897270363
 51
136.3971810272964
  0
LINE
  5
1C8
330
E3
100
AcDbEntity
  8
Des_ Walls
  6
Continuous
100
AcDbLine
 10
153.2221342444463
 20
129.7023221059338
 30
0.0
 11
153.2221342444463
 21
130.5023228770939
 31
0.0
  0
LINE
  5
1C9
330
E3
100
AcDbEntity
  8
Des_ Walls
  6
Continuous
100
AcDbLine
 10
153.2221342444463
 20
130.5023228770939
 30
0.0
 11
150.4221337259257
 21
130.5023228770939
 31
0.0
  0
HATCH
  5
1CA
330
E3
100
AcDbEntity
  8
Des_ Walls
  6
Continuous
 62
   255
370
     0
100
AcDbHatch
 10
0.0
 20
0.0
 30
0.0
210
0.0
220
0.0
230
1.0
  2
SOLID
 70
     1
 71
     0
 91
        1
 92
        3
 72
     0
 73
     1
 93
        5
 10
151.5021334846658
 20
130.3023228358915
 10
151.5021334846658
 20
110.9423228358915
 10
151.8221334846657
 20
110.3023228358915
 10
152.1421334846655
 20
110.9423228358915
 10
152.1421334846655
 20
130.3023228358915
 97
        0
 75
     0
 76
     1
 98
        0
  0
LINE
  5
1CB
330
E3
100
AcDbEntity
  8
Des_ Walls
  6
Continuous
100
AcDbLine
 10
151.502133240614
 20
130.3023237745737
 30
0.0
 11
151.502133240614
 21
110.9423234290329
 31
0.0
  0
LINE
  5
1CC
330
E3
100
AcDbEntity
  8
Des_ Walls
  6
Continuous
100
AcDbLine
 10
151.502133240614
 20
110.9423234290329
 30
0.0
 11
151.8221318046463
 21
110.3023219398889
 31
0.0
  0
LINE
  5
1CD
330
E3
100
AcDbEntity
  8
Des_ Walls
  6
Continuous
100
AcDbLine
 10
151.8221318046463
 20
110.3023219398889
 30
0.0
 11
152.142134729758
 21
110.9423234290329
 31
0.0
  0
LINE
  5
1CE
330
E3
100
AcDbEntity
  8
Des_ Walls
  6
Continuous
100
AcDbLine
 10
152.142134729758
 20
110.9423234290329
 30
0.0
 11
152.142134729758
 21
130.3023237745737
 31
0.0
  0
LINE
  5
1CF
330
E3
100
AcDbEntity
  8
Des_ Walls
  6
Continuous
100
AcDbLine
 10
152.142134729758
 20
130.3023237745737
 30
0.0
 11
151.502133240614
 21
130.3023237745737
 31
0.0
  0
LINE
  5
1D0
330
E3
100
AcDbEntity
  8
Des_ Walls
  6
Continuous
100
AcDbLine
 10
152.3421338322782
 20
130.3023237745737
 30
0.0
 11
152.3401539022183
 21
130.0245448204738
 31
0.0
  0
LINE
  5
1D1
330
E3
100
AcDbEntity
  8
Des_ Walls
  6
Continuous
100
AcDbLine
 10
152.3401539022183
 20
130.0245448204738
 30
0.0
 11
152.3342315563565
 21
129.7467658663739
 31
0.0
  0
LINE
  5
1D2
330
E3
100
AcDbEntity
  8
Des_ Walls
  6
Continuous
100
AcDbLine
 10
152.3342315563565
 20
129.7467658663739
 30
0.0
 11
152.3244147665664
 21
129.4689912733534
 31
0.0
  0
LINE
  5
1D3
330
E3
100
AcDbEntity
  8
Des_ Walls
  6
Continuous
100
AcDbLine
 10
152.3244147665664
 20
129.4689912733534
 30
0.0
 11
152.3107733101189
 21
129.1912123192535
 31
0.0
  0
LINE
  5
1D4
330
E3
100
AcDbEntity
  8
Des_ Walls
  6
Continuous
100
AcDbLine
 10
152.3107733101189
 20
129.1912123192535
 30
0.0
 11
152.2934118529202
 21
128.9134333651536
 31
0.0
  0
LINE
  5
1D5
330
E3
100
AcDbEntity
  8
Des_ Walls
  6
Continuous
100
AcDbLine
 10
152.2934118529202
 20
128.9134333651536
 30
0.0
 11
152.2724655884325
 21
128.6356544110537
 31
0.0
  0
LINE
  5
1D6
330
E3
100
AcDbEntity
  8
Des_ Walls
  6
Continuous
100
AcDbLine
 10
152.2724655884325
 20
128.6356544110537
 30
0.0
 11
152.2480915155153
 21
128.3578798180332
 31
0.0
  0
LINE
  5
1D7
330
E3
100
AcDbEntity
  8
Des_ Walls
  6
Continuous
100
AcDbLine
 10
152.2480915155153
 20
128.3578798180332
 30
0.0
 11
152.2204771605838
 21
128.0801008639333
 31
0.0
  0
LINE
  5
1D8
330
E3
100
AcDbEntity
  8
Des_ Walls
  6
Continuous
100
AcDbLine
 10
152.2204771605838
 20
128.0801008639333
 30
0.0
 11
152.1898274943712
 21
127.8023219098333
 31
0.0
  0
LINE
  5
1D9
330
E3
100
AcDbEntity
  8
Des_ Walls
  6
Continuous
100
AcDbLine
 10
152.1898274943712
 20
127.8023219098333
 30
0.0
 11
152.1563823762459
 21
127.5245429557334
 31
0.0
  0
LINE
  5
1DA
330
E3
100
AcDbEntity
  8
Des_ Walls
  6
Continuous
100
AcDbLine
 10
152.1563823762459
 20
127.5245429557334
 30
0.0
 11
152.1203947488146
 21
127.2467683627129
 31
0.0
  0
LINE
  5
1DB
330
E3
100
AcDbEntity
  8
Des_ Walls
  6
Continuous
100
AcDbLine
 10
152.1203947488146
 20
127.2467683627129
 30
0.0
 11
152.0821349990019
 21
126.968989408613
 31
0.0
  0
LINE
  5
1DC
330
E3
100
AcDbEntity
  8
Des_ Walls
  6
Continuous
100
AcDbLine
 10
152.0821349990019
 20
126.968989408613
 30
0.0
 11
152.0418953191294
 21
126.6912104545131
 31
0.0
  0
LINE
  5
1DD
330
E3
100
AcDbEntity
  8
Des_ Walls
  6
Continuous
100
AcDbLine
 10
152.0418953191294
 20
126.6912104545131
 30
0.0
 11
151.9999853458364
 21
126.4134358614926
 31
0.0
  0
LINE
  5
1DE
330
E3
100
AcDbEntity
  8
Des_ Walls
  6
Continuous
100
AcDbLine
 10
151.9999853458364
 20
126.4134358614926
 30
0.0
 11
151.9567190768416
 21
126.1356569073927
 31
0.0
  0
LINE
  5
1DF
330
E3
100
AcDbEntity
  8
Des_ Walls
  6
Continuous
100
AcDbLine
 10
151.9567190768416
 20
126.1356569073927
 30
0.0
 11
151.9124323152608
 21
125.8578779532928
 31
0.0
  0
LINE
  5
1E0
330
E3
100
AcDbEntity
  8
Des_ Walls
  6
Continuous
100
AcDbLine
 10
151.9124323152608
 20
125.8578779532928
 30
0.0
 11
151.8674565031306
 21
125.5800989991929
 31
0.0
  0
LINE
  5
1E1
330
E3
100
AcDbEntity
  8
Des_ Walls
  6
Continuous
100
AcDbLine
 10
151.8674565031306
 20
125.5800989991929
 30
0.0
 11
151.8221318046463
 21
125.3023244061724
 31
0.0
  0
LINE
  5
1E2
330
E3
100
AcDbEntity
  8
Des_ Walls
  6
Continuous
100
AcDbLine
 10
151.8221318046463
 20
125.3023244061724
 30
0.0
 11
151.7768114672414
 21
125.0245454520725
 31
0.0
  0
LINE
  5
1E3
330
E3
100
AcDbEntity
  8
Des_ Walls
  6
Continuous
100
AcDbLine
 10
151.7768114672414
 20
125.0245454520725
 30
0.0
 11
151.7318356551112
 21
124.7467664979725
 31
0.0
  0
LINE
  5
1E4
330
E3
100
AcDbEntity
  8
Des_ Walls
  6
Continuous
100
AcDbLine
 10
151.7318356551112
 20
124.7467664979725
 30
0.0
 11
151.6875488935304
 21
124.4689875438726
 31
0.0
  0
LINE
  5
1E5
330
E3
100
AcDbEntity
  8
Des_ Walls
  6
Continuous
100
AcDbLine
 10
151.6875488935304
 20
124.4689875438726
 30
0.0
 11
151.6442826245356
 21
124.1912129508521
 31
0.0
  0
LINE
  5
1E6
330
E3
100
AcDbEntity
  8
Des_ Walls
  6
Continuous
100
AcDbLine
 10
151.6442826245356
 20
124.1912129508521
 30
0.0
 11
151.6023726512426
 21
123.9134339967522
 31
0.0
  0
LINE
  5
1E7
330
E3
100
AcDbEntity
  8
Des_ Walls
  6
Continuous
100
AcDbLine
 10
151.6023726512426
 20
123.9134339967522
 30
0.0
 11
151.5621329713701
 21
123.6356550426523
 31
0.0
  0
LINE
  5
1E8
330
E3
100
AcDbEntity
  8
Des_ Walls
  6
Continuous
100
AcDbLine
 10
151.5621329713701
 20
123.6356550426523
 30
0.0
 11
151.5238732215574
 21
123.3578804496318
 31
0.0
  0
LINE
  5
1E9
330
E3
100
AcDbEntity
  8
Des_ Walls
  6
Continuous
100
AcDbLine
 10
151.5238732215574
 20
123.3578804496318
 30
0.0
 11
151.4878855941261
 21
123.0801014955319
 31
0.0
  0
LINE
  5
1EA
330
E3
100
AcDbEntity
  8
Des_ Walls
  6
Continuous
100
AcDbLine
 10
151.4878855941261
 20
123.0801014955319
 30
0.0
 11
151.4544361149214
 21
122.802322541432
 31
0.0
  0
LINE
  5
1EB
330
E3
100
AcDbEntity
  8
Des_ Walls
  6
Continuous
100
AcDbLine
 10
151.4544361149214
 20
122.802322541432
 30
0.0
 11
151.4237908097882
 21
122.5245435873321
 31
0.0
  0
LINE
  5
1EC
330
E3
100
AcDbEntity
  8
Des_ Walls
  6
Continuous
100
AcDbLine
 10
151.4237908097882
 20
122.5245435873321
 30
0.0
 11
151.3961764548567
 21
122.2467689943116
 31
0.0
  0
LINE
  5
1ED
330
E3
100
AcDbEntity
  8
Des_ Walls
  6
Continuous
100
AcDbLine
 10
151.3961764548567
 20
122.2467689943116
 30
0.0
 11
151.3718023819395
 21
121.9689900402117
 31
0.0
  0
LINE
  5
1EE
330
E3
100
AcDbEntity
  8
Des_ Walls
  6
Continuous
100
AcDbLine
 10
151.3718023819395
 20
121.9689900402117
 30
0.0
 11
151.3508517563724
 21
121.6912110861117
 31
0.0
  0
LINE
  5
1EF
330
E3
100
AcDbEntity
  8
Des_ Walls
  6
Continuous
100
AcDbLine
 10
151.3508517563724
 20
121.6912110861117
 30
0.0
 11
151.3334946602531
 21
121.4134321320118
 31
0.0
  0
LINE
  5
1F0
330
E3
100
AcDbEntity
  8
Des_ Walls
  6
Continuous
100
AcDbLine
 10
151.3334946602531
 20
121.4134321320118
 30
0.0
 11
151.3198532038056
 21
121.1356575389913
 31
0.0
  0
LINE
  5
1F1
330
E3
100
AcDbEntity
  8
Des_ Walls
  6
Continuous
100
AcDbLine
 10
151.3198532038056
 20
121.1356575389913
 30
0.0
 11
151.3100320529361
 21
120.8578785848914
 31
0.0
  0
LINE
  5
1F2
330
E3
100
AcDbEntity
  8
Des_ Walls
  6
Continuous
100
AcDbLine
 10
151.3100320529361
 20
120.8578785848914
 30
0.0
 11
151.3041140681537
 21
120.5800996307915
 31
0.0
  0
LINE
  5
1F3
330
E3
100
AcDbEntity
  8
Des_ Walls
  6
Continuous
100
AcDbLine
 10
151.3041140681537
 20
120.5800996307915
 30
0.0
 11
151.3021341380938
 21
120.3023206766916
 31
0.0
  0
LINE
  5
1F4
330
E3
100
AcDbEntity
  8
Des_ Walls
  6
Continuous
100
AcDbLine
 10
151.3021341380938
 20
120.3023206766916
 30
0.0
 11
151.3041140681537
 21
120.0245460836711
 31
0.0
  0
LINE
  5
1F5
330
E3
100
AcDbEntity
  8
Des_ Walls
  6
Continuous
100
AcDbLine
 10
152.3421338322782
 20
125.3023244061724
 30
0.0
 11
152.3401539022183
 21
125.0245454520725
 31
0.0
  0
LINE
  5
1F6
330
E3
100
AcDbEntity
  8
Des_ Walls
  6
Continuous
100
AcDbLine
 10
152.3401539022183
 20
125.0245454520725
 30
0.0
 11
152.3342315563565
 21
124.7467664979725
 31
0.0
  0
LINE
  5
1F7
330
E3
100
AcDbEntity
  8
Des_ Walls
  6
Continuous
100
AcDbLine
 10
152.3342315563565
 20
124.7467664979725
 30
0.0
 11
152.3244147665664
 21
124.4689875438726
 31
0.0
  0
LINE
  5
1F8
330
E3
100
AcDbEntity
  8
Des_ Walls
  6
Continuous
100
AcDbLine
 10
152.3244147665664
 20
124.4689875438726
 30
0.0
 11
152.3107733101189
 21
124.1912129508521
 31
0.0
  0
LINE
  5
1F9
330
E3
100
AcDbEntity
  8
Des_ Walls
  6
Continuous
100
AcDbLine
 10
152.3107733101189
 20
124.1912129508521
 30
0.0
 11
152.2934118529202
 21
123.9134339967522
 31
0.0
  0
LINE
  5
1FA
330
E3
100
AcDbEntity
  8
Des_ Walls
  6
Continuous
100
AcDbLine
 10
152.2934118529202
 20
123.9134339967522
 30
0.0
 11
152.2724655884325
 21
123.6356550426523
 31
0.0
  0
LINE
  5
1FB
330
E3
100
AcDbEntity
  8
Des_ Walls
  6
Continuous
100
AcDbLine
 10
152.2724655884325
 20
123.6356550426523
 30
0.0
 11
152.2480915155153
 21
123.3578804496318
 31
0.0
  0
LINE
  5
1FC
330
E3
100
AcDbEntity
  8
Des_ Walls
  6
Continuous
100
AcDbLine
 10
152.2480915155153
 20
123.3578804496318
 30
0.0
 11
152.2204771605838
 21
123.0801014955319
 31
0.0
  0
LINE
  5
1FD
330
E3
100
AcDbEntity
  8
Des_ Walls
  6
Continuous
100
AcDbLine
 10
152.2204771605838
 20
123.0801014955319
 30
0.0
 11
152.1898274943712
 21
122.802322541432
 31
0.0
  0
LINE
  5
1FE
330
E3
100
AcDbEntity
  8
Des_ Walls
  6
Continuous
100
AcDbLine
 10
152.1898274943712
 20
122.802322541432
 30
0.0
 11
152.1563823762459
 21
122.5245435873321
 31
0.0
  0
LINE
  5
1FF
330
E3
100
AcDbEntity
  8
Des_ Walls
  6
Continuous
100
AcDbLine
 10
152.1563823762459
 20
122.5245435873321
 30
0.0
 11
152.1203947488146
 21
122.2467689943116
 31
0.0
  0
LINE
  5
200
330
E3
100
AcDbEntity
  8
Des_ Walls
  6
Continuous
100
AcDbLine
 10
152.1203947488146
 20
122.2467689943116
 30
0.0
 11
152.0821349990019
 21
121.9689900402117
 31
0.0
  0
LINE
  5
201
330
E3
100
AcDbEntity
  8
Des_ Walls
  6
Continuous
100
AcDbLine
 10
152.0821349990019
 20
121.9689900402117
 30
0.0
 11
152.0418953191294
 21
121.6912110861117
 31
0.0
  0
LINE
  5
202
330
E3
100
AcDbEntity
  8
Des_ Walls
  6
Continuous
100
AcDbLine
 10
152.0418953191294
 20
121.6912110861117
 30
0.0
 11
151.9999853458364
 21
121.4134321320118
 31
0.0
  0
LINE
  5
203
330
E3
100
AcDbEntity
  8
Des_ Walls
  6
Continuous
100
AcDbLine
 10
151.9999853458364
 20
121.4134321320118
 30
0.0
 11
151.9567190768416
 21
121.1356575389913
 31
0.0
  0
LINE
  5
204
330
E3
100
AcDbEntity
  8
Des_ Walls
  6
Continuous
100
AcDbLine
 10
151.9567190768416
 20
121.1356575389913
 30
0.0
 11
151.9124323152608
 21
120.8578785848914
 31
0.0
  0
LINE
  5
205
330
E3
100
AcDbEntity
  8
Des_ Walls
  6
Continuous
100
AcDbLine
 10
151.9124323152608
 20
120.8578785848914
 30
0.0
 11
151.8674565031306
 21
120.5800996307915
 31
0.0
  0
LINE
  5
206
330
E3
100
AcDbEntity
  8
Des_ Walls
  6
Continuous
100
AcDbLine
 10
151.8674565031306
 20
120.5800996307915
 30
0.0
 11
151.8221318046463
 21
120.3023206766916
 31
0.0
  0
LINE
  5
207
330
E3
100
AcDbEntity
  8
Des_ Walls
  6
Continuous
100
AcDbLine
 10
151.8221318046463
 20
120.3023206766916
 30
0.0
 11
151.7768114672414
 21
120.0245460836711
 31
0.0
  0
LINE
  5
208
330
E3
100
AcDbEntity
  8
Des_ Walls
  6
Continuous
100
AcDbLine
 10
151.7768114672414
 20
120.0245460836711
 30
0.0
 11
151.7318356551112
 21
119.7467671295712
 31
0.0
  0
LINE
  5
209
330
E3
100
AcDbEntity
  8
Des_ Walls
  6
Continuous
100
AcDbLine
 10
151.7318356551112
 20
119.7467671295712
 30
0.0
 11
151.6875488935304
 21
119.4689881754713
 31
0.0
  0
LINE
  5
20A
330
E3
100
AcDbEntity
  8
Des_ Walls
  6
Continuous
100
AcDbLine
 10
151.6875488935304
 20
119.4689881754713
 30
0.0
 11
151.6442826245356
 21
119.1912135824508
 31
0.0
  0
LINE
  5
20B
330
E3
100
AcDbEntity
  8
Des_ Walls
  6
Continuous
100
AcDbLine
 10
151.6442826245356
 20
119.1912135824508
 30
0.0
 11
151.6023726512426
 21
118.9134346283509
 31
0.0
  0
LINE
  5
20C
330
E3
100
AcDbEntity
  8
Des_ Walls
  6
Continuous
100
AcDbLine
 10
151.6023726512426
 20
118.9134346283509
 30
0.0
 11
151.5621329713701
 21
118.635655674251
 31
0.0
  0
LINE
  5
20D
330
E3
100
AcDbEntity
  8
Des_ Walls
  6
Continuous
100
AcDbLine
 10
151.5621329713701
 20
118.635655674251
 30
0.0
 11
151.5238732215574
 21
118.3578767201511
 31
0.0
  0
LINE
  5
20E
330
E3
100
AcDbEntity
  8
Des_ Walls
  6
Continuous
100
AcDbLine
 10
151.5238732215574
 20
118.3578767201511
 30
0.0
 11
151.4878855941261
 21
118.0801021271305
 31
0.0
  0
LINE
  5
20F
330
E3
100
AcDbEntity
  8
Des_ Walls
  6
Continuous
100
AcDbLine
 10
151.4878855941261
 20
118.0801021271305
 30
0.0
 11
151.4544361149214
 21
117.8023231730306
 31
0.0
  0
LINE
  5
210
330
E3
100
AcDbEntity
  8
Des_ Walls
  6
Continuous
100
AcDbLine
 10
151.4544361149214
 20
117.8023231730306
 30
0.0
 11
151.4237908097882
 21
117.5245442189307
 31
0.0
  0
LINE
  5
211
330
E3
100
AcDbEntity
  8
Des_ Walls
  6
Continuous
100
AcDbLine
 10
151.4237908097882
 20
117.5245442189307
 30
0.0
 11
151.3961764548567
 21
117.2467652648308
 31
0.0
  0
LINE
  5
212
330
E3
100
AcDbEntity
  8
Des_ Walls
  6
Continuous
100
AcDbLine
 10
151.3961764548567
 20
117.2467652648308
 30
0.0
 11
151.3718023819395
 21
116.9689906718103
 31
0.0
  0
LINE
  5
213
330
E3
100
AcDbEntity
  8
Des_ Walls
  6
Continuous
100
AcDbLine
 10
151.3718023819395
 20
116.9689906718103
 30
0.0
 11
151.3508517563724
 21
116.6912117177104
 31
0.0
  0
LINE
  5
214
330
E3
100
AcDbEntity
  8
Des_ Walls
  6
Continuous
100
AcDbLine
 10
151.3508517563724
 20
116.6912117177104
 30
0.0
 11
151.3334946602531
 21
116.4134327636105
 31
0.0
  0
LINE
  5
215
330
E3
100
AcDbEntity
  8
Des_ Walls
  6
Continuous
100
AcDbLine
 10
151.3334946602531
 20
116.4134327636105
 30
0.0
 11
151.3198532038056
 21
116.13565817059
 31
0.0
  0
LINE
  5
216
330
E3
100
AcDbEntity
  8
Des_ Walls
  6
Continuous
100
AcDbLine
 10
151.3198532038056
 20
116.13565817059
 30
0.0
 11
151.3100320529361
 21
115.8578792164901
 31
0.0
  0
LINE
  5
217
330
E3
100
AcDbEntity
  8
Des_ Walls
  6
Continuous
100
AcDbLine
 10
151.3100320529361
 20
115.8578792164901
 30
0.0
 11
151.3041140681537
 21
115.5801002623902
 31
0.0
  0
LINE
  5
218
330
E3
100
AcDbEntity
  8
Des_ Walls
  6
Continuous
100
AcDbLine
 10
151.3041140681537
 20
115.5801002623902
 30
0.0
 11
151.3021341380938
 21
115.3023213082903
 31
0.0
  0
LINE
  5
219
330
E3
100
AcDbEntity
  8
Des_ Walls
  6
Continuous
100
AcDbLine
 10
151.3021341380938
 20
115.3023213082903
 30
0.0
 11
151.3041140681537
 21
115.0245467152698
 31
0.0
  0
LINE
  5
21A
330
E3
100
AcDbEntity
  8
Des_ Walls
  6
Continuous
100
AcDbLine
 10
152.3421338322782
 20
120.3023206766916
 30
0.0
 11
152.3401539022183
 21
120.0245460836711
 31
0.0
  0
LINE
  5
21B
330
E3
100
AcDbEntity
  8
Des_ Walls
  6
Continuous
100
AcDbLine
 10
152.3401539022183
 20
120.0245460836711
 30
0.0
 11
152.3342315563565
 21
119.7467671295712
 31
0.0
  0
LINE
  5
21C
330
E3
100
AcDbEntity
  8
Des_ Walls
  6
Continuous
100
AcDbLine
 10
152.3342315563565
 20
119.7467671295712
 30
0.0
 11
152.3244147665664
 21
119.4689881754713
 31
0.0
  0
LINE
  5
21D
330
E3
100
AcDbEntity
  8
Des_ Walls
  6
Continuous
100
AcDbLine
 10
152.3244147665664
 20
119.4689881754713
 30
0.0
 11
152.3107733101189
 21
119.1912135824508
 31
0.0
  0
LINE
  5
21E
330
E3
100
AcDbEntity
  8
Des_ Walls
  6
Continuous
100
AcDbLine
 10
152.3107733101189
 20
119.1912135824508
 30
0.0
 11
152.2934118529202
 21
118.9134346283509
 31
0.0
  0
LINE
  5
21F
330
E3
100
AcDbEntity
  8
Des_ Walls
  6
Continuous
100
AcDbLine
 10
152.2934118529202
 20
118.9134346283509
 30
0.0
 11
152.2724655884325
 21
118.635655674251
 31
0.0
  0
LINE
  5
220
330
E3
100
AcDbEntity
  8
Des_ Walls
  6
Continuous
100
AcDbLine
 10
152.2724655884325
 20
118.635655674251
 30
0.0
 11
152.2480915155153
 21
118.3578767201511
 31
0.0
  0
LINE
  5
221
330
E3
100
AcDbEntity
  8
Des_ Walls
  6
Continuous
100
AcDbLine
 10
152.2480915155153
 20
118.3578767201511
 30
0.0
 11
152.2204771605838
 21
118.0801021271305
 31
0.0
  0
LINE
  5
222
330
E3
100
AcDbEntity
  8
Des_ Walls
  6
Continuous
100
AcDbLine
 10
152.2204771605838
 20
118.0801021271305
 30
0.0
 11
152.1898274943712
 21
117.8023231730306
 31
0.0
  0
LINE
  5
223
330
E3
100
AcDbEntity
  8
Des_ Walls
  6
Continuous
100
AcDbLine
 10
152.1898274943712
 20
117.8023231730306
 30
0.0
 11
152.1563823762459
 21
117.5245442189307
 31
0.0
  0
LINE
  5
224
330
E3
100
AcDbEntity
  8
Des_ Walls
  6
Continuous
100
AcDbLine
 10
152.1563823762459
 20
117.5245442189307
 30
0.0
 11
152.1203947488146
 21
117.2467652648308
 31
0.0
  0
LINE
  5
225
330
E3
100
AcDbEntity
  8
Des_ Walls
  6
Continuous
100
AcDbLine
 10
152.1203947488146
 20
117.2467652648308
 30
0.0
 11
152.0821349990019
 21
116.9689906718103
 31
0.0
  0
LINE
  5
226
330
E3
100
AcDbEntity
  8
Des_ Walls
  6
Continuous
100
AcDbLine
 10
152.0821349990019
 20
116.9689906718103
 30
0.0
 11
152.0418953191294
 21
116.6912117177104
 31
0.0
  0
LINE
  5
227
330
E3
100
AcDbEntity
  8
Des_ Walls
  6
Continuous
100
AcDbLine
 10
152.0418953191294
 20
116.6912117177104
 30
0.0
 11
151.9999853458364
 21
116.4134327636105
 31
0.0
  0
LINE
  5
228
330
E3
100
AcDbEntity
  8
Des_ Walls
  6
Continuous
100
AcDbLine
 10
151.9999853458364
 20
116.4134327636105
 30
0.0
 11
151.9567190768416
 21
116.13565817059
 31
0.0
  0
LINE
  5
229
330
E3
100
AcDbEntity
  8
Des_ Walls
  6
Continuous
100
AcDbLine
 10
151.9567190768416
 20
116.13565817059
 30
0.0
 11
151.9124323152608
 21
115.8578792164901
 31
0.0
  0
LINE
  5
22A
330
E3
100
AcDbEntity
  8
Des_ Walls
  6
Continuous
100
AcDbLine
 10
151.9124323152608
 20
115.8578792164901
 30
0.0
 11
151.8674565031306
 21
115.5801002623902
 31
0.0
  0
LINE
  5
22B
330
E3
100
AcDbEntity
  8
Des_ Walls
  6
Continuous
100
AcDbLine
 10
151.8674565031306
 20
115.5801002623902
 30
0.0
 11
151.8221318046463
 21
115.3023213082903
 31
0.0
  0
LINE
  5
22C
330
E3
100
AcDbEntity
  8
Des_ Walls
  6
Continuous
100
AcDbLine
 10
151.8221318046463
 20
115.3023213082903
 30
0.0
 11
151.7768114672414
 21
115.0245467152698
 31
0.0
  0
LINE
  5
22D
330
E3
100
AcDbEntity
  8
Des_ Walls
  6
Continuous
100
AcDbLine
 10
151.7768114672414
 20
115.0245467152698
 30
0.0
 11
151.7318356551112
 21
114.7467677611698
 31
0.0
  0
LINE
  5
22E
330
E3
100
AcDbEntity
  8
Des_ Walls
  6
Continuous
100
AcDbLine
 10
151.7318356551112
 20
114.7467677611698
 30
0.0
 11
151.6875488935304
 21
114.4689888070699
 31
0.0
  0
LINE
  5
22F
330
E3
100
AcDbEntity
  8
Des_ Walls
  6
Continuous
100
AcDbLine
 10
151.6875488935304
 20
114.4689888070699
 30
0.0
 11
151.6442826245356
 21
114.19120985297
 31
0.0
  0
LINE
  5
230
330
E3
100
AcDbEntity
  8
Des_ Walls
  6
Continuous
100
AcDbLine
 10
151.6442826245356
 20
114.19120985297
 30
0.0
 11
151.6023726512426
 21
113.9134352599495
 31
0.0
  0
LINE
  5
231
330
E3
100
AcDbEntity
  8
Des_ Walls
  6
Continuous
100
AcDbLine
 10
151.6023726512426
 20
113.9134352599495
 30
0.0
 11
151.5621329713701
 21
113.6356563058496
 31
0.0
  0
LINE
  5
232
330
E3
100
AcDbEntity
  8
Des_ Walls
  6
Continuous
100
AcDbLine
 10
151.5621329713701
 20
113.6356563058496
 30
0.0
 11
151.5238732215574
 21
113.3578773517497
 31
0.0
  0
LINE
  5
233
330
E3
100
AcDbEntity
  8
Des_ Walls
  6
Continuous
100
AcDbLine
 10
151.5238732215574
 20
113.3578773517497
 30
0.0
 11
151.4878855941261
 21
113.0801027587292
 31
0.0
  0
LINE
  5
234
330
E3
100
AcDbEntity
  8
Des_ Walls
  6
Continuous
100
AcDbLine
 10
151.4878855941261
 20
113.0801027587292
 30
0.0
 11
151.4544361149214
 21
112.8023238046293
 31
0.0
  0
LINE
  5
235
330
E3
100
AcDbEntity
  8
Des_ Walls
  6
Continuous
100
AcDbLine
 10
151.4544361149214
 20
112.8023238046293
 30
0.0
 11
151.4237908097882
 21
112.5245448505294
 31
0.0
  0
LINE
  5
236
330
E3
100
AcDbEntity
  8
Des_ Walls
  6
Continuous
100
AcDbLine
 10
151.4237908097882
 20
112.5245448505294
 30
0.0
 11
151.3961764548567
 21
112.2467658964295
 31
0.0
  0
LINE
  5
237
330
E3
100
AcDbEntity
  8
Des_ Walls
  6
Continuous
100
AcDbLine
 10
151.3961764548567
 20
112.2467658964295
 30
0.0
 11
151.3718023819395
 21
111.968991303409
 31
0.0
  0
LINE
  5
238
330
E3
100
AcDbEntity
  8
Des_ Walls
  6
Continuous
100
AcDbLine
 10
151.3718023819395
 20
111.968991303409
 30
0.0
 11
151.3508517563724
 21
111.6912123493091
 31
0.0
  0
LINE
  5
239
330
E3
100
AcDbEntity
  8
Des_ Walls
  6
Continuous
100
AcDbLine
 10
151.3508517563724
 20
111.6912123493091
 30
0.0
 11
151.3334946602531
 21
111.4134333952091
 31
0.0
  0
LINE
  5
23A
330
E3
100
AcDbEntity
  8
Des_ Walls
  6
Continuous
100
AcDbLine
 10
151.8221318046463
 20
130.3023237745737
 30
0.0
 11
151.7768114672414
 21
130.0245448204738
 31
0.0
  0
LINE
  5
23B
330
E3
100
AcDbEntity
  8
Des_ Walls
  6
Continuous
100
AcDbLine
 10
151.7768114672414
 20
130.0245448204738
 30
0.0
 11
151.7318356551112
 21
129.7467658663739
 31
0.0
  0
LINE
  5
23C
330
E3
100
AcDbEntity
  8
Des_ Walls
  6
Continuous
100
AcDbLine
 10
151.7318356551112
 20
129.7467658663739
 30
0.0
 11
151.6875488935304
 21
129.4689912733534
 31
0.0
  0
LINE
  5
23D
330
E3
100
AcDbEntity
  8
Des_ Walls
  6
Continuous
100
AcDbLine
 10
151.6875488935304
 20
129.4689912733534
 30
0.0
 11
151.6442826245356
 21
129.1912123192535
 31
0.0
  0
LINE
  5
23E
330
E3
100
AcDbEntity
  8
Des_ Walls
  6
Continuous
100
AcDbLine
 10
151.6442826245356
 20
129.1912123192535
 30
0.0
 11
151.6023726512426
 21
128.9134333651536
 31
0.0
  0
LINE
  5
23F
330
E3
100
AcDbEntity
  8
Des_ Walls
  6
Continuous
100
AcDbLine
 10
151.6023726512426
 20
128.9134333651536
 30
0.0
 11
151.5621329713701
 21
128.6356544110537
 31
0.0
  0
LINE
  5
240
330
E3
100
AcDbEntity
  8
Des_ Walls
  6
Continuous
100
AcDbLine
 10
151.5621329713701
 20
128.6356544110537
 30
0.0
 11
151.5238732215574
 21
128.3578798180332
 31
0.0
  0
LINE
  5
241
330
E3
100
AcDbEntity
  8
Des_ Walls
  6
Continuous
100
AcDbLine
 10
151.5238732215574
 20
128.3578798180332
 30
0.0
 11
151.4878855941261
 21
128.0801008639333
 31
0.0
  0
LINE
  5
242
330
E3
100
AcDbEntity
  8
Des_ Walls
  6
Continuous
100
AcDbLine
 10
151.4878855941261
 20
128.0801008639333
 30
0.0
 11
151.4544361149214
 21
127.8023219098333
 31
0.0
  0
LINE
  5
243
330
E3
100
AcDbEntity
  8
Des_ Walls
  6
Continuous
100
AcDbLine
 10
151.4544361149214
 20
127.8023219098333
 30
0.0
 11
151.4237908097882
 21
127.5245429557334
 31
0.0
  0
LINE
  5
244
330
E3
100
AcDbEntity
  8
Des_ Walls
  6
Continuous
100
AcDbLine
 10
151.4237908097882
 20
127.5245429557334
 30
0.0
 11
151.3961764548567
 21
127.2467683627129
 31
0.0
  0
LINE
  5
245
330
E3
100
AcDbEntity
  8
Des_ Walls
  6
Continuous
100
AcDbLine
 10
151.3961764548567
 20
127.2467683627129
 30
0.0
 11
151.3718023819395
 21
126.968989408613
 31
0.0
  0
LINE
  5
246
330
E3
100
AcDbEntity
  8
Des_ Walls
  6
Continuous
100
AcDbLine
 10
151.3718023819395
 20
126.968989408613
 30
0.0
 11
151.3508517563724
 21
126.6912104545131
 31
0.0
  0
LINE
  5
247
330
E3
100
AcDbEntity
  8
Des_ Walls
  6
Continuous
100
AcDbLine
 10
151.3508517563724
 20
126.6912104545131
 30
0.0
 11
151.3334946602531
 21
126.4134358614926
 31
0.0
  0
LINE
  5
248
330
E3
100
AcDbEntity
  8
Des_ Walls
  6
Continuous
100
AcDbLine
 10
151.3334946602531
 20
126.4134358614926
 30
0.0
 11
151.3198532038056
 21
126.1356569073927
 31
0.0
  0
LINE
  5
249
330
E3
100
AcDbEntity
  8
Des_ Walls
  6
Continuous
100
AcDbLine
 10
151.3198532038056
 20
126.1356569073927
 30
0.0
 11
151.3100320529361
 21
125.8578779532928
 31
0.0
  0
LINE
  5
24A
330
E3
100
AcDbEntity
  8
Des_ Walls
  6
Continuous
100
AcDbLine
 10
151.3100320529361
 20
125.8578779532928
 30
0.0
 11
151.3041140681537
 21
125.5800989991929
 31
0.0
  0
LINE
  5
24B
330
E3
100
AcDbEntity
  8
Des_ Walls
  6
Continuous
100
AcDbLine
 10
151.3041140681537
 20
125.5800989991929
 30
0.0
 11
151.3021341380938
 21
125.3023244061724
 31
0.0
  0
LINE
  5
24C
330
E3
100
AcDbEntity
  8
Des_ Walls
  6
Continuous
100
AcDbLine
 10
151.3021341380938
 20
125.3023244061724
 30
0.0
 11
151.3041140681537
 21
125.0245454520725
 31
0.0
  0
LINE
  5
24D
330
E3
100
AcDbEntity
  8
Des_ Walls
  6
Continuous
100
AcDbLine
 10
152.3421338322782
 20
115.3023213082903
 30
0.0
 11
152.3401539022183
 21
115.0245467152698
 31
0.0
  0
LINE
  5
24E
330
E3
100
AcDbEntity
  8
Des_ Walls
  6
Continuous
100
AcDbLine
 10
152.3401539022183
 20
115.0245467152698
 30
0.0
 11
152.3342315563565
 21
114.7467677611698
 31
0.0
  0
LINE
  5
24F
330
E3
100
AcDbEntity
  8
Des_ Walls
  6
Continuous
100
AcDbLine
 10
152.3342315563565
 20
114.7467677611698
 30
0.0
 11
152.3244147665664
 21
114.4689888070699
 31
0.0
  0
LINE
  5
250
330
E3
100
AcDbEntity
  8
Des_ Walls
  6
Continuous
100
AcDbLine
 10
152.3244147665664
 20
114.4689888070699
 30
0.0
 11
152.3107733101189
 21
114.19120985297
 31
0.0
  0
LINE
  5
251
330
E3
100
AcDbEntity
  8
Des_ Walls
  6
Continuous
100
AcDbLine
 10
152.3107733101189
 20
114.19120985297
 30
0.0
 11
152.2934118529202
 21
113.9134352599495
 31
0.0
  0
LINE
  5
252
330
E3
100
AcDbEntity
  8
Des_ Walls
  6
Continuous
100
AcDbLine
 10
152.2934118529202
 20
113.9134352599495
 30
0.0
 11
152.2724655884325
 21
113.6356563058496
 31
0.0
  0
LINE
  5
253
330
E3
100
AcDbEntity
  8
Des_ Walls
  6
Continuous
100
AcDbLine
 10
152.2724655884325
 20
113.6356563058496
 30
0.0
 11
152.2480915155153
 21
113.3578773517497
 31
0.0
  0
LINE
  5
254
330
E3
100
AcDbEntity
  8
Des_ Walls
  6
Continuous
100
AcDbLine
 10
152.2480915155153
 20
113.3578773517497
 30
0.0
 11
152.2204771605838
 21
113.0801027587292
 31
0.0
  0
LINE
  5
255
330
E3
100
AcDbEntity
  8
Des_ Walls
  6
Continuous
100
AcDbLine
 10
152.2204771605838
 20
113.0801027587292
 30
0.0
 11
152.1898274943712
 21
112.8023238046293
 31
0.0
  0
LINE
  5
256
330
E3
100
AcDbEntity
  8
Des_ Walls
  6
Continuous
100
AcDbLine
 10
152.1898274943712
 20
112.8023238046293
 30
0.0
 11
152.1563823762459
 21
112.5245448505294
 31
0.0
  0
LINE
  5
257
330
E3
100
AcDbEntity
  8
Des_ Walls
  6
Continuous
100
AcDbLine
 10
152.1563823762459
 20
112.5245448505294
 30
0.0
 11
152.1203947488146
 21
112.2467658964295
 31
0.0
  0
LINE
  5
258
330
E3
100
AcDbEntity
  8
Des_ Walls
  6
Continuous
100
AcDbLine
 10
152.1203947488146
 20
112.2467658964295
 30
0.0
 11
152.0821349990019
 21
111.968991303409
 31
0.0
  0
LINE
  5
259
330
E3
100
AcDbEntity
  8
Des_ Walls
  6
Continuous
100
AcDbLine
 10
152.0821349990019
 20
111.968991303409
 30
0.0
 11
152.0418953191294
 21
111.6912123493091
 31
0.0
  0
LINE
  5
25A
330
E3
100
AcDbEntity
  8
Des_ Walls
  6
Continuous
100
AcDbLine
 10
152.0418953191294
 20
111.6912123493091
 30
0.0
 11
151.9999853458364
 21
111.4134333952091
 31
0.0
  0
HATCH
  5
25B
330
E3
100
AcDbEntity
  8
Des_ Walls
  6
Continuous
 62
   255
370
     0
100
AcDbHatch
 10
0.0
 20
0.0
 30
0.0
210
0.0
220
0.0
230
1.0
  2
SOLID
 70
     1
 71
     0
 91
        1
 92
        3
 72
     0
 73
     1
 93
        6
 10
149.0221334846655
 20
130.1023228358915
 10
149.0221334846655
 20
127.3996005531365
 10
149.0541334846651
 20
127.3676005531365
 10
149.5901334846654
 20
127.3676005531365
 10
149.6221334846655
 20
127.3996005531365
 10
149.6221334846655
 20
130.1023228358915
 97
        0
 75
     0
 76
     1
 98
        0
  0
LINE
  5
25C
330
E3
100
AcDbEntity
  8
Des_ Walls
  6
Continuous
100
AcDbLine
 10
149.0221356472051
 20
130.1023246720536
 30
0.0
 11
149.0221356472051
 21
127.3996023912306
 31
0.0
  0
LINE
  5
25D
330
E3
100
AcDbEntity
  8
Des_ Walls
  6
Continuous
100
AcDbLine
 10
149.0221356472051
 20
127.3996023912306
 30
0.0
 11
149.0541328869606
 21
127.3676007903956
 31
0.0
  0
LINE
  5
25E
330
E3
100
AcDbEntity
  8
Des_ Walls
  6
Continuous
100
AcDbLine
 10
149.0541328869606
 20
127.3676007903956
 30
0.0
 11
149.5901313539306
 21
127.3676007903956
 31
0.0
  0
LINE
  5
25F
330
E3
100
AcDbEntity
  8
Des_ Walls
  6
Continuous
100
AcDbLine
 10
149.5901313539306
 20
127.3676007903956
 30
0.0
 11
149.6221329547656
 21
127.3996023912306
 31
0.0
  0
LINE
  5
260
330
E3
100
AcDbEntity
  8
Des_ Walls
  6
Continuous
100
AcDbLine
 10
149.6221329547656
 20
127.3996023912306
 30
0.0
 11
149.6221329547656
 21
130.1023246720536
 31
0.0
  0
LINE
  5
261
330
E3
100
AcDbEntity
  8
Des_ Walls
  6
Continuous
100
AcDbLine
 10
149.6221329547656
 20
130.1023246720536
 30
0.0
 11
149.0221356472051
 21
130.1023246720536
 31
0.0
  0
LINE
  5
262
330
E3
100
AcDbEntity
  8
Des_ Walls
  6
Continuous
100
AcDbLine
 10
149.0221356472051
 20
127.3996023912306
 30
0.0
 11
149.6221329547656
 21
127.3996023912306
 31
0.0
  0
LINE
  5
263
330
E3
100
AcDbEntity
  8
Des_ Walls
  6
Continuous
100
AcDbLine
 10
149.0221356472051
 20
130.1023246720536
 30
0.0
 11
149.6221329547656
 21
130.1023246720536
 31
0.0
  0
LINE
  5
264
330
E3
100
AcDbEntity
  8
Des_ Walls
  6
Continuous
100
AcDbLine
 10
149.0541328869606
 20
130.0703230712186
 30
0.0
 11
149.5901313539306
 21
130.0703230712186
 31
0.0
  0
LINE
  5
265
330
E3
100
AcDbEntity
  8
Des_ Walls
  6
Continuous
100
AcDbLine
 10
149.0541328869606
 20
130.0703230712186
 30
0.0
 11
149.0221356472051
 21
130.1023246720536
 31
0.0
  0
LINE
  5
266
330
E3
100
AcDbEntity
  8
Des_ Walls
  6
Continuous
100
AcDbLine
 10
149.5901313539306
 20
130.0703230712186
 30
0.0
 11
149.6221329547656
 21
130.1023246720536
 31
0.0
  0
LINE
  5
267
330
E3
100
AcDbEntity
  8
Des_ Walls
  6
Continuous
100
AcDbLine
 10
149.0541328869606
 20
130.0703230712186
 30
0.0
 11
149.0541328869606
 21
127.3676007903956
 31
0.0
  0
LINE
  5
268
330
E3
100
AcDbEntity
  8
Des_ Walls
  6
Continuous
100
AcDbLine
 10
149.5901313539306
 20
130.0703230712186
 30
0.0
 11
149.5901313539306
 21
127.3676007903956
 31
0.0
  0
HATCH
  5
269
330
E3
100
AcDbEntity
  8
Des_ Walls
  6
Continuous
 62
   255
370
     0
100
AcDbHatch
 10
0.0
 20
0.0
 30
0.0
210
0.0
220
0.0
230
1.0
  2
SOLID
 70
     1
 71
     0
 91
        1
 92
        3
 72
     0
 73
     1
 93
        4
 10
149.7118449163684
 20
130.4773228358915
 10
148.9324220529622
 20
130.4773228358915
 10
148.9324220529622
 20
130.1023228358915
 10
149.7118449163684
 20
130.1023228358915
 97
        0
 75
     0
 76
     1
 98
        0
  0
HATCH
  5
26A
330
E3
100
AcDbEntity
  8
Des_ Walls
  6
Continuous
 62
   255
370
     0
100
AcDbHatch
 10
0.0
 20
0.0
 30
0.0
210
0.0
220
0.0
230
1.0
  2
SOLID
 70
     1
 71
     0
 91
        1
 92
        3
 72
     1
 73
     1
 93
        4
 10
149.5819411058008
 20
130.4148228358915
 42
0.2405626121623441
 10
149.0623258635302
 20
130.4148228358915
 42
0.0
 10
149.0623258635302
 20
130.1023228358915
 42
0.0
 10
149.5819411058008
 20
130.1023228358915
 42
0.0
 97
        0
 75
     0
 76
     1
 98
        0
  0
ARC
  5
26B
330
E3
100
AcDbEntity
  8
Des_ Walls
  6
Continuous
100
AcDbCircle
 10
149.3221334846655
 20
129.9060728358916
 30
0.0
 40
0.571249999999943
100
AcDbArc
 50
62.94758187956812
 51
117.0524181204319
  0
LINE
  5
26C
330
E3
100
AcDbEntity
  8
Des_ Walls
  6
Continuous
100
AcDbLine
 10
149.0623273552039
 20
130.4148221794715
 30
0.0
 11
149.0623273552039
 21
130.1023246720536
 31
0.0
  0
LINE
  5
26D
330
E3
100
AcDbEntity
  8
Des_ Walls
  6
Continuous
100
AcDbLine
 10
149.0623273552039
 20
130.1023246720536
 30
0.0
 11
149.5819412467668
 21
130.1023246720536
 31
0.0
  0
LINE
  5
26E
330
E3
100
AcDbEntity
  8
Des_ Walls
  6
Continuous
100
AcDbLine
 10
149.5819412467668
 20
130.1023246720536
 30
0.0
 11
149.5819412467668
 21
130.4148221794715
 31
0.0
  0
HATCH
  5
26F
330
E3
100
AcDbEntity
  8
Des_ Walls
  6
Continuous
 62
   255
370
     0
100
AcDbHatch
 10
0.0
 20
0.0
 30
0.0
210
0.0
220
0.0
230
1.0
  2
SOLID
 70
     1
 71
     0
 91
        1
 92
        3
 72
     1
 73
     1
 93
        4
 10
149.8417487269359
 20
130.4148228358915
 42
0.4811252243246882
 10
149.5819411058008
 20
130.4148228358915
 42
0.0
 10
149.5819411058008
 20
130.1023228358915
 42
0.0
 10
149.8417487269359
 20
130.1023228358915
 42
0.0
 97
        0
 75
     0
 76
     1
 98
        0
  0
ARC
  5
270
330
E3
100
AcDbEntity
  8
Des_ Walls
  6
Continuous
100
AcDbCircle
 10
149.7118449163684
 20
130.3110728358916
 30
0.0
 40
0.1662499999998442
100
AcDbArc
 50
38.61323819100278
 51
141.3867618089972
  0
LINE
  5
271
330
E3
100
AcDbEntity
  8
Des_ Walls
  6
Continuous
100
AcDbLine
 10
149.5819412467668
 20
130.4148221794715
 30
0.0
 11
149.5819412467668
 21
130.1023246720536
 31
0.0
  0
LINE
  5
272
330
E3
100
AcDbEntity
  8
Des_ Walls
  6
Continuous
100
AcDbLine
 10
149.5819412467668
 20
130.1023246720536
 30
0.0
 11
149.8417481925482
 21
130.1023246720536
 31
0.0
  0
LINE
  5
273
330
E3
100
AcDbEntity
  8
Des_ Walls
  6
Continuous
100
AcDbLine
 10
149.8417481925482
 20
130.1023246720536
 30
0.0
 11
149.8417481925482
 21
130.4148221794715
 31
0.0
  0
HATCH
  5
274
330
E3
100
AcDbEntity
  8
Des_ Walls
  6
Continuous
 62
   255
370
     0
100
AcDbHatch
 10
0.0
 20
0.0
 30
0.0
210
0.0
220
0.0
230
1.0
  2
SOLID
 70
     1
 71
     0
 91
        1
 92
        3
 72
     1
 73
     1
 93
        4
 10
148.8025182423947
 20
130.4148228358915
 42
0.0
 10
148.8025182423947
 20
130.1023228358915
 42
0.0
 10
149.0623258635302
 20
130.1023228358915
 42
0.0
 10
149.0623258635302
 20
130.4148228358915
 42
0.4811252243246882
 97
        0
 75
     0
 76
     1
 98
        0
  0
LINE
  5
275
330
E3
100
AcDbEntity
  8
Des_ Walls
  6
Continuous
100
AcDbLine
 10
148.8025204094225
 20
130.1023246720536
 30
0.0
 11
148.8025204094225
 21
130.4148221794715
 31
0.0
  0
LINE
  5
276
330
E3
100
AcDbEntity
  8
Des_ Walls
  6
Continuous
100
AcDbLine
 10
149.0623273552039
 20
130.1023246720536
 30
0.0
 11
148.8025204094225
 21
130.1023246720536
 31
0.0
  0
LINE
  5
277
330
E3
100
AcDbEntity
  8
Des_ Walls
  6
Continuous
100
AcDbLine
 10
149.0623273552039
 20
130.4148221794715
 30
0.0
 11
149.0623273552039
 21
130.1023246720536
 31
0.0
  0
ARC
  5
278
330
E3
100
AcDbEntity
  8
Des_ Walls
  6
Continuous
100
AcDbCircle
 10
148.9324220529624
 20
130.3110728358915
 30
0.0
 40
0.1662500000001217
100
AcDbArc
 50
38.61323819099987
 51
141.3867618090001
  0
HATCH
  5
279
330
E3
100
AcDbEntity
  8
Des_ Walls
  6
Continuous
 62
   255
370
     0
100
AcDbHatch
 10
0.0
 20
0.0
 30
0.0
210
0.0
220
0.0
230
1.0
  2
SOLID
 70
     1
 71
     0
 91
        1
 92
        3
 72
     0
 73
     1
 93
        4
 10
149.7118449163684
 20
128.5961431145846
 10
148.9324220529622
 20
128.5961431145846
 10
148.9324220529622
 20
128.0761431145846
 10
149.7118449163684
 20
128.0761431145846
 97
        0
 75
     0
 76
     1
 98
        0
  0
HATCH
  5
27A
330
E3
100
AcDbEntity
  8
Des_ Walls
  6
Continuous
 62
   255
370
     0
100
AcDbHatch
 10
0.0
 20
0.0
 30
0.0
210
0.0
220
0.0
230
1.0
  2
SOLID
 70
     1
 71
     0
 91
        1
 92
        3
 72
     1
 73
     1
 93
        4
 10
149.5819411058008
 20
128.5094764479179
 42
0.3335801555317839
 10
149.0623258635302
 20
128.5094764479179
 42
0.0
 10
149.0623258635302
 20
128.1628097812512
 42
0.3335801555317839
 10
149.5819411058008
 20
128.1628097812512
 42
0.0
 97
        0
 75
     0
 76
     1
 98
        0
  0
ARC
  5
27B
330
E3
100
AcDbEntity
  8
Des_ Walls
  6
Continuous
100
AcDbCircle
 10
149.3221334846655
 20
128.1633867043282
 30
0.0
 40
0.432756410256372
100
AcDbArc
 50
53.10464887284913
 51
126.8953511271509
  0
LINE
  5
27C
330
E3
100
AcDbEntity
  8
Des_ Walls
  6
Continuous
100
AcDbLine
 10
149.0623273552039
 20
128.5094752999936
 30
0.0
 11
149.0623273552039
 21
128.1628087352655
 31
0.0
  0
ARC
  5
27D
330
E3
100
AcDbEntity
  8
Des_ Walls
  6
Continuous
100
AcDbCircle
 10
149.3221334846655
 20
128.508899524841
 30
0.0
 40
0.432756410256372
100
AcDbArc
 50
233.1046488728491
 51
306.8953511271508
  0
LINE
  5
27E
330
E3
100
AcDbEntity
  8
Des_ Walls
  6
Continuous
100
AcDbLine
 10
149.5819412467668
 20
128.1628087352655
 30
0.0
 11
149.5819412467668
 21
128.5094752999936
 31
0.0
  0
HATCH
  5
27F
330
E3
100
AcDbEntity
  8
Des_ Walls
  6
Continuous
 62
   255
370
     0
100
AcDbHatch
 10
0.0
 20
0.0
 30
0.0
210
0.0
220
0.0
230
1.0
  2
SOLID
 70
     1
 71
     0
 91
        1
 92
        3
 72
     1
 73
     1
 93
        4
 10
149.8417487269359
 20
128.5094764479179
 42
0.6671603110635675
 10
149.5819411058008
 20
128.5094764479179
 42
0.0
 10
149.5819411058008
 20
128.1628097812512
 42
0.6671603110635675
 10
149.8417487269359
 20
128.1628097812512
 42
0.0
 97
        0
 75
     0
 76
     1
 98
        0
  0
ARC
  5
280
330
E3
100
AcDbEntity
  8
Des_ Walls
  6
Continuous
100
AcDbCircle
 10
149.7118449163684
 20
128.4554540120205
 30
0.0
 40
0.1406891025639722
100
AcDbArc
 50
22.58071176780243
 51
157.4192882321976
  0
LINE
  5
281
330
E3
100
AcDbEntity
  8
Des_ Walls
  6
Continuous
100
AcDbLine
 10
149.5819412467668
 20
128.5094752999936
 30
0.0
 11
149.5819412467668
 21
128.1628087352655
 31
0.0
  0
ARC
  5
282
330
E3
100
AcDbEntity
  8
Des_ Walls
  6
Continuous
100
AcDbCircle
 10
149.7118449163684
 20
128.2168322171486
 30
0.0
 40
0.1406891025639722
100
AcDbArc
 50
202.5807117678024
 51
337.4192882321975
  0
LINE
  5
283
330
E3
100
AcDbEntity
  8
Des_ Walls
  6
Continuous
100
AcDbLine
 10
149.8417481925482
 20
128.1628087352655
 30
0.0
 11
149.8417481925482
 21
128.5094752999936
 31
0.0
  0
HATCH
  5
284
330
E3
100
AcDbEntity
  8
Des_ Walls
  6
Continuous
 62
   255
370
     0
100
AcDbHatch
 10
0.0
 20
0.0
 30
0.0
210
0.0
220
0.0
230
1.0
  2
SOLID
 70
     1
 71
     0
 91
        1
 92
        3
 72
     1
 73
     1
 93
        4
 10
148.8025182423947
 20
128.5094764479179
 42
0.0
 10
148.8025182423947
 20
128.1628097812512
 42
0.6671603110635675
 10
149.0623258635302
 20
128.1628097812512
 42
0.0
 10
149.0623258635302
 20
128.5094764479179
 42
0.6671603110635675
 97
        0
 75
     0
 76
     1
 98
        0
  0
LINE
  5
285
330
E3
100
AcDbEntity
  8
Des_ Walls
  6
Continuous
100
AcDbLine
 10
148.8025204094225
 20
128.1628087352655
 30
0.0
 11
148.8025204094225
 21
128.5094752999936
 31
0.0
  0
ARC
  5
286
330
E3
100
AcDbEntity
  8
Des_ Walls
  6
Continuous
100
AcDbCircle
 10
148.9324220529624
 20
128.2168322171487
 30
0.0
 40
0.1406891025642092
100
AcDbArc
 50
202.580711767799
 51
337.419288232201
  0
LINE
  5
287
330
E3
100
AcDbEntity
  8
Des_ Walls
  6
Continuous
100
AcDbLine
 10
149.0623273552039
 20
128.5094752999936
 30
0.0
 11
149.0623273552039
 21
128.1628087352655
 31
0.0
  0
ARC
  5
288
330
E3
100
AcDbEntity
  8
Des_ Walls
  6
Continuous
100
AcDbCircle
 10
148.9324220529624
 20
128.4554540120205
 30
0.0
 40
0.1406891025642092
100
AcDbArc
 50
22.58071176779902
 51
157.419288232201
  0
HATCH
  5
289
330
E3
100
AcDbEntity
  8
Des_ Walls
  6
Continuous
 62
   255
370
     0
100
AcDbHatch
 10
0.0
 20
0.0
 30
0.0
210
0.0
220
0.0
230
1.0
  2
SOLID
 70
     1
 71
     0
 91
        1
 92
        3
 72
     0
 73
     1
 93
        4
 10
148.6971334846654
 20
129.7023228358915
 10
149.9471334846656
 20
129.7023228358915
 10
149.9471334846656
 20
130.1023228358915
 10
148.6971334846654
 20
130.1023228358915
 97
        0
 75
     0
 76
     1
 98
        0
  0
LINE
  5
28A
330
E3
100
AcDbEntity
  8
Des_ Walls
  6
Continuous
100
AcDbLine
 10
148.6971349250701
 20
129.7023221059338
 30
0.0
 11
149.9471336769006
 21
129.7023221059338
 31
0.0
  0
LINE
  5
28B
330
E3
100
AcDbEntity
  8
Des_ Walls
  6
Continuous
100
AcDbLine
 10
149.9471336769006
 20
129.7023221059338
 30
0.0
 11
149.9471336769006
 21
130.1023246720536
 31
0.0
  0
LINE
  5
28C
330
E3
100
AcDbEntity
  8
Des_ Walls
  6
Continuous
100
AcDbLine
 10
149.9471336769006
 20
130.1023246720536
 30
0.0
 11
148.6971349250701
 21
130.1023246720536
 31
0.0
  0
LINE
  5
28D
330
E3
100
AcDbEntity
  8
Des_ Walls
  6
Continuous
100
AcDbLine
 10
148.6971349250701
 20
130.1023246720536
 30
0.0
 11
148.6971349250701
 21
129.7023221059338
 31
0.0
  0
HATCH
  5
28E
330
E3
100
AcDbEntity
  8
Des_ Walls
  6
Continuous
 62
   255
370
     0
100
AcDbHatch
 10
0.0
 20
0.0
 30
0.0
210
0.0
220
0.0
230
1.0
  2
SOLID
 70
     1
 71
     0
 91
        1
 92
        3
 72
     0
 73
     1
 93
        4
 10
148.6971334846654
 20
128.9961431145846
 10
148.6971334846654
 20
128.5961431145846
 10
149.9471334846656
 20
128.5961431145846
 10
149.9471334846656
 20
128.9961431145846
 97
        0
 75
     0
 76
     1
 98
        0
  0
LINE
  5
28F
330
E3
100
AcDbEntity
  8
Des_ Walls
  6
Continuous
100
AcDbLine
 10
148.6971349250701
 20
128.9961412364858
 30
0.0
 11
148.6971349250701
 21
128.5961430314455
 31
0.0
  0
LINE
  5
290
330
E3
100
AcDbEntity
  8
Des_ Walls
  6
Continuous
100
AcDbLine
 10
148.6971349250701
 20
128.5961430314455
 30
0.0
 11
149.9471336769006
 21
128.5961430314455
 31
0.0
  0
LINE
  5
291
330
E3
100
AcDbEntity
  8
Des_ Walls
  6
Continuous
100
AcDbLine
 10
149.9471336769006
 20
128.5961430314455
 30
0.0
 11
149.9471336769006
 21
128.9961412364858
 31
0.0
  0
LINE
  5
292
330
E3
100
AcDbEntity
  8
Des_ Walls
  6
Continuous
100
AcDbLine
 10
149.9471336769006
 20
128.9961412364858
 30
0.0
 11
148.6971349250701
 21
128.9961412364858
 31
0.0
  0
LINE
  5
293
330
E3
100
AcDbEntity
  8
Des_ Walls
  6
Continuous
100
AcDbLine
 10
149.7118447196575
 20
130.4773208087392
 30
0.0
 11
148.9324238823132
 21
130.4773208087392
 31
0.0
  0
LINE
  5
294
330
E3
100
AcDbEntity
  8
Des_ Walls
  6
Continuous
100
AcDbLine
 10
148.9324238823132
 20
130.1023246720536
 30
0.0
 11
149.7118447196575
 21
130.1023246720536
 31
0.0
  0
LINE
  5
295
330
E3
100
AcDbEntity
  8
Des_ Walls
  6
Continuous
100
AcDbLine
 10
149.7118447196575
 20
128.5961430314455
 30
0.0
 11
148.9324238823132
 21
128.5961430314455
 31
0.0
  0
LINE
  5
296
330
E3
100
AcDbEntity
  8
Des_ Walls
  6
Continuous
100
AcDbLine
 10
148.9324238823132
 20
128.0761410038136
 30
0.0
 11
149.7118447196575
 21
128.0761410038136
 31
0.0
  0
LINE
  5
298
330
E3
100
AcDbEntity
  8
Des_ Walls
  6
Dot & Dashed
100
AcDbLine
 10
149.3221343009853
 20
130.602322428354
 30
0.0
 11
149.3221343009853
 21
126.6675995704956
 31
0.0
  0
HATCH
  5
299
330
E3
100
AcDbEntity
  8
Des_ Walls
  6
Continuous
 62
   255
370
     0
100
AcDbHatch
 10
0.0
 20
0.0
 30
0.0
210
0.0
220
0.0
230
1.0
  2
SOLID
 70
     1
 71
     0
 91
        1
 92
        3
 72
     0
 73
     1
 93
        6
 10
191.4975344892822
 20
93.04886024051368
 10
189.4190735201993
 20
93.04886024051368
 10
188.3798430356585
 20
91.24886024051368
 10
189.4190735201993
 20
89.44886024051371
 10
191.4975344892822
 20
89.44886024051371
 10
192.5367649738234
 20
91.24886024051368
 97
        0
 75
     0
 76
     1
 98
        0
  0
LINE
  5
29A
330
E3
100
AcDbEntity
  8
Des_ Walls
  6
Continuous
100
AcDbLine
 10
191.4975359711882
 20
93.04885815102969
 30
0.0
 11
189.4190716827779
 21
93.04885815102969
 31
0.0
  0
LINE
  5
29B
330
E3
100
AcDbEntity
  8
Des_ Walls
  6
Continuous
100
AcDbLine
 10
189.4190716827779
 20
93.04885815102969
 30
0.0
 11
188.3798438996522
 21
91.24886186726873
 31
0.0
  0
LINE
  5
29C
330
E3
100
AcDbEntity
  8
Des_ Walls
  6
Continuous
100
AcDbLine
 10
188.3798438996522
 20
91.24886186726873
 30
0.0
 11
189.4190716827779
 21
89.44886122242838
 31
0.0
  0
LINE
  5
29D
330
E3
100
AcDbEntity
  8
Des_ Walls
  6
Continuous
100
AcDbLine
 10
189.4190716827779
 20
89.44886122242838
 30
0.0
 11
191.4975359711882
 21
89.44886122242838
 31
0.0
  0
LINE
  5
29E
330
E3
100
AcDbEntity
  8
Des_ Walls
  6
Continuous
100
AcDbLine
 10
191.4975359711882
 20
89.44886122242838
 30
0.0
 11
192.5367637543139
 21
91.24886186726873
 31
0.0
  0
LINE
  5
29F
330
E3
100
AcDbEntity
  8
Des_ Walls
  6
Continuous
100
AcDbLine
 10
192.5367637543139
 20
91.24886186726873
 30
0.0
 11
191.4975359711882
 21
93.04885815102969
 31
0.0
  0
HATCH
  5
2A0
330
E3
100
AcDbEntity
  8
Des_ Walls
  6
Continuous
 62
   255
370
     0
100
AcDbHatch
 10
0.0
 20
0.0
 30
0.0
210
0.0
220
0.0
230
1.0
  2
SOLID
 70
     1
 71
     0
 91
        1
 92
        3
 72
     1
 73
     1
 93
        2
 10
191.6583040047408
 20
91.24886024051368
 42
0.9999999999999999
 10
189.2583040047406
 20
91.24886024051368
 42
0.9999999999999999
 97
        0
 75
     0
 76
     1
 98
        0
  0
ARC
  5
2A1
330
E3
100
AcDbEntity
  8
Des_ Walls
  6
Continuous
100
AcDbCircle
 10
190.4583040047407
 20
91.24886024051368
 30
0.0
 40
1.20000000000009
100
AcDbArc
 50
0.0
 51
180.0
  0
ARC
  5
2A2
330
E3
100
AcDbEntity
  8
Des_ Walls
  6
Continuous
100
AcDbCircle
 10
190.4583040047407
 20
91.24886024051368
 30
0.0
 40
1.20000000000009
100
AcDbArc
 50
180.0
 51
0.0
  0
LINE
  5
2A3
330
E3
100
AcDbEntity
  8
Des_ Walls
  6
Dot & Dashed
100
AcDbLine
 10
190.4583038269831
 20
91.24886186726873
 30
0.0
 11
190.7583024807633
 21
91.24886186726873
 31
0.0
  0
LINE
  5
2A4
330
E3
100
AcDbEntity
  8
Des_ Walls
  6
Dot & Dashed
100
AcDbLine
 10
191.6583028031835
 20
91.24886186726873
 30
0.0
 11
194.0583051166638
 21
91.24886186726873
 31
0.0
  0
LINE
  5
2A5
330
E3
100
AcDbEntity
  8
Des_ Walls
  6
Dot & Dashed
100
AcDbLine
 10
190.4583038269831
 20
91.24886186726873
 30
0.0
 11
190.1583051732028
 21
91.24886186726873
 31
0.0
  0
LINE
  5
2A6
330
E3
100
AcDbEntity
  8
Des_ Walls
  6
Dot & Dashed
100
AcDbLine
 10
189.2583048507827
 20
91.24886186726873
 30
0.0
 11
186.8583025373023
 21
91.24886186726873
 31
0.0
  0
LINE
  5
2A7
330
E3
100
AcDbEntity
  8
Des_ Walls
  6
Dot & Dashed
100
AcDbLine
 10
190.4583038269831
 20
91.548860521049
 30
0.0
 11
190.4583038269831
 21
91.24886186726873
 31
0.0
  0
LINE
  5
2A8
330
E3
100
AcDbEntity
  8
Des_ Walls
  6
Dot & Dashed
100
AcDbLine
 10
190.4583038269831
 20
92.44886084346918
 30
0.0
 11
190.4583038269831
 21
94.84885879587004
 31
0.0
  0
LINE
  5
2A9
330
E3
100
AcDbEntity
  8
Des_ Walls
  6
Dot & Dashed
100
AcDbLine
 10
190.4583038269831
 20
91.24886186726873
 30
0.0
 11
190.4583038269831
 21
90.94885885240906
 31
0.0
  0
LINE
  5
2AA
330
E3
100
AcDbEntity
  8
Des_ Walls
  6
Dot & Dashed
100
AcDbLine
 10
190.4583038269831
 20
90.04885852998886
 30
0.0
 11
190.4583038269831
 21
87.64886057758798
 31
0.0
  0
CIRCLE
  5
2AB
330
E3
100
AcDbEntity
  8
Des_ Walls
  6
Continuous
100
AcDbCircle
 10
190.458304004741
 20
91.24886024051368
 30
0.0
 40
1.8
  0
ARC
  5
2AC
330
E3
100
AcDbEntity
  8
Des_ Walls
  6
Continuous
100
AcDbCircle
 10
190.458304004741
 20
91.24886024051368
 30
0.0
 40
1.072
100
AcDbArc
 50
0.0
 51
270.0
  0
HATCH
  5
2AD
330
E3
100
AcDbEntity
  8
Des_ Walls
  6
Continuous
 62
   255
370
     0
100
AcDbHatch
 10
0.0
 20
0.0
 30
0.0
210
0.0
220
0.0
230
1.0
  2
SOLID
 70
     1
 71
     0
 91
        1
 92
        3
 72
     0
 73
     1
 93
        6
 10
191.4975344892822
 20
107.7284814092342
 10
189.4190735201993
 20
107.7284814092342
 10
188.3798430356585
 20
105.9284814092342
 10
189.4190735201993
 20
104.1284814092342
 10
191.4975344892822
 20
104.1284814092342
 10
192.5367649738234
 20
105.9284814092342
 97
        0
 75
     0
 76
     1
 98
        0
  0
LINE
  5
2AE
330
E3
100
AcDbEntity
  8
Des_ Walls
  6
Continuous
100
AcDbLine
 10
191.4975359711882
 20
107.7284826393707
 30
0.0
 11
189.4190716827779
 21
107.7284826393707
 31
0.0
  0
LINE
  5
2AF
330
E3
100
AcDbEntity
  8
Des_ Walls
  6
Continuous
100
AcDbLine
 10
189.4190716827779
 20
107.7284826393707
 30
0.0
 11
188.3798438996522
 21
105.9284819945304
 31
0.0
  0
LINE
  5
2B0
330
E3
100
AcDbEntity
  8
Des_ Walls
  6
Continuous
100
AcDbLine
 10
188.3798438996522
 20
105.9284819945304
 30
0.0
 11
189.4190716827779
 21
104.12848134969
 31
0.0
  0
LINE
  5
2B1
330
E3
100
AcDbEntity
  8
Des_ Walls
  6
Continuous
100
AcDbLine
 10
189.4190716827779
 20
104.12848134969
 30
0.0
 11
191.4975359711882
 21
104.12848134969
 31
0.0
  0
LINE
  5
2B2
330
E3
100
AcDbEntity
  8
Des_ Walls
  6
Continuous
100
AcDbLine
 10
191.4975359711882
 20
104.12848134969
 30
0.0
 11
192.5367637543139
 21
105.9284819945304
 31
0.0
  0
LINE
  5
2B3
330
E3
100
AcDbEntity
  8
Des_ Walls
  6
Continuous
100
AcDbLine
 10
192.5367637543139
 20
105.9284819945304
 30
0.0
 11
191.4975359711882
 21
107.7284826393707
 31
0.0
  0
HATCH
  5
2B4
330
E3
100
AcDbEntity
  8
Des_ Walls
  6
Continuous
 62
   255
370
     0
100
AcDbHatch
 10
0.0
 20
0.0
 30
0.0
210
0.0
220
0.0
230
1.0
  2
SOLID
 70
     1
 71
     0
 91
        1
 92
        3
 72
     1
 73
     1
 93
        2
 10
191.6583040047408
 20
105.9284814092342
 42
0.9999999999999999
 10
189.2583040047406
 20
105.9284814092342
 42
0.9999999999999999
 97
        0
 75
     0
 76
     1
 98
        0
  0
ARC
  5
2B5
330
E3
100
AcDbEntity
  8
Des_ Walls
  6
Continuous
100
AcDbCircle
 10
190.4583040047407
 20
105.9284814092342
 30
0.0
 40
1.20000000000009
100
AcDbArc
 50
0.0
 51
180.0
  0
ARC
  5
2B6
330
E3
100
AcDbEntity
  8
Des_ Walls
  6
Continuous
100
AcDbCircle
 10
190.4583040047407
 20
105.9284814092342
 30
0.0
 40
1.20000000000009
100
AcDbArc
 50
180.0
 51
0.0
  0
LINE
  5
2B7
330
E3
100
AcDbEntity
  8
Des_ Walls
  6
Dot & Dashed
100
AcDbLine
 10
190.4583038269831
 20
105.9284819945304
 30
0.0
 11
190.7583024807633
 21
105.9284819945304
 31
0.0
  0
LINE
  5
2B8
330
E3
100
AcDbEntity
  8
Des_ Walls
  6
Dot & Dashed
100
AcDbLine
 10
191.6583028031835
 20
105.9284819945304
 30
0.0
 11
194.0583051166638
 21
105.9284819945304
 31
0.0
  0
LINE
  5
2B9
330
E3
100
AcDbEntity
  8
Des_ Walls
  6
Dot & Dashed
100
AcDbLine
 10
190.4583038269831
 20
105.9284819945304
 30
0.0
 11
190.1583051732028
 21
105.9284819945304
 31
0.0
  0
LINE
  5
2BA
330
E3
100
AcDbEntity
  8
Des_ Walls
  6
Dot & Dashed
100
AcDbLine
 10
189.2583048507827
 20
105.9284819945304
 30
0.0
 11
186.8583025373023
 21
105.9284819945304
 31
0.0
  0
LINE
  5
2BB
330
E3
100
AcDbEntity
  8
Des_ Walls
  6
Dot & Dashed
100
AcDbLine
 10
190.4583038269831
 20
106.2284806483106
 30
0.0
 11
190.4583038269831
 21
105.9284819945304
 31
0.0
  0
LINE
  5
2BC
330
E3
100
AcDbEntity
  8
Des_ Walls
  6
Dot & Dashed
100
AcDbLine
 10
190.4583038269831
 20
107.1284809707308
 30
0.0
 11
190.4583038269831
 21
109.5284832842111
 31
0.0
  0
LINE
  5
2BD
330
E3
100
AcDbEntity
  8
Des_ Walls
  6
Dot & Dashed
100
AcDbLine
 10
190.4583038269831
 20
105.9284819945304
 30
0.0
 11
190.4583038269831
 21
105.6284833407501
 31
0.0
  0
LINE
  5
2BE
330
E3
100
AcDbEntity
  8
Des_ Walls
  6
Dot & Dashed
100
AcDbLine
 10
190.4583038269831
 20
104.7284830183299
 30
0.0
 11
190.4583038269831
 21
102.3284807048496
 31
0.0
  0
CIRCLE
  5
2BF
330
E3
100
AcDbEntity
  8
Des_ Walls
  6
Continuous
100
AcDbCircle
 10
190.458304004741
 20
105.9284814092342
 30
0.0
 40
1.8
  0
ARC
  5
2C0
330
E3
100
AcDbEntity
  8
Des_ Walls
  6
Continuous
100
AcDbCircle
 10
190.458304004741
 20
105.9284814092342
 30
0.0
 40
1.072
100
AcDbArc
 50
0.0
 51
270.0
  0
LINE
  5
2C1
330
E3
100
AcDbEntity
  8
Des_ Furniture
  6
Continuous
 62
   251
370
    18
100
AcDbLine
 10
195.5032484799586
 20
118.8616206436792
 30
0.0
 11
195.5032484799586
 21
112.6165679875176
 31
0.0
  0
LINE
  5
2C2
330
E3
100
AcDbEntity
  8
Des_ Furniture
  6
Continuous
 62
   251
370
    18
100
AcDbLine
 10
195.5032484799586
 20
78.29056851198521
 30
0.0
 11
195.5032484799586
 21
84.87714602023058
 31
0.0
  0
ARC
  5
2C3
330
E3
100
AcDbEntity
  8
Des_ Furniture
  6
Hidden Line
100
AcDbCircle
 10
196.5394021247233
 20
121.8628770084167
 30
0.0
 40
0.6000000000001117
100
AcDbArc
 50
273.0000017665797
 51
0.0
  0
LWPOLYLINE
  5
2C4
330
E3
100
AcDbEntity
  8
Des_ Furniture
  6
Continuous
100
AcDbPolyline
 90
        6
 70
   128
 43
0.0
 10
143.3306982704856
 20
123.3758756008097
 10
146.6573204052981
 20
129.493411281284
 42
-0.2604542593494868
 10
147.0087250239898
 20
129.7023228358915
 10
195.4990708474868
 20
129.7023228358915
 42
0.5419685754561748
 10
195.9717374078336
 20
130.5310025968229
 10
195.9717374078336
 20
151.4665537504386
  0
LWPOLYLINE
  5
2C5
330
E3
100
AcDbEntity
  8
Des_ Furniture
  6
Continuous
100
AcDbPolyline
 90
        4
 70
   128
 43
0.0
 10
198.3578712670311
 20
164.6006629023435
 10
202.3578712670311
 20
164.6006629023435
 10
202.3578712670311
 20
166.6006629023435
 10
198.3578712670311
 20
166.6006629023435
  0
LWPOLYLINE
  5
2C6
330
E3
100
AcDbEntity
  8
Des_ Furniture
  6
Continuous
100
AcDbPolyline
 90
        3
 70
   128
 43
0.0
 10
195.9717374078336
 20
151.4665537504386
 42
0.9216465519400844
 10
195.4565388397036
 20
151.4632609374625
 10
195.4565388397036
 20
149.4632609374626
  0
LWPOLYLINE
  5
2C7
330
E3
100
AcDbEntity
  8
Des_ Furniture
  6
Continuous
100
AcDbPolyline
 90
        3
 70
   128
 43
0.0
 10
195.0521230827498
 20
137.4674647112812
 10
193.4436738624505
 20
138.8057342655072
 10
195.0521230827498
 20
140.9671925701222
  0
LWPOLYLINE
  5
2C8
330
E3
100
AcDbEntity
  8
Des_ Furniture
  6
Continuous
100
AcDbPolyline
 90
        3
 70
   128
 43
0.0
 10
195.0521230827498
 20
140.9671925701222
 10
195.0521230827498
 20
164.3688497794647
 10
201.8805839259068
 20
165.5728916628245
  0
LWPOLYLINE
  5
2C9
330
E3
100
AcDbEntity
  8
Des_ Furniture
  6
Hidden Line
 62
   251
370
    18
100
AcDbPolyline
 90
        2
 70
   128
 43
0.0
 10
195.5032504059009
 20
84.87714612781666
 10
195.5032504059009
 20
112.6165681983645
  0
LWPOLYLINE
  5
2CA
330
E3
100
AcDbEntity
  8
Des_ Furniture
  6
Continuous
 62
   251
370
    18
100
AcDbPolyline
 90
        4
 70
   129
 43
0.0
 10
185.0281003207215
 20
112.5186986792451
 10
185.0281003207215
 20
84.34057528641375
 10
198.3578712670311
 20
84.34057528641375
 10
198.3578712670311
 20
112.5186986792451
  0
LWPOLYLINE
  5
2CB
330
E3
100
AcDbEntity
  8
Des_ Furniture
  6
Continuous
 62
   251
370
    18
100
AcDbPolyline
 90
        2
 70
   128
 43
0.0
 10
196.7549241279176
 20
112.5186986792451
 10
196.7549241279176
 20
84.34057528641375
  0
LINE
  5
2CC
330
E3
100
AcDbEntity
  8
Doc_ Floor
  6
Continuous
100
AcDbLine
 10
233.5428597253233
 20
128.7243238779625
 30
0.0
 11
233.5428597253233
 21
129.7023221059338
 31
0.0
  0
LINE
  5
2CD
330
E3
100
AcDbEntity
  8
Doc_ Floor
  6
Continuous
100
AcDbLine
 10
233.5428597253233
 20
129.7023221059338
 30
0.0
 11
233.5428597253233
 21
136.7023212216957
 31
0.0
  0
LINE
  5
2CE
330
E3
100
AcDbEntity
  8
Doc_ Floor
  6
Continuous
100
AcDbLine
 10
232.542859851643
 20
130.2796723280301
 30
0.0
 11
234.5428595990036
 21
129.1249718838374
 31
0.0
  0
LINE
  5
2CF
330
E3
100
AcDbEntity
  8
Doc_ Floor
  6
Continuous
100
AcDbLine
 10
234.5428595990036
 20
136.1249709995994
 30
0.0
 11
232.542859851643
 21
137.279671443792
 31
0.0
  0
LINE
  5
2D0
330
E3
100
AcDbEntity
  8
Doc_ Floor
  6
Continuous
100
AcDbLine
 10
233.5428597253233
 20
136.7023212216957
 30
0.0
 11
233.5428597253233
 21
137.6803238107464
 31
0.0
  0
LINE
  5
2D1
330
E3
100
AcDbEntity
  8
Doc_ Floor
  6
Continuous
100
AcDbLine
 10
235.0428617163834
 20
129.7023221059338
 30
0.0
 11
213.5428622517179
 21
129.7023221059338
 31
0.0
  0
LINE
  5
2D2
330
E3
100
AcDbEntity
  8
Doc_ Floor
  6
Continuous
100
AcDbLine
 10
235.0428617163834
 20
136.7023212216957
 30
0.0
 11
213.5428622517179
 21
136.7023212216957
 31
0.0
  0
MTEXT
  5
2D3
330
E3
100
AcDbEntity
  8
Doc_ Floor
  6
Continuous
100
AcDbMText
 10
233.0428603146935
 20
131.249372738271
 30
0.0
 40
2.5
 41
0.0
 71
     7
 72
     1
  1
{35}
  7
GENERATED_STYLE_1
 11
6.123233995736766E-17
 21
1.0
 31
0.0
 73
     1
 44
1.0
  0
LINE
  5
2D4
330
E3
100
AcDbEntity
  8
Doc_ Floor
  6
Continuous
100
AcDbLine
 10
233.5428597253233
 20
135.7243229937244
 30
0.0
 11
233.5428597253233
 21
136.7023212216957
 31
0.0
  0
LINE
  5
2D5
330
E3
100
AcDbEntity
  8
Doc_ Floor
  6
Continuous
100
AcDbLine
 10
233.5428597253233
 20
136.7023212216957
 30
0.0
 11
233.5428597253233
 21
151.7023236879792
 31
0.0
  0
LINE
  5
2D6
330
E3
100
AcDbEntity
  8
Doc_ Floor
  6
Continuous
100
AcDbLine
 10
232.542859851643
 20
137.279671443792
 30
0.0
 11
234.5428595990036
 21
136.1249709995994
 31
0.0
  0
LINE
  5
2D7
330
E3
100
AcDbEntity
  8
Doc_ Floor
  6
Continuous
100
AcDbLine
 10
234.5428595990036
 20
151.1249734658828
 30
0.0
 11
232.542859851643
 21
152.2796739100755
 31
0.0
  0
LINE
  5
2D8
330
E3
100
AcDbEntity
  8
Doc_ Floor
  6
Continuous
100
AcDbLine
 10
233.5428597253233
 20
151.7023236879792
 30
0.0
 11
233.5428597253233
 21
152.6803219159504
 31
0.0
  0
LINE
  5
2D9
330
E3
100
AcDbEntity
  8
Doc_ Floor
  6
Continuous
100
AcDbLine
 10
235.0428617163834
 20
136.7023212216957
 30
0.0
 11
213.5428622517179
 21
136.7023212216957
 31
0.0
  0
LINE
  5
2DA
330
E3
100
AcDbEntity
  8
Doc_ Floor
  6
Continuous
100
AcDbLine
 10
235.0428617163834
 20
151.7023236879792
 30
0.0
 11
213.5428622517179
 21
151.7023236879792
 31
0.0
  0
MTEXT
  5
2DB
330
E3
100
AcDbEntity
  8
Doc_ Floor
  6
Continuous
100
AcDbMText
 10
233.0428603146935
 20
142.249372738271
 30
0.0
 40
2.5
 41
0.0
 71
     7
 72
     1
  1
{75}
  7
GENERATED_STYLE_1
 11
6.123233995736766E-17
 21
1.0
 31
0.0
 73
     1
 44
1.0
  0
LINE
  5
2DC
330
E3
100
AcDbEntity
  8
Doc_ Floor
  6
Continuous
100
AcDbLine
 10
149.770745458398
 20
136.0971952847291
 30
0.0
 11
150.5951159413958
 21
135.5709874410726
 31
0.0
  0
LINE
  5
2DD
330
E3
100
AcDbEntity
  8
Doc_ Floor
  6
Continuous
100
AcDbLine
 10
150.5951159413958
 20
135.5709874410726
 30
0.0
 11
152.0797843771908
 21
134.6233030761981
 31
0.0
  0
LINE
  5
2DE
330
E3
100
AcDbEntity
  8
Doc_ Floor
  6
Continuous
100
AcDbLine
 10
151.6198213300299
 20
136.103261546212
 30
0.0
 11
149.5704149138413
 21
135.0387089748539
 31
0.0
  0
LINE
  5
2DF
330
E3
100
AcDbEntity
  8
Doc_ Floor
  6
Continuous
100
AcDbLine
 10
151.0550789885568
 20
134.0910289710588
 30
0.0
 11
153.1044854047454
 21
135.1555815424169
 31
0.0
  0
LINE
  5
2E0
330
E3
100
AcDbEntity
  8
Doc_ Floor
  6
Continuous
100
AcDbLine
 10
152.0797843771908
 20
134.6233030761981
 30
0.0
 11
152.9041548601888
 21
134.0970952325417
 31
0.0
  0
LINE
  5
2E1
330
E3
100
AcDbEntity
  8
Doc_ Floor
  6
Continuous
100
AcDbLine
 10
149.5190283149535
 20
133.8851511334711
 30
0.0
 11
151.4021860223071
 21
136.8353603106944
 31
0.0
  0
LINE
  5
2E2
330
E3
100
AcDbEntity
  8
Doc_ Floor
  6
Continuous
100
AcDbLine
 10
151.0036923896691
 20
132.9374711296761
 30
0.0
 11
152.8868500970226
 21
135.8876803068993
 31
0.0
  0
MTEXT
  5
2E3
330
E3
100
AcDbEntity
  8
Doc_ Floor
  6
Continuous
100
AcDbMText
 10
147.0845866940524
 20
138.4049821320729
 30
0.0
 40
2.5
 41
0.0
 71
     7
 72
     1
  1
{10}
  7
GENERATED_STYLE_1
 11
0.8429164341874207
 21
-0.5380445009260514
 31
0.0
 73
     1
 44
1.0
  0
LINE
  5
2E4
330
E3
100
AcDbEntity
  8
Doc_ Floor
  6
Continuous
100
AcDbLine
 10
141.3370065923891
 20
121.3978761616959
 30
0.0
 11
141.3370065923891
 21
122.3758743896672
 31
0.0
  0
LINE
  5
2E5
330
E3
100
AcDbEntity
  8
Doc_ Floor
  6
Continuous
100
AcDbLine
 10
141.3370065923891
 20
122.3758743896672
 30
0.0
 11
141.3370065923891
 21
123.3758742633474
 31
0.0
  0
LINE
  5
2E6
330
E3
100
AcDbEntity
  8
Doc_ Floor
  6
Continuous
100
AcDbLine
 10
142.3370064660694
 20
121.7985241675708
 30
0.0
 11
140.3370067187088
 21
122.9532246117635
 31
0.0
  0
LINE
  5
2E7
330
E3
100
AcDbEntity
  8
Doc_ Floor
  6
Continuous
100
AcDbLine
 10
140.3370067187088
 20
123.9532244854438
 30
0.0
 11
142.3370064660694
 21
122.7985240412511
 31
0.0
  0
LINE
  5
2E8
330
E3
100
AcDbEntity
  8
Doc_ Floor
  6
Continuous
100
AcDbLine
 10
141.3370065923891
 20
123.3758742633474
 30
0.0
 11
141.3370065923891
 21
124.3538768523981
 31
0.0
  0
LINE
  5
2E9
330
E3
100
AcDbEntity
  8
Doc_ Floor
  6
Continuous
100
AcDbLine
 10
143.3370063397496
 20
122.3758743896672
 30
0.0
 11
139.837004601329
 21
122.3758743896672
 31
0.0
  0
LINE
  5
2EA
330
E3
100
AcDbEntity
  8
Doc_ Floor
  6
Continuous
100
AcDbLine
 10
143.3370063397496
 20
123.3758742633474
 30
0.0
 11
139.837004601329
 21
123.3758742633474
 31
0.0
  0
MTEXT
  5
2EB
330
E3
100
AcDbEntity
  8
Doc_ Floor
  6
Continuous
100
AcDbMText
 10
139.3806697024602
 20
122.6018624403986
 30
0.0
 40
2.5
 41
0.0
 71
     7
 72
     1
  1
{5}
  7
GENERATED_STYLE_1
 11
6.123233995736766E-17
 21
1.0
 31
0.0
 73
     1
 44
1.0
  0
LINE
  5
2EC
330
E3
100
AcDbEntity
  8
Doc_ Floor
  6
Continuous
100
AcDbLine
 10
143.8089143834611
 20
142.2861470151424
 30
0.0
 11
144.7869126114323
 21
142.2861470151424
 31
0.0
  0
LINE
  5
2ED
330
E3
100
AcDbEntity
  8
Doc_ Floor
  6
Continuous
100
AcDbLine
 10
144.7869126114323
 20
142.2861470151424
 30
0.0
 11
194.9869141201249
 21
142.2861470151424
 31
0.0
  0
LINE
  5
2EE
330
E3
100
AcDbEntity
  8
Doc_ Floor
  6
Continuous
100
AcDbLine
 10
145.3642628335287
 20
143.2861468888227
 30
0.0
 11
144.209562389336
 21
141.2861471414621
 31
0.0
  0
LINE
  5
2EF
330
E3
100
AcDbEntity
  8
Doc_ Floor
  6
Continuous
100
AcDbLine
 10
194.4095638980285
 20
141.2861471414621
 30
0.0
 11
195.5642643422212
 21
143.2861468888227
 31
0.0
  0
LINE
  5
2F0
330
E3
100
AcDbEntity
  8
Doc_ Floor
  6
Continuous
100
AcDbLine
 10
194.9869141201249
 20
142.2861470151424
 30
0.0
 11
195.9649123480961
 21
142.2861470151424
 31
0.0
  0
LINE
  5
2F1
330
E3
100
AcDbEntity
  8
Doc_ Floor
  6
Continuous
100
AcDbLine
 10
144.7869126114323
 20
140.2861472677818
 30
0.0
 11
144.7869126114323
 21
143.7861490062025
 31
0.0
  0
LINE
  5
2F2
330
E3
100
AcDbEntity
  8
Doc_ Floor
  6
Continuous
100
AcDbLine
 10
194.9869141201249
 20
140.2861472677818
 30
0.0
 11
194.9869141201249
 21
143.7861490062025
 31
0.0
  0
MTEXT
  5
2F3
330
E3
100
AcDbEntity
  8
Doc_ Floor
  6
Continuous
100
AcDbMText
 10
168.8280899829504
 20
142.7861482219484
 30
0.0
 40
2.5
 41
0.0
 71
     7
 72
     1
  1
{Y}
  7
GENERATED_STYLE_1
 73
     1
 44
1.0
  0
MTEXT
  5
2F4
330
E3
100
AcDbEntity
  8
Doc_ Floor
  6
Continuous
100
AcDbMText
 10
240.64404980252
 20
154.7656644915878
 30
0.0
 40
2.500000000000001
 41
0.0
 71
     4
 72
     1
  1
{HEM TO FLASHING EDGE}
  7
GENERATED_STYLE_1
 73
     1
 44
1.0
  0
LINE
  5
2F5
330
E3
100
AcDbEntity
  8
Doc_ Floor
  6
Continuous
100
AcDbLine
 10
195.9717374373993
 20
149.5486874734864
 30
0.0
 11
199.1296866331256
 21
151.7747917448169
 31
0.0
  0
LINE
  5
2F6
330
E3
100
AcDbEntity
  8
Doc_ Floor
  6
Continuous
100
AcDbLine
 10
195.9717374373993
 20
149.5486874734864
 30
0.0
 11
199.8196573703436
 21
149.8975738276428
 31
0.0
  0
LINE
  5
2F7
330
E3
100
AcDbEntity
  8
Doc_ Floor
  6
Continuous
100
AcDbLine
 10
199.1296866331256
 20
151.7747917448169
 30
0.0
 11
199.8196573703436
 21
149.8975738276428
 31
0.0
  0
LWPOLYLINE
  5
2F8
330
E3
100
AcDbEntity
  8
Doc_ Floor
  6
Continuous
100
AcDbPolyline
 90
        9
 70
   128
 43
0.0
 10
199.4746716478775
 20
150.8361837432098
 10
202.923958853465
 20
151.8473765731647
 10
206.6470562286777
 20
152.6896506166688
 10
210.7316136978091
 20
153.3735140135206
 10
215.2652811851526
 20
153.9094749035183
 10
220.3357086150019
 20
154.3080414264602
 10
226.0305459116505
 20
154.5797217221446
 10
232.4374429993919
 20
154.7350239303698
 10
239.6440498025196
 20
154.7844561909342
  0
MTEXT
  5
2F9
330
E3
100
AcDbEntity
  8
Doc_ Floor
  6
Continuous
100
AcDbMText
 10
239.7995517618505
 20
172.0398006044429
 30
0.0
 40
2.500000000000001
 41
0.0
 71
     4
 72
     1
  1
{CONCRETE WALL}
  7
GENERATED_STYLE_1
 73
     1
 44
1.0
  0
LINE
  5
2FA
330
E3
100
AcDbEntity
  8
Doc_ Floor
  6
Continuous
100
AcDbLine
 10
217.7288792283164
 20
172.0586126286079
 30
0.0
 11
221.4609296419659
 21
173.0586125022882
 31
0.0
  0
LINE
  5
2FB
330
E3
100
AcDbEntity
  8
Doc_ Floor
  6
Continuous
100
AcDbLine
 10
217.7288792283164
 20
172.0586126286079
 30
0.0
 11
221.4609296419659
 21
171.0586127549277
 31
0.0
  0
LINE
  5
2FC
330
E3
100
AcDbEntity
  8
Doc_ Floor
  6
Continuous
100
AcDbLine
 10
221.4609296419659
 20
173.0586125022882
 30
0.0
 11
221.4609296419659
 21
171.0586127549277
 31
0.0
  0
LWPOLYLINE
  5
2FD
330
E3
100
AcDbEntity
  8
Doc_ Floor
  6
Continuous
100
AcDbPolyline
 90
        2
 70
   128
 43
0.0
 10
221.4609291822306
 20
172.0586112555384
 10
238.7995517618506
 20
172.0586112555384
  0
MTEXT
  5
2FE
330
E3
100
AcDbEntity
  8
Doc_ Floor
  6
Continuous
100
AcDbMText
 10
91.75604395473601
 20
194.8224770536835
 30
0.0
 40
2.5
 41
68.10141778064826
 71
     6
 72
     1
  1
{METAL OVER FLASHING CHASE INTO 20x10 GROOVE  AND  SEALED WITH SEALANT}
  7
GENERATED_STYLE_1
 73
     1
 44
1.065340909090909
  0
LINE
  5
2FF
330
E3
100
AcDbEntity
  8
Doc_ Floor
  6
Continuous
100
AcDbLine
 10
196.9519292883223
 20
166.803769222813
 30
0.0
 11
193.1253045062199
 21
167.3377397878495
 31
0.0
  0
LINE
  5
300
330
E3
100
AcDbEntity
  8
Doc_ Floor
  6
Continuous
100
AcDbLine
 10
196.9519292883223
 20
166.803769222813
 30
0.0
 11
193.9049608418532
 21
169.1795152125206
 31
0.0
  0
LINE
  5
301
330
E3
100
AcDbEntity
  8
Doc_ Floor
  6
Continuous
100
AcDbLine
 10
193.1253045062199
 20
167.3377397878495
 30
0.0
 11
193.9049608418532
 21
169.1795152125206
 31
0.0
  0
LWPOLYLINE
  5
302
330
E3
100
AcDbEntity
  8
Doc_ Floor
  6
Continuous
100
AcDbPolyline
 90
       16
 70
   128
 43
0.0
 10
193.5151315617087
 20
168.2586262295706
 10
176.7749964662134
 20
175.1137104322878
 10
169.0800617414834
 20
178.1006388297086
 10
161.787831158028
 20
180.8065751804827
 10
154.8627664102942
 20
183.2410823015941
 10
148.2693291927293
 20
185.4137230100266
 10
141.9719811997804
 20
187.3340601227642
 10
135.9351841258946
 20
189.0116564567907
 10
130.1233996655191
 20
190.45607482909
 10
124.5010895131009
 20
191.6768780566462
 10
119.0327153630873
 20
192.6836289564429
 10
113.6827389099253
 20
193.4858903454643
 10
108.415621848062
 20
194.0932250406941
 10
103.1958258719447
 20
194.5151958591162
 10
97.98781267602045
 20
194.7613656177147
 10
92.75604395473636
 20
194.8412971334733
  0
MTEXT
  5
303
330
E3
100
AcDbEntity
  8
Doc_ Floor
  6
Continuous
100
AcDbMText
 10
242.2916838515559
 20
130.1791720482757
 30
0.0
 40
2.5
 41
11.14298063894809
 71
     7
 72
     1
  1
{min gap}
  7
GENERATED_STYLE_1
 11
6.123233995736766E-17
 21
1.0
 31
0.0
 73
     1
 44
1.088534107402032
  0
MTEXT
  5
304
330
E3
100
AcDbEntity
  8
Doc_ Floor
  6
Continuous
100
AcDbMText
 10
241.404694786115
 20
141.2403780363087
 30
0.0
 40
2.5
 41
13.47826031520077
 71
     7
 72
     1
  1
{min. cover}
  7
GENERATED_STYLE_1
 11
6.123233995736766E-17
 21
1.0
 31
0.0
 73
     1
 44
1.086169442433019
  0
LINE
  5
305
330
E3
100
AcDbEntity
  8
Des_ Walls
  6
Continuous
100
AcDbLine
 10
55.0067093000883
 20
44.38116114871275
 30
0.0
 11
155.3997956455022
 21
44.38116114871275
 31
0.0
  0
LINE
  5
306
330
E3
100
AcDbEntity
  8
Des_ Walls
  6
Continuous
100
AcDbLine
 10
131.4297767371566
 20
52.46752695512632
 30
0.0
 11
155.3997956455022
 21
52.46752695512632
 31
0.0
  0
LINE
  5
307
330
E3
100
AcDbEntity
  8
Des_ Walls
  6
Continuous
100
AcDbLine
 10
55.0067093000883
 20
33.62056835445192
 30
0.0
 11
155.3997956455022
 21
33.62056835445192
 31
0.0
  0
LINE
  5
308
330
E3
100
AcDbEntity
  8
Des_ Walls
  6
Continuous
100
AcDbLine
 10
131.4297767371566
 20
52.46752695512632
 30
0.0
 11
131.4297767371566
 21
33.62056835445192
 31
0.0
  0
LINE
  5
309
330
E3
100
AcDbEntity
  8
Des_ Walls
  6
Continuous
100
AcDbLine
 10
155.3997956455022
 20
52.46752695512632
 30
0.0
 11
155.3997956455022
 21
33.62056835445192
 31
0.0
  0
LINE
  5
30A
330
E3
100
AcDbEntity
  8
Des_ Walls
  6
Continuous
100
AcDbLine
 10
55.0067093000883
 20
33.62056835445192
 30
0.0
 11
55.0067093000883
 21
44.38116114871275
 31
0.0
  0
MTEXT
  5
30B
330
E3
100
AcDbEntity
  8
0
  6
Continuous
100
AcDbMText
 10
58.56263706298259
 20
37.3152358451274
 30
0.0
 40
2.499999999999999
 41
0.0
 71
     7
 72
     1
  1
{ALL WIND ZONES}
  7
GENERATED_STYLE_1
 73
     1
 44
1.0
  0
MTEXT
  5
30C
330
E3
100
AcDbEntity
  8
0
  6
Continuous
100
AcDbMText
 10
143.0619711195706
 20
37.57734013931157
 30
0.0
 40
2.499999999999999
 41
0.0
 71
     8
 72
     1
  1
{2 CRESTS}
  7
GENERATED_STYLE_1
 73
     1
 44
1.0
  0
MTEXT
  5
30D
330
E3
100
AcDbEntity
  8
0
  6
Continuous
100
AcDbMText
 10
143.0619711195706
 20
47.45940653004534
 30
0.0
 40
2.499999999999999
 41
0.0
 71
     8
 72
     1
  1
{Y}
  7
GENERATED_STYLE_1
 73
     1
 44
1.0
  0
HATCH
  5
30E
330
E3
100
AcDbEntity
  8
Des_ Walls
  6
Continuous
 62
   255
370
     0
100
AcDbHatch
 10
0.0
 20
0.0
 30
0.0
210
0.0
220
0.0
230
1.0
  2
SOLID
 70
     1
 71
     0
 91
        1
 92
        3
 72
     0
 73
     1
 93
        8
 10
190.1083882580819
 20
56.91634223506699
 10
190.1083882580819
 20
21.90350327734518
 10
236.6871020484107
 20
21.90350327734518
 10
236.6871020484107
 20
56.91634223506699
 10
215.3977427200671
 20
56.91634223506699
 10
214.0644124625464
 20
50.91634299298539
 10
212.7310778439462
 20
62.91634147714861
 10
211.397743225346
 20
56.91634223506699
 97
        0
 75
     0
 76
     1
 98
        0
  0
LINE
  5
30F
330
E3
100
AcDbEntity
  8
Des_ Walls
  6
Continuous
100
AcDbLine
 10
190.1083882580819
 20
56.91634257799308
 30
0.0
 11
211.397743225346
 21
56.91634257799308
 31
0.0
  0
LINE
  5
310
330
E3
100
AcDbEntity
  8
Des_ Walls
  6
Continuous
100
AcDbLine
 10
215.3977427200671
 20
56.91634257799308
 30
0.0
 11
236.6871020484107
 21
56.91634257799308
 31
0.0
  0
LINE
  5
311
330
E3
100
AcDbEntity
  8
Des_ Walls
  6
Continuous
100
AcDbLine
 10
215.3977427200671
 20
56.91634257799308
 30
0.0
 11
214.0644124625464
 21
50.91633897483204
 31
0.0
  0
LINE
  5
312
330
E3
100
AcDbEntity
  8
Des_ Walls
  6
Continuous
100
AcDbLine
 10
214.0644124625464
 20
50.91633897483204
 30
0.0
 11
212.7310778439462
 21
62.91634182007471
 31
0.0
  0
LINE
  5
313
330
E3
100
AcDbEntity
  8
Des_ Walls
  6
Continuous
100
AcDbLine
 10
212.7310778439462
 20
62.91634182007471
 30
0.0
 11
211.397743225346
 21
56.91634257799308
 31
0.0
  0
HATCH
  5
314
330
E3
100
AcDbEntity
  8
Des_ Walls
  6
Continuous
 62
   255
370
     0
100
AcDbHatch
 10
0.0
 20
0.0
 30
0.0
210
0.0
220
0.0
230
1.0
  2
SOLID
 70
     1
 71
     0
 91
        1
 92
        3
 72
     0
 73
     1
 93
        8
 10
190.1083861410786
 20
180.4923399778662
 10
211.3977436857617
 20
180.4923399778662
 10
212.7310770190949
 20
186.4923399778662
 10
214.0644103524285
 20
174.4923399778662
 10
215.3977436857617
 20
180.4923399778662
 10
236.6871012304448
 20
180.4923399778662
 10
236.6871012304448
 20
200.6614212631198
 10
190.1083861410786
 20
200.6614212631198
 97
        0
 75
     0
 76
     1
 98
        0
  0
LINE
  5
315
330
E3
100
AcDbEntity
  8
Des_ Walls
  6
Continuous
100
AcDbLine
 10
190.1083882580819
 20
180.4923384113785
 30
0.0
 11
211.397743225346
 21
180.4923384113785
 31
0.0
  0
LINE
  5
316
330
E3
100
AcDbEntity
  8
Des_ Walls
  6
Continuous
100
AcDbLine
 10
215.3977427200671
 20
180.4923384113785
 30
0.0
 11
236.6871020484107
 21
180.4923384113785
 31
0.0
  0
LINE
  5
317
330
E3
100
AcDbEntity
  8
Des_ Walls
  6
Continuous
100
AcDbLine
 10
215.3977427200671
 20
180.4923384113785
 30
0.0
 11
214.0644124625464
 21
174.4923391692969
 31
0.0
  0
LINE
  5
318
330
E3
100
AcDbEntity
  8
Des_ Walls
  6
Continuous
100
AcDbLine
 10
214.0644124625464
 20
174.4923391692969
 30
0.0
 11
212.7310778439462
 21
186.4923420145396
 31
0.0
  0
LINE
  5
319
330
E3
100
AcDbEntity
  8
Des_ Walls
  6
Continuous
100
AcDbLine
 10
212.7310778439462
 20
186.4923420145396
 30
0.0
 11
211.397743225346
 21
180.4923384113785
 31
0.0
  0
HATCH
  5
31A
330
E3
100
AcDbEntity
  8
Des_ Walls
  6
Continuous
 62
   255
370
     0
100
AcDbHatch
 10
0.0
 20
0.0
 30
0.0
210
0.0
220
0.0
230
1.0
  2
SOLID
 70
     1
 71
     0
 91
        1
 92
        3
 72
     0
 73
     1
 93
        8
 10
1.137124170228834
 20
65.52743723388149
 10
104.5869159883093
 20
65.52743723388149
 10
104.5869159883093
 20
96.332478276746
 10
110.5869122588478
 20
97.66581078131011
 10
98.58691473923137
 20
98.99914328587424
 10
104.5869159883093
 20
100.3324807689777
 10
104.5869159883093
 20
131.1375218118423
 10
1.137124170228834
 20
131.1375218118423
 97
        0
 75
     0
 76
     1
 98
        0
  0
LINE
  5
31B
330
E3
100
AcDbEntity
  8
Des_ Walls
  6
Continuous
100
AcDbLine
 10
104.5869142006219
 20
131.1375228177888
 30
0.0
 11
104.5869142006219
 21
100.3324800673236
 31
0.0
  0
LINE
  5
31C
330
E3
100
AcDbEntity
  8
Des_ Walls
  6
Continuous
100
AcDbLine
 10
104.5869142006219
 20
96.33248057260253
 30
0.0
 11
104.5869142006219
 21
65.52743346105792
 31
0.0
  0
LINE
  5
31D
330
E3
100
AcDbEntity
  8
Des_ Walls
  6
Continuous
100
AcDbLine
 10
104.5869142006219
 20
96.33248057260253
 30
0.0
 11
110.5869134427035
 21
97.66581083012325
 31
0.0
  0
LINE
  5
31E
330
E3
100
AcDbEntity
  8
Des_ Walls
  6
Continuous
100
AcDbLine
 10
110.5869134427035
 20
97.66581083012325
 30
0.0
 11
98.58691495854032
 21
98.99914544872343
 31
0.0
  0
LINE
  5
31F
330
E3
100
AcDbEntity
  8
Des_ Walls
  6
Continuous
100
AcDbLine
 10
98.58691495854032
 20
98.99914544872343
 30
0.0
 11
104.5869142006219
 21
100.3324800673236
 31
0.0
  0
MTEXT
  5
320
330
E3
100
AcDbEntity
  8
Doc_ Floor
  6
Continuous
100
AcDbMText
 10
92.77343295842444
 20
92.1131220918462
 30
0.0
 40
2.5
 41
63.74107021605325
 71
     6
 72
     1
  1
{ROOFING UNDERLAY LAID OVER SAFETY NETTING}
  7
GENERATED_STYLE_1
 73
     1
 44
1.070162922071087
  0
LINE
  5
321
330
E3
100
AcDbEntity
  8
Doc_ Floor
  6
Continuous
100
AcDbLine
 10
145.1294841225785
 20
119.9747818063301
 30
0.0
 11
143.5002677091771
 21
116.471374064877
 31
0.0
  0
LINE
  5
322
330
E3
100
AcDbEntity
  8
Doc_ Floor
  6
Continuous
100
AcDbLine
 10
145.1294841225785
 20
119.9747818063301
 30
0.0
 11
141.9668380443094
 21
117.7553499865229
 31
0.0
  0
LINE
  5
323
330
E3
100
AcDbEntity
  8
Doc_ Floor
  6
Continuous
100
AcDbLine
 10
143.5002677091771
 20
116.471374064877
 30
0.0
 11
141.9668380443094
 21
117.7553499865229
 31
0.0
  0
LWPOLYLINE
  5
324
330
E3
100
AcDbEntity
  8
Doc_ Floor
  6
Continuous
100
AcDbPolyline
 90
       17
 70
   128
 43
0.0
 10
142.7335531730756
 20
117.1133605766217
 10
139.776382157795
 20
113.757474089309
 10
136.8814288264185
 20
110.6820258693359
 10
134.0324226324483
 20
107.8781947891968
 10
131.213093029387
 20
105.3371597213862
 10
128.407169470737
 20
103.0500995383988
 10
125.5983814100007
 20
101.0081931127289
 10
122.7704583006806
 20
99.20261931687116
 10
119.9071295962789
 20
97.62455702331998
 10
116.9921247502983
 20
96.26518510456991
 10
114.009173216241
 20
95.11568243311544
 10
110.9420044476096
 20
94.1672278814511
 10
107.7743478979065
 20
93.41100032207136
 10
104.489933020634
 20
92.83817862747077
 10
101.0724892692946
 20
92.43994167014382
 10
97.5057460973907
 20
92.20746832258502
 10
93.77343295842478
 20
92.13193745728884
  0
MTEXT
  5
325
330
E3
100
AcDbEntity
  8
Doc_ Floor
  6
Continuous
100
AcDbMText
 10
92.29577825147616
 20
76.53887734562802
 30
0.0
 40
2.5
 41
0.0
 71
     6
 72
     1
  1
{STEEL PURLIN}
  7
GENERATED_STYLE_1
 73
     1
 44
1.0
  0
LINE
  5
326
330
E3
100
AcDbEntity
  8
Doc_ Floor
  6
Continuous
100
AcDbLine
 10
130.8979954339925
 20
89.22131754224755
 30
0.0
 11
128.2351988353233
 21
86.42172696519305
 31
0.0
  0
LINE
  5
327
330
E3
100
AcDbEntity
  8
Doc_ Floor
  6
Continuous
100
AcDbLine
 10
130.8979954339925
 20
89.22131754224755
 30
0.0
 11
127.1921507466196
 21
88.12819990064293
 31
0.0
  0
LINE
  5
328
330
E3
100
AcDbEntity
  8
Doc_ Floor
  6
Continuous
100
AcDbLine
 10
128.2351988353233
 20
86.42172696519305
 30
0.0
 11
127.1921507466196
 21
88.12819990064293
 31
0.0
  0
LWPOLYLINE
  5
329
330
E3
100
AcDbEntity
  8
Doc_ Floor
  6
Continuous
100
AcDbPolyline
 90
        9
 70
   128
 43
0.0
 10
127.713673759513
 20
87.27496182187707
 10
122.8860943729226
 20
84.52072132162131
 10
118.3848657160545
 20
82.23000513114896
 10
114.1218613452027
 20
80.3731341344414
 10
110.0089548166612
 20
78.92042921548
 10
105.9580196867239
 20
77.84221125824614
 10
101.8809295116847
 20
77.1088011467212
 10
97.68955784783762
 20
76.69051976488657
 10
93.2957782514765
 20
76.5576879967236
  0
MTEXT
  5
32A
330
E3
100
AcDbEntity
  8
Doc_ Floor
  6
Continuous
100
AcDbMText
 10
90.05304775497258
 20
145.4214174428347
 30
0.0
 40
2.5
 41
63.74107021605325
 71
     6
 72
     1
  1
{SCREW FIXING WITH 12x25 TYPE 17 TEK & NEO OR 4.8mm ALUM RIVETS MIDSPAN WHERE APPLICABLE}
  7
GENERATED_STYLE_1
 73
     1
 44
1.065340909090909
  0
LINE
  5
32B
330
E3
100
AcDbEntity
  8
Doc_ Floor
  6
Continuous
100
AcDbLine
 10
148.5819806228014
 20
130.8736644292197
 30
0.0
 11
144.8180289131436
 21
131.7459457308022
 31
0.0
  0
LINE
  5
32C
330
E3
100
AcDbEntity
  8
Doc_ Floor
  6
Continuous
100
AcDbLine
 10
148.5819806228014
 20
130.8736644292197
 30
0.0
 11
145.7584433586134
 21
133.5110577402269
 31
0.0
  0
LINE
  5
32D
330
E3
100
AcDbEntity
  8
Doc_ Floor
  6
Continuous
100
AcDbLine
 10
144.8180289131436
 20
131.7459457308022
 30
0.0
 11
145.7584433586134
 21
133.5110577402269
 31
0.0
  0
LWPOLYLINE
  5
32E
330
E3
100
AcDbEntity
  8
Doc_ Floor
  6
Continuous
100
AcDbPolyline
 90
       14
 70
   128
 43
0.0
 10
145.2882372723031
 20
132.6285004538226
 10
138.5738260305507
 20
135.9248236861927
 10
135.3250087874053
 20
137.3621861236372
 10
132.1247886538079
 20
138.665007047844
 10
128.9554192730541
 20
139.837779913255
 10
125.7991542884395
 20
140.8849981743119
 10
122.6382473432596
 20
141.8111552854567
 10
119.4549520808099
 20
142.6207447011312
 10
116.2315221443862
 20
143.3182598757774
 10
112.9502111772839
 20
143.9081942638371
 10
109.5932728227986
 20
144.3950413197522
 10
106.142960724226
 20
144.7832944979645
 10
98.89122986800078
 20
145.2819930390486
 10
91.05304775497291
 20
145.4402375226244
  0
MTEXT
  5
32F
330
E3
100
AcDbEntity
  8
Doc_ Floor
  6
Continuous
100
AcDbMText
 10
90.02575937867485
 20
107.8625267593323
 30
0.0
 40
2.5
 41
63.74107021605325
 71
     6
 72
     1
  1
{5mm GAP MAX TO CLEAR OF TROUGH OR ROOFING}
  7
GENERATED_STYLE_1
 73
     1
 44
1.070162922071087
  0
LINE
  5
330
330
E3
100
AcDbEntity
  8
Doc_ Floor
  6
Continuous
100
AcDbLine
 10
138.9121025153809
 20
121.8463128759314
 30
0.0
 11
138.631545553686
 21
117.9928107613206
 31
0.0
  0
LINE
  5
331
330
E3
100
AcDbEntity
  8
Doc_ Floor
  6
Continuous
100
AcDbLine
 10
138.9121025153809
 20
121.8463128759314
 30
0.0
 11
136.7423826399615
 21
118.6493625468899
 31
0.0
  0
LINE
  5
332
330
E3
100
AcDbEntity
  8
Doc_ Floor
  6
Continuous
100
AcDbLine
 10
138.631545553686
 20
117.9928107613206
 30
0.0
 11
136.7423826399615
 21
118.6493625468899
 31
0.0
  0
LWPOLYLINE
  5
333
330
E3
100
AcDbEntity
  8
Doc_ Floor
  6
Continuous
100
AcDbPolyline
 90
       15
 70
   128
 43
0.0
 10
137.6869631596389
 20
118.321087664549
 10
136.8129520189937
 20
116.9270507754278
 10
135.7220420026407
 20
115.6480465728006
 10
134.4023596097842
 20
114.4806124179298
 10
132.842031339628
 20
113.4212856720775
 10
131.0291836913764
 20
112.4666036965062
 10
128.9519431642334
 20
111.613103852478
 10
126.5984362574031
 20
110.8573235012553
 10
123.9567894700895
 20
110.1958000041004
 10
121.0151293014968
 20
109.6250707222755
 10
117.7615822508291
 20
109.141673017043
 10
114.1842748172903
 20
108.7421442496651
 10
110.2713335000847
 20
108.4230217814041
 10
101.3910552114892
 20
108.012145187282
 10
91.02575937867519
 20
107.881342124775
  0
MTEXT
  5
334
330
E3
100
AcDbEntity
  8
Doc_ Floor
  6
Continuous
100
AcDbMText
 10
90.22818294472401
 20
166.2096080429349
 30
0.0
 40
2.5
 41
63.74107021605325
 71
     6
 72
     1
  1
{12x55mm STEEL TEK & NEO WITH SELECTED WASHER SYSTEM}
  7
GENERATED_STYLE_1
 73
     1
 44
1.070162922071087
  0
LINE
  5
335
330
E3
100
AcDbEntity
  8
Doc_ Floor
  6
Continuous
100
AcDbLine
 10
151.9002387371831
 20
132.7772058218148
 30
0.0
 11
149.1430334910792
 21
135.4838705184398
 31
0.0
  0
LINE
  5
336
330
E3
100
AcDbEntity
  8
Doc_ Floor
  6
Continuous
100
AcDbLine
 10
151.9002387371831
 20
132.7772058218148
 30
0.0
 11
150.8657645306327
 21
136.4998493871404
 31
0.0
  0
LINE
  5
337
330
E3
100
AcDbEntity
  8
Doc_ Floor
  6
Continuous
100
AcDbLine
 10
149.1430334910792
 20
135.4838705184398
 30
0.0
 11
150.8657645306327
 21
136.4998493871404
 31
0.0
  0
LWPOLYLINE
  5
338
330
E3
100
AcDbEntity
  8
Doc_ Floor
  6
Continuous
100
AcDbPolyline
 90
       17
 70
   128
 43
0.0
 10
150.0043990547171
 20
135.9918603415542
 10
147.3997309578599
 20
140.0547025972211
 10
144.7431467115473
 20
143.7778539709773
 10
142.0152327646618
 20
147.1720180214037
 10
139.1965755660865
 20
150.2478983070816
 10
136.2677615647041
 20
153.0161983865922
 10
133.2093772093975
 20
155.4876218185166
 10
130.0020089490495
 20
157.6728721614359
 10
126.626243232543
 20
159.5826529739315
 10
123.0626665087607
 20
161.2276678145843
 10
119.2918652265856
 20
162.6186202419757
 10
115.2944258349005
 20
163.7662138146867
 10
111.0509347825883
 20
164.6811520912985
 10
106.5419785185317
 20
165.3741386303924
 10
101.7481434916136
 20
165.8558769905494
 10
96.65001615071688
 20
166.1370707303507
 10
91.22818294472435
 20
166.2284234083776
  0
MTEXT
  5
339
330
E3
100
AcDbEntity
  8
Doc_ Floor
  6
Continuous
100
AcDbMText
 10
33.85158339118233
 20
125.7064408906768
 30
0.0
 40
2.5
 41
0.0
 71
     4
 72
     1
  1
{TRS PROFILED METAL ROOFING}
  7
GENERATED_STYLE_1
 73
     1
 44
1.0
  0
LINE
  5
33A
330
E3
100
AcDbEntity
  8
Doc_ Floor
  6
Continuous
100
AcDbLine
 10
107.4353837558938
 20
125.7252531668397
 30
0.0
 11
103.7033333422442
 21
124.7252532931594
 31
0.0
  0
LINE
  5
33B
330
E3
100
AcDbEntity
  8
Doc_ Floor
  6
Continuous
100
AcDbLine
 10
107.4353837558938
 20
125.7252531668397
 30
0.0
 11
103.7033333422442
 21
126.7252530405199
 31
0.0
  0
LINE
  5
33C
330
E3
100
AcDbEntity
  8
Doc_ Floor
  6
Continuous
100
AcDbLine
 10
103.7033333422442
 20
124.7252532931594
 30
0.0
 11
103.7033333422442
 21
126.7252530405199
 31
0.0
  0
LWPOLYLINE
  5
33D
330
E3
100
AcDbEntity
  8
Doc_ Floor
  6
Continuous
100
AcDbPolyline
 90
        2
 70
   128
 43
0.0
 10
103.7033353813947
 20
125.7252515417724
 10
90.7869135982633
 20
125.7252515417724
  0
MTEXT
  5
33E
330
E3
100
AcDbEntity
  8
Doc_ Floor
  6
Continuous
100
AcDbMText
 10
90.22818294472401
 20
180.1445458344838
 30
0.0
 40
2.5
 41
63.74107021605325
 71
     6
 72
     1
  1
{BMT 0.55mm 2 PIECE APRON FLASHING TO COVER 2 CRESTS}
  7
GENERATED_STYLE_1
 73
     1
 44
1.070162922071087
  0
LINE
  5
33F
330
E3
100
AcDbEntity
  8
Doc_ Floor
  6
Continuous
100
AcDbLine
 10
174.4507437363724
 20
130.7227056648557
 30
0.0
 11
171.2720924966064
 21
132.9191545960828
 31
0.0
  0
LINE
  5
340
330
E3
100
AcDbEntity
  8
Doc_ Floor
  6
Continuous
100
AcDbLine
 10
174.4507437363724
 20
130.7227056648557
 30
0.0
 11
172.7961720071827
 21
134.2142120205526
 31
0.0
  0
LINE
  5
341
330
E3
100
AcDbEntity
  8
Doc_ Floor
  6
Continuous
100
AcDbLine
 10
171.2720924966064
 20
132.9191545960828
 30
0.0
 11
172.7961720071827
 21
134.2142120205526
 31
0.0
  0
LWPOLYLINE
  5
342
330
E3
100
AcDbEntity
  8
Doc_ Floor
  6
Continuous
100
AcDbPolyline
 90
       17
 70
   128
 43
0.0
 10
172.0341331819029
 20
133.5666815004795
 10
166.5323656557213
 20
139.8365890542982
 10
161.2221964953814
 20
145.5807455122098
 10
156.0754659263844
 20
150.8158799641201
 10
151.0640141742317
 20
155.5587214999348
 10
146.1596814644245
 20
159.8259992095595
 10
141.3343080224642
 20
163.6344421829
 10
136.559734073852
 20
167.000779509862
 10
131.8077998440893
 20
169.9417402803511
 10
127.0503455586773
 20
172.4740535842732
 10
122.2592114431174
 20
174.6144485115337
 10
117.4062377229109
 20
176.3796541520386
 10
112.463264623559
 20
177.7863995956934
 10
107.4021323705631
 20
178.8514139324039
 10
102.1946811894245
 20
179.5914262520758
 10
96.81275130564447
 20
180.0231656446147
 10
91.22818294472435
 20
180.1633611999264
  0
ENDBLK
  5
E5
330
E3
100
AcDbEntity
  8
0
100
AcDbBlockEnd
  0
BLOCK
  5
348
330
347
100
AcDbEntity
  8
0
100
AcDbBlockBegin
  2
C-TRS9-08 APRON DETAIL - SIDE -_STORY_MARKER
 70
     0
 10
0.0
 20
0.0
 30
0.0
  3
C-TRS9-08 APRON DETAIL - SIDE -_STORY_MARKER
  1

  0
ENDBLK
  5
349
330
347
100
AcDbEntity
  8
0
100
AcDbBlockEnd
  0
ENDSEC
  0
SECTION
  2
ENTITIES
  0
HATCH
  5
3F
330
1F
100
AcDbEntity
  8
Doc_ Finishes
  6
Continuous
100
AcDbHatch
 10
0.0
 20
0.0
 30
0.0
210
0.0
220
0.0
230
1.0
  2
SOLID
 70
     1
 71
     0
 91
        1
 92
        3
 72
     0
 73
     1
 93
       54
 10
25.4117749414874
 20
16.87044408857867
 10
24.89356552397386
 20
16.5825499677378
 10
24.5480925789648
 20
16.29465584689693
 10
24.12584786839818
 20
16.02595466744544
 10
23.76118198199976
 20
15.60370995687884
 10
23.39651609560134
 20
15.33500877742737
 10
23.07023609198168
 20
14.89357112547136
 10
22.49444785029994
 20
14.45213347351537
 10
21.93785255000758
 20
14.02988876294876
 10
21.43883607388343
 20
13.81876640766546
 10
20.74789018386533
 20
13.39652169709885
 10
20.09533017662603
 20
12.99346992792163
 10
19.63469958328064
 20
12.55203227596564
 10
18.90536781048376
 20
12.12978756539902
 10
18.59828074825351
 20
11.7459287376112
 10
18.04168544796116
 20
11.28529814426581
 10
17.36993249933246
 20
10.8630534336992
 10
16.73656543348255
 20
10.42161578174319
 10
16.04561954346446
 20
10.15291460229172
 10
15.1051654153843
 20
9.692284008946325
 10
14.39502658397681
 20
9.020531060317637
 10
13.83843128368446
 20
8.598286349751023
 10
13.12829245227699
 20
8.137655756405634
 10
12.84039833143612
 20
7.98411222529051
 10
12.37976773809073
 20
7.81137575278599
 10
12.07268067586046
 20
7.523481631945121
 10
12.0151018516923
 20
7.216394569714853
 10
12.14945244141803
 20
6.890114566095209
 10
12.4373465622589
 20
6.563834562475543
 10
12.8787842142149
 20
6.659799269422514
 10
13.51215128006482
 20
7.06285103859973
 10
14.01116775618899
 20
7.389131042219374
 10
14.33744775980864
 20
7.696218104449641
 10
14.51018423231316
 20
7.907340459732938
 10
15.01303929671522
 20
8.421711288968723
 10
15.33548071205699
 20
8.652026585641417
 10
15.75004824606785
 20
8.99749953065046
 10
16.14158425041142
 20
9.204783297655894
 10
17.24709767444037
 20
9.75754000967037
 10
18.23745345013295
 20
10.47151742935572
 10
19.4120614631637
 20
11.1624633193738
 10
19.84966052684182
 20
11.64612544238645
 10
20.49454335752537
 20
12.06069297639732
 10
21.78430901889248
 20
12.9819541630881
 10
22.36009726057419
 20
13.25833251909534
 10
23.6498629219413
 20
14.24868829478776
 10
23.85714668894673
 20
14.64022429913134
 10
24.68628175696843
 20
15.23904407048036
 10
25.28510152831745
 20
15.72270619349301
 10
25.81482671066464
 20
16.1142421978366
 10
26.27545730401003
 20
16.52880973184745
 10
26.22939424467549
 20
16.7821565581874
 10
26.09120506667188
 20
16.89731420652375
 10
25.56147988432467
 20
16.89731420652375
 97
        0
 75
     0
 76
     1
 98
        0
  0
LINE
  5
41
330
1F
100
AcDbEntity
  8
Doc_ Finishes
  6
Continuous
100
AcDbLine
 10
25.41177616050354
 20
16.87044600708104
 30
0.0
 11
24.89356363099921
 21
16.58254868214004
 31
0.0
  0
LINE
  5
42
330
1F
100
AcDbEntity
  8
Doc_ Finishes
  6
Continuous
100
AcDbLine
 10
24.89356363099921
 20
16.58254868214004
 30
0.0
 11
24.54809303697876
 21
16.29465578284815
 31
0.0
  0
LINE
  5
43
330
1F
100
AcDbEntity
  8
Doc_ Finishes
  6
Continuous
100
AcDbLine
 10
24.54809303697876
 20
16.29465578284815
 30
0.0
 11
24.12584628245476
 21
16.02595249803305
 31
0.0
  0
LINE
  5
44
330
1F
100
AcDbEntity
  8
Doc_ Finishes
  6
Continuous
100
AcDbLine
 10
24.12584628245476
 20
16.02595249803305
 30
0.0
 11
23.76118164830842
 21
15.60371016915814
 31
0.0
  0
LINE
  5
45
330
1F
100
AcDbEntity
  8
Doc_ Finishes
  6
Continuous
100
AcDbLine
 10
23.76118164830842
 20
15.60371016915814
 30
0.0
 11
23.39651701416208
 21
15.33500688434304
 31
0.0
  0
LINE
  5
46
330
1F
100
AcDbEntity
  8
Doc_ Finishes
  6
Continuous
100
AcDbLine
 10
23.39651701416208
 20
15.33500688434304
 30
0.0
 11
23.07023603461841
 21
14.89357051534225
 31
0.0
  0
LINE
  5
47
330
1F
100
AcDbEntity
  8
Doc_ Finishes
  6
Continuous
100
AcDbLine
 10
23.07023603461841
 20
14.89357051534225
 30
0.0
 11
22.49444581038552
 21
14.45213414634146
 31
0.0
  0
LINE
  5
48
330
1F
100
AcDbEntity
  8
Doc_ Finishes
  6
Continuous
100
AcDbLine
 10
22.49444581038552
 20
14.45213414634146
 30
0.0
 11
21.93785405192762
 21
14.02988739181747
 31
0.0
  0
LINE
  5
49
330
1F
100
AcDbEntity
  8
Doc_ Finishes
  6
Continuous
100
AcDbLine
 10
21.93785405192762
 20
14.02988739181747
 30
0.0
 11
21.43883556254917
 21
13.81876622738001
 31
0.0
  0
LINE
  5
4A
330
1F
100
AcDbEntity
  8
Doc_ Finishes
  6
Continuous
100
AcDbLine
 10
21.43883556254917
 20
13.81876622738001
 30
0.0
 11
20.74788994885916
 21
13.39652389850511
 31
0.0
  0
LINE
  5
4B
330
1F
100
AcDbEntity
  8
Doc_ Finishes
  6
Continuous
100
AcDbLine
 10
20.74788994885916
 20
13.39652389850511
 30
0.0
 11
20.09532798977183
 21
12.993471184107
 31
0.0
  0
LINE
  5
4C
330
1F
100
AcDbEntity
  8
Doc_ Finishes
  6
Continuous
100
AcDbLine
 10
20.09532798977183
 20
12.993471184107
 30
0.0
 11
19.63469758064516
 21
12.55203038945712
 31
0.0
  0
LINE
  5
4D
330
1F
100
AcDbEntity
  8
Doc_ Finishes
  6
Continuous
100
AcDbLine
 10
19.63469758064516
 20
12.55203038945712
 30
0.0
 11
18.90536831235248
 21
12.12978806058222
 31
0.0
  0
LINE
  5
4E
330
1F
100
AcDbEntity
  8
Doc_ Finishes
  6
Continuous
100
AcDbLine
 10
18.90536831235248
 20
12.12978806058222
 30
0.0
 11
18.5982813729347
 21
11.74592938630999
 31
0.0
  0
LINE
  5
4F
330
1F
100
AcDbEntity
  8
Doc_ Finishes
  6
Continuous
100
AcDbLine
 10
18.5982813729347
 20
11.74592938630999
 30
0.0
 11
18.0416851888277
 21
11.28529897718332
 31
0.0
  0
LINE
  5
50
330
1F
100
AcDbEntity
  8
Doc_ Finishes
  6
Continuous
100
AcDbLine
 10
18.0416851888277
 20
11.28529897718332
 30
0.0
 11
17.36993361526357
 21
10.86305222265932
 31
0.0
  0
LINE
  5
51
330
1F
100
AcDbEntity
  8
Doc_ Finishes
  6
Continuous
100
AcDbLine
 10
17.36993361526357
 20
10.86305222265932
 30
0.0
 11
16.73656569630212
 21
10.42161585365854
 31
0.0
  0
LINE
  5
52
330
1F
100
AcDbEntity
  8
Doc_ Finishes
  6
Continuous
100
AcDbLine
 10
16.73656569630212
 20
10.42161585365854
 30
0.0
 11
16.04562008261211
 21
10.15291256884343
 31
0.0
  0
LINE
  5
53
330
1F
100
AcDbEntity
  8
Doc_ Finishes
  6
Continuous
100
AcDbLine
 10
16.04562008261211
 20
10.15291256884343
 30
0.0
 11
15.10516522423289
 21
9.692282159716758
 31
0.0
  0
LINE
  5
54
330
1F
100
AcDbEntity
  8
Doc_ Finishes
  6
Continuous
100
AcDbLine
 10
15.10516522423289
 20
9.692282159716758
 30
0.0
 11
14.39502557041699
 21
9.020530586152635
 31
0.0
  0
LINE
  5
55
330
1F
100
AcDbEntity
  8
Doc_ Finishes
  6
Continuous
100
AcDbLine
 10
14.39502557041699
 20
9.020530586152635
 30
0.0
 11
13.83842938630999
 21
8.598288257277733
 31
0.0
  0
LINE
  5
56
330
1F
100
AcDbEntity
  8
Doc_ Finishes
  6
Continuous
100
AcDbLine
 10
13.83842938630999
 20
8.598288257277733
 30
0.0
 11
13.12829415814319
 21
8.137657848151063
 31
0.0
  0
LINE
  5
57
330
1F
100
AcDbEntity
  8
Doc_ Finishes
  6
Continuous
100
AcDbLine
 10
13.12829415814319
 20
8.137657848151063
 30
0.0
 11
12.8403968332022
 21
7.984114378442171
 31
0.0
  0
LINE
  5
58
330
1F
100
AcDbEntity
  8
Doc_ Finishes
  6
Continuous
100
AcDbLine
 10
12.8403968332022
 20
7.984114378442171
 30
0.0
 11
12.37976642407553
 21
7.811376868607396
 31
0.0
  0
LINE
  5
59
330
1F
100
AcDbEntity
  8
Doc_ Finishes
  6
Continuous
100
AcDbLine
 10
12.37976642407553
 20
7.811376868607396
 30
0.0
 11
12.07267948465775
 21
7.523479543666405
 31
0.0
  0
LINE
  5
5A
330
1F
100
AcDbEntity
  8
Doc_ Finishes
  6
Continuous
100
AcDbLine
 10
12.07267948465775
 20
7.523479543666405
 30
0.0
 11
12.01510178992919
 21
7.216392604248622
 31
0.0
  0
LINE
  5
5B
330
1F
100
AcDbEntity
  8
Doc_ Finishes
  6
Continuous
100
AcDbLine
 10
12.01510178992919
 20
7.216392604248622
 30
0.0
 11
12.1494512195122
 21
6.890116050354051
 31
0.0
  0
LINE
  5
5C
330
1F
100
AcDbEntity
  8
Doc_ Finishes
  6
Continuous
100
AcDbLine
 10
12.1494512195122
 20
6.890116050354051
 30
0.0
 11
12.43734854445319
 21
6.563835070810386
 31
0.0
  0
LINE
  5
5D
330
1F
100
AcDbEntity
  8
Doc_ Finishes
  6
Continuous
100
AcDbLine
 10
12.43734854445319
 20
6.563835070810386
 30
0.0
 11
12.87878491345397
 21
6.659800845790715
 31
0.0
  0
LINE
  5
5E
330
1F
100
AcDbEntity
  8
Doc_ Finishes
  6
Continuous
100
AcDbLine
 10
12.87878491345397
 20
6.659800845790715
 30
0.0
 11
13.51215283241542
 21
7.062849134539732
 31
0.0
  0
LINE
  5
5F
330
1F
100
AcDbEntity
  8
Doc_ Finishes
  6
Continuous
100
AcDbLine
 10
13.51215283241542
 20
7.062849134539732
 30
0.0
 11
14.01116689614477
 21
7.389130114083398
 31
0.0
  0
LINE
  5
60
330
1F
100
AcDbEntity
  8
Doc_ Finishes
  6
Continuous
100
AcDbLine
 10
14.01116689614477
 20
7.389130114083398
 30
0.0
 11
14.33744787568843
 21
7.69621705350118
 31
0.0
  0
LINE
  5
61
330
1F
100
AcDbEntity
  8
Doc_ Finishes
  6
Continuous
100
AcDbLine
 10
14.33744787568843
 20
7.69621705350118
 30
0.0
 11
14.51018538552321
 21
7.907342643587726
 31
0.0
  0
LINE
  5
62
330
1F
100
AcDbEntity
  8
Doc_ Finishes
  6
Continuous
100
AcDbLine
 10
14.51018538552321
 20
7.907342643587726
 30
0.0
 11
15.01304091266719
 21
8.421709284028323
 31
0.0
  0
LINE
  5
63
330
1F
100
AcDbEntity
  8
Doc_ Finishes
  6
Continuous
100
AcDbLine
 10
15.01304091266719
 20
8.421709284028323
 30
0.0
 11
15.33548042879622
 21
8.65202448859166
 31
0.0
  0
LINE
  5
64
330
1F
100
AcDbEntity
  8
Doc_ Finishes
  6
Continuous
100
AcDbLine
 10
15.33548042879622
 20
8.65202448859166
 30
0.0
 11
15.75004868214005
 21
8.997499508261212
 31
0.0
  0
LINE
  5
65
330
1F
100
AcDbEntity
  8
Doc_ Finishes
  6
Continuous
100
AcDbLine
 10
15.75004868214005
 20
8.997499508261212
 30
0.0
 11
16.14158585759245
 21
9.204783634933122
 31
0.0
  0
LINE
  5
66
330
1F
100
AcDbEntity
  8
Doc_ Finishes
  6
Continuous
100
AcDbLine
 10
16.14158585759245
 20
9.204783634933122
 30
0.0
 11
17.24709972462628
 21
9.75753835562549
 31
0.0
  0
LINE
  5
67
330
1F
100
AcDbEntity
  8
Doc_ Finishes
  6
Continuous
100
AcDbLine
 10
17.24709972462628
 20
9.75753835562549
 30
0.0
 11
18.2374537765539
 21
10.47151947285602
 31
0.0
  0
LINE
  5
68
330
1F
100
AcDbEntity
  8
Doc_ Finishes
  6
Continuous
100
AcDbLine
 10
18.2374537765539
 20
10.47151947285602
 30
0.0
 11
19.41206087726199
 21
11.16246508654602
 31
0.0
  0
LINE
  5
69
330
1F
100
AcDbEntity
  8
Doc_ Finishes
  6
Continuous
100
AcDbLine
 10
19.41206087726199
 20
11.16246508654602
 30
0.0
 11
19.84966020849724
 21
11.64612657356412
 31
0.0
  0
LINE
  5
6A
330
1F
100
AcDbEntity
  8
Doc_ Finishes
  6
Continuous
100
AcDbLine
 10
19.84966020849724
 20
11.64612657356412
 30
0.0
 11
20.4945436664044
 21
12.06069482690795
 31
0.0
  0
LINE
  5
6B
330
1F
100
AcDbEntity
  8
Doc_ Finishes
  6
Continuous
100
AcDbLine
 10
20.4945436664044
 20
12.06069482690795
 30
0.0
 11
21.78431058221873
 21
12.98195564516129
 31
0.0
  0
LINE
  5
6C
330
1F
100
AcDbEntity
  8
Doc_ Finishes
  6
Continuous
100
AcDbLine
 10
21.78431058221873
 20
12.98195564516129
 30
0.0
 11
22.36009638080252
 21
13.25833300550747
 31
0.0
  0
LINE
  5
6D
330
1F
100
AcDbEntity
  8
Doc_ Finishes
  6
Continuous
100
AcDbLine
 10
22.36009638080252
 20
13.25833300550747
 30
0.0
 11
23.64986329661684
 21
14.24868705743509
 31
0.0
  0
LINE
  5
6E
330
1F
100
AcDbEntity
  8
Doc_ Finishes
  6
Continuous
100
AcDbLine
 10
23.64986329661684
 20
14.24868705743509
 30
0.0
 11
23.85714742328875
 21
14.64022423288749
 31
0.0
  0
LINE
  5
6F
330
1F
100
AcDbEntity
  8
Doc_ Finishes
  6
Continuous
100
AcDbLine
 10
23.85714742328875
 20
14.64022423288749
 30
0.0
 11
24.68628392997639
 21
15.2390455350118
 31
0.0
  0
LINE
  5
70
330
1F
100
AcDbEntity
  8
Doc_ Finishes
  6
Continuous
100
AcDbLine
 10
24.68628392997639
 20
15.2390455350118
 30
0.0
 11
25.28510080645161
 21
15.7227070220299
 31
0.0
  0
LINE
  5
71
330
1F
100
AcDbEntity
  8
Doc_ Finishes
  6
Continuous
100
AcDbLine
 10
25.28510080645161
 20
15.7227070220299
 30
0.0
 11
25.81482887490165
 21
16.1142441974823
 31
0.0
  0
LINE
  5
72
330
1F
100
AcDbEntity
  8
Doc_ Finishes
  6
Continuous
100
AcDbLine
 10
25.81482887490165
 20
16.1142441974823
 30
0.0
 11
26.27545928402832
 21
16.52880802517702
 31
0.0
  0
LINE
  5
73
330
1F
100
AcDbEntity
  8
Doc_ Finishes
  6
Continuous
100
AcDbLine
 10
26.27545928402832
 20
16.52880802517702
 30
0.0
 11
26.22939270259638
 21
16.78215873328088
 31
0.0
  0
LINE
  5
74
330
1F
100
AcDbEntity
  8
Doc_ Finishes
  6
Continuous
100
AcDbLine
 10
26.22939270259638
 20
16.78215873328088
 30
0.0
 11
26.09120623524784
 21
16.897314122738
 31
0.0
  0
LINE
  5
75
330
1F
100
AcDbEntity
  8
Doc_ Finishes
  6
Continuous
100
AcDbLine
 10
26.09120623524784
 20
16.897314122738
 30
0.0
 11
25.56147816679779
 21
16.897314122738
 31
0.0
  0
LINE
  5
76
330
1F
100
AcDbEntity
  8
Doc_ Finishes
  6
Continuous
100
AcDbLine
 10
25.56147816679779
 20
16.897314122738
 30
0.0
 11
25.41177616050354
 21
16.87044600708104
 31
0.0
  0
HATCH
  5
77
330
1F
100
AcDbEntity
  8
Doc_ Finishes
  6
Continuous
100
AcDbHatch
 10
0.0
 20
0.0
 30
0.0
210
0.0
220
0.0
230
1.0
  2
SOLID
 70
     1
 71
     0
 91
        1
 92
        3
 72
     0
 73
     1
 93
       39
 10
25.65360600299377
 20
13.12014334109181
 10
25.21600693931564
 20
12.77467039608275
 10
24.54809257896482
 20
12.24494521373555
 10
23.92624127794851
 20
11.85340920939199
 10
23.32742150659951
 20
11.32368402704478
 10
22.72860173525051
 20
11.04730567103754
 10
22.08371890456697
 20
10.56364354802488
 10
21.62308831122158
 20
10.33332825135219
 10
21.231552306878
 20
10.03391836567767
 10
20.81698477286715
 20
9.619350831666825
 10
20.4024172388563
 20
9.38903553499415
 10
19.91875511584363
 20
9.043562589985086
 10
19.66540828950367
 20
8.859310352646935
 10
19.25084075549282
 20
8.582931996639696
 10
18.09926427212933
 20
7.753796928618002
 10
17.75379132712029
 20
7.477418572610764
 10
17.2931607337749
 20
7.316197864939873
 10
17.22406614477309
 20
6.993756449598113
 10
17.3622553227767
 20
6.717378093590874
 10
17.63863367878394
 20
6.602220445254527
 10
18.00713815346025
 20
6.8325357419272
 10
18.26048497980021
 20
7.131945627601722
 10
18.55989486547472
 20
7.362260924274415
 10
19.31993534449462
 20
7.707733869283458
 10
19.84966052684182
 20
8.122301403294307
 10
20.88607936186895
 20
8.882341882314256
 10
21.20852077721072
 20
9.342972475659646
 10
22.01462431556515
 20
9.734508480003234
 10
22.5673810275796
 20
10.05694989534501
 10
23.46561068460312
 20
10.60970660735953
 10
23.88017821861399
 20
11.07033720070492
 10
24.31777728229212
 20
11.34671555671216
 10
24.70931328663568
 20
11.30065249737762
 10
25.21600693931562
 20
11.55399932371759
 10
26.0681735370046
 20
12.17585062473387
 10
26.41364648201364
 20
12.49829204007566
 10
26.39061495234636
 20
12.77467039608289
 10
26.22939424467547
 20
13.00498569275559
 10
26.04514200733731
 20
13.05104875209013
 97
        0
 75
     0
 76
     1
 98
        0
  0
LINE
  5
78
330
1F
100
AcDbEntity
  8
Doc_ Finishes
  6
Continuous
100
AcDbLine
 10
25.65360690401259
 20
13.12014211250983
 30
0.0
 11
25.21600757277734
 21
12.77467151848938
 31
0.0
  0
LINE
  5
79
330
1F
100
AcDbEntity
  8
Doc_ Finishes
  6
Continuous
100
AcDbLine
 10
25.21600757277734
 20
12.77467151848938
 30
0.0
 11
24.54809303697876
 21
12.24494345003934
 31
0.0
  0
LINE
  5
7A
330
1F
100
AcDbEntity
  8
Doc_ Finishes
  6
Continuous
100
AcDbLine
 10
24.54809303697876
 20
12.24494345003934
 30
0.0
 11
23.92624065696302
 21
11.85341070023603
 31
0.0
  0
LINE
  5
7B
330
1F
100
AcDbEntity
  8
Doc_ Finishes
  6
Continuous
100
AcDbLine
 10
23.92624065696302
 20
11.85341070023603
 30
0.0
 11
23.32741935483871
 21
11.32368263178599
 31
0.0
  0
LINE
  5
7C
330
1F
100
AcDbEntity
  8
Doc_ Finishes
  6
Continuous
100
AcDbLine
 10
23.32741935483871
 20
11.32368263178599
 30
0.0
 11
22.72860247836349
 21
11.04730527143981
 31
0.0
  0
LINE
  5
7D
330
1F
100
AcDbEntity
  8
Doc_ Finishes
  6
Continuous
100
AcDbLine
 10
22.72860247836349
 20
11.04730527143981
 30
0.0
 11
22.08371902045633
 21
10.56364378442171
 31
0.0
  0
LINE
  5
7E
330
1F
100
AcDbEntity
  8
Doc_ Finishes
  6
Continuous
100
AcDbLine
 10
22.08371902045633
 20
10.56364378442171
 30
0.0
 11
21.62308861132966
 21
10.33332857985838
 31
0.0
  0
LINE
  5
7F
330
1F
100
AcDbEntity
  8
Doc_ Finishes
  6
Continuous
100
AcDbLine
 10
21.62308861132966
 20
10.33332857985838
 30
0.0
 11
21.23155143587726
 21
10.03392014162077
 31
0.0
  0
LINE
  5
80
330
1F
100
AcDbEntity
  8
Doc_ Finishes
  6
Continuous
100
AcDbLine
 10
21.23155143587726
 20
10.03392014162077
 30
0.0
 11
20.81698318253344
 21
9.619351888276947
 31
0.0
  0
LINE
  5
81
330
1F
100
AcDbEntity
  8
Doc_ Finishes
  6
Continuous
100
AcDbLine
 10
20.81698318253344
 20
9.619351888276947
 30
0.0
 11
20.40241935483871
 21
9.389036683713611
 31
0.0
  0
LINE
  5
82
330
1F
100
AcDbEntity
  8
Doc_ Finishes
  6
Continuous
100
AcDbLine
 10
20.40241935483871
 20
9.389036683713611
 30
0.0
 11
19.91875344217151
 21
9.04356166404406
 31
0.0
  0
LINE
  5
83
330
1F
100
AcDbEntity
  8
Doc_ Finishes
  6
Continuous
100
AcDbLine
 10
19.91875344217151
 20
9.04356166404406
 30
0.0
 11
19.66540715971676
 21
8.859308615263572
 31
0.0
  0
LINE
  5
84
330
1F
100
AcDbEntity
  8
Doc_ Finishes
  6
Continuous
100
AcDbLine
 10
19.66540715971676
 20
8.859308615263572
 30
0.0
 11
19.25083890637293
 21
8.582931254917387
 31
0.0
  0
LINE
  5
85
330
1F
100
AcDbEntity
  8
Doc_ Finishes
  6
Continuous
100
AcDbLine
 10
19.25083890637293
 20
8.582931254917387
 30
0.0
 11
18.09926288355625
 21
7.75379474822974
 31
0.0
  0
LINE
  5
86
330
1F
100
AcDbEntity
  8
Doc_ Finishes
  6
Continuous
100
AcDbLine
 10
18.09926288355625
 20
7.75379474822974
 30
0.0
 11
17.7537922895358
 21
7.477417387883556
 31
0.0
  0
LINE
  5
87
330
1F
100
AcDbEntity
  8
Doc_ Finishes
  6
Continuous
100
AcDbLine
 10
17.7537922895358
 20
7.477417387883556
 30
0.0
 11
17.29316188040913
 21
7.316199842643588
 31
0.0
  0
LINE
  5
88
330
1F
100
AcDbEntity
  8
Doc_ Finishes
  6
Continuous
100
AcDbLine
 10
17.29316188040913
 20
7.316199842643588
 30
0.0
 11
17.22406422108576
 21
6.993755900865461
 31
0.0
  0
LINE
  5
89
330
1F
100
AcDbEntity
  8
Doc_ Finishes
  6
Continuous
100
AcDbLine
 10
17.22406422108576
 20
6.993755900865461
 30
0.0
 11
17.3622551140834
 21
6.717378540519276
 31
0.0
  0
LINE
  5
8A
330
1F
100
AcDbEntity
  8
Doc_ Finishes
  6
Continuous
100
AcDbLine
 10
17.3622551140834
 20
6.717378540519276
 30
0.0
 11
17.63863247442958
 21
6.602218725413059
 31
0.0
  0
LINE
  5
8B
330
1F
100
AcDbEntity
  8
Doc_ Finishes
  6
Continuous
100
AcDbLine
 10
17.63863247442958
 20
6.602218725413059
 30
0.0
 11
18.00713857199056
 21
6.832533929976396
 31
0.0
  0
LINE
  5
8C
330
1F
100
AcDbEntity
  8
Doc_ Finishes
  6
Continuous
100
AcDbLine
 10
18.00713857199056
 20
6.832533929976396
 30
0.0
 11
18.26048485444532
 21
7.1319467938631
 31
0.0
  0
LINE
  5
8D
330
1F
100
AcDbEntity
  8
Doc_ Finishes
  6
Continuous
100
AcDbLine
 10
18.26048485444532
 20
7.1319467938631
 30
0.0
 11
18.55989329268293
 21
7.362261998426435
 31
0.0
  0
LINE
  5
8E
330
1F
100
AcDbEntity
  8
Doc_ Finishes
  6
Continuous
100
AcDbLine
 10
18.55989329268293
 20
7.362261998426435
 30
0.0
 11
19.3199365656963
 21
7.707732592446892
 31
0.0
  0
LINE
  5
8F
330
1F
100
AcDbEntity
  8
Doc_ Finishes
  6
Continuous
100
AcDbLine
 10
19.3199365656963
 20
7.707732592446892
 30
0.0
 11
19.84966020849724
 21
8.122300845790717
 31
0.0
  0
LINE
  5
90
330
1F
100
AcDbEntity
  8
Doc_ Finishes
  6
Continuous
100
AcDbLine
 10
19.84966020849724
 20
8.122300845790717
 30
0.0
 11
20.8860808418568
 21
8.882339693154996
 31
0.0
  0
LINE
  5
91
330
1F
100
AcDbEntity
  8
Doc_ Finishes
  6
Continuous
100
AcDbLine
 10
20.8860808418568
 20
8.882339693154996
 30
0.0
 11
21.20852035798584
 21
9.342974527930762
 31
0.0
  0
LINE
  5
92
330
1F
100
AcDbEntity
  8
Doc_ Finishes
  6
Continuous
100
AcDbLine
 10
21.20852035798584
 20
9.342974527930762
 30
0.0
 11
22.01462578678206
 21
9.734507277734066
 31
0.0
  0
LINE
  5
93
330
1F
100
AcDbEntity
  8
Doc_ Finishes
  6
Continuous
100
AcDbLine
 10
22.01462578678206
 20
9.734507277734066
 30
0.0
 11
22.56738050747443
 21
10.05695121951219
 31
0.0
  0
LINE
  5
94
330
1F
100
AcDbEntity
  8
Doc_ Finishes
  6
Continuous
100
AcDbLine
 10
22.56738050747443
 20
10.05695121951219
 30
0.0
 11
23.46561024783635
 21
10.60970594020456
 31
0.0
  0
LINE
  5
95
330
1F
100
AcDbEntity
  8
Doc_ Finishes
  6
Continuous
100
AcDbLine
 10
23.46561024783635
 20
10.60970594020456
 30
0.0
 11
23.88017850118017
 21
11.07033634933124
 31
0.0
  0
LINE
  5
96
330
1F
100
AcDbEntity
  8
Doc_ Finishes
  6
Continuous
100
AcDbLine
 10
23.88017850118017
 20
11.07033634933124
 30
0.0
 11
24.31777783241542
 21
11.34671370967742
 31
0.0
  0
LINE
  5
97
330
1F
100
AcDbEntity
  8
Doc_ Finishes
  6
Continuous
100
AcDbLine
 10
24.31777783241542
 20
11.34671370967742
 30
0.0
 11
24.70931500786781
 21
11.30065155389457
 31
0.0
  0
LINE
  5
98
330
1F
100
AcDbEntity
  8
Doc_ Finishes
  6
Continuous
100
AcDbLine
 10
24.70931500786781
 20
11.30065155389457
 30
0.0
 11
25.21600757277734
 21
11.55399783634933
 31
0.0
  0
LINE
  5
99
330
1F
100
AcDbEntity
  8
Doc_ Finishes
  6
Continuous
100
AcDbLine
 10
25.21600757277734
 20
11.55399783634933
 30
0.0
 11
26.06817515735641
 21
12.17585021636507
 31
0.0
  0
LINE
  5
9A
330
1F
100
AcDbEntity
  8
Doc_ Finishes
  6
Continuous
100
AcDbLine
 10
26.06817515735641
 20
12.17585021636507
 30
0.0
 11
26.41364575137687
 21
12.49829415814319
 31
0.0
  0
LINE
  5
9B
330
1F
100
AcDbEntity
  8
Doc_ Finishes
  6
Continuous
100
AcDbLine
 10
26.41364575137687
 20
12.49829415814319
 30
0.0
 11
26.39061467348544
 21
12.77467151848938
 31
0.0
  0
LINE
  5
9C
330
1F
100
AcDbEntity
  8
Doc_ Finishes
  6
Continuous
100
AcDbLine
 10
26.39061467348544
 20
12.77467151848938
 30
0.0
 11
26.22939270259638
 21
13.00498672305271
 31
0.0
  0
LINE
  5
9D
330
1F
100
AcDbEntity
  8
Doc_ Finishes
  6
Continuous
100
AcDbLine
 10
26.22939270259638
 20
13.00498672305271
 30
0.0
 11
26.04514407946499
 21
13.05104887883556
 31
0.0
  0
LINE
  5
9E
330
1F
100
AcDbEntity
  8
Doc_ Finishes
  6
Continuous
100
AcDbLine
 10
26.04514407946499
 20
13.05104887883556
 30
0.0
 11
25.65360690401259
 21
13.12014211250983
 31
0.0
  0
HATCH
  5
9F
330
1F
100
AcDbEntity
  8
Doc_ Finishes
  6
Continuous
100
AcDbHatch
 10
0.0
 20
0.0
 30
0.0
210
0.0
220
0.0
230
1.0
  2
SOLID
 70
     1
 71
     0
 91
        1
 92
        3
 72
     0
 73
     1
 93
       47
 10
26.06817353700455
 20
15.74573772316067
 10
26.30309513961077
 20
15.62136746295728
 10
26.4412843176144
 20
15.4002647781515
 10
26.93876535842742
 20
15.17916209334572
 10
27.82317609765057
 20
14.40530269652538
 10
28.9286895216795
 20
13.74199464210799
 10
29.59199757609689
 20
13.3827027792986
 10
30.20002995931278
 20
13.07868658769064
 10
31.55428390374827
 20
12.08372450606458
 10
32.07940278016201
 20
11.69679480765445
 10
32.88090001258301
 20
11.08876242443854
 10
33.59948373820179
 20
10.50836787682334
 10
34.5668079842271
 20
9.817421986805197
 10
35.06428902504011
 20
9.458130123995785
 10
35.81051058625965
 20
8.933011247582023
 10
36.61200781868061
 20
8.407892371168286
 10
36.77783483228498
 20
8.186789686362482
 10
37.38586721550091
 20
7.744584316750918
 10
38.18736444792187
 20
6.915449248729224
 10
38.7953968311378
 20
6.44560604351692
 10
39.56925622795804
 20
6.169227687509681
 10
40.23256428237543
 20
6.086314180707507
 10
40.48130480278193
 20
6.30741686551329
 10
40.14965077557326
 20
6.611433057121246
 10
39.48634272115586
 20
6.998362755531397
 10
38.76775899553708
 20
7.357654618340788
 10
38.18736444792187
 20
8.048600508358874
 10
36.99893751709078
 20
8.822459905179112
 10
36.47381864067705
 20
9.319940945992132
 10
36.22507812027052
 20
9.734508480003
 10
35.174840367443
 20
10.31490302761817
 10
34.73263499783144
 20
10.78474623283046
 10
34.2351539570184
 20
11.17167593124059
 10
33.48893239579888
 20
11.61388130085215
 10
32.85326217698223
 20
12.16663801286669
 10
32.35578113616918
 20
12.58120554687754
 10
31.69247308175183
 20
12.99577308088841
 10
31.22262987653952
 20
13.32742710809708
 10
30.7251488357265
 20
13.5761676285036
 10
29.93747052110587
 20
14.06443605744977
 10
29.43077686842594
 20
14.38687747279155
 10
28.92408321574601
 20
14.70931888813342
 10
28.62467333007151
 20
15.100854892477
 10
27.95675896972068
 20
15.67664313415887
 10
27.47309684670803
 20
15.9530214901661
 10
26.82821401602446
 20
16.36758902417695
 10
26.50577260068269
 20
16.22939984617334
 97
        0
 75
     0
 76
     1
 98
        0
  0
LINE
  5
A0
330
1F
100
AcDbEntity
  8
Doc_ Finishes
  6
Continuous
100
AcDbLine
 10
26.30309303697875
 20
15.62136850904799
 30
0.0
 11
26.06817515735641
 21
15.74573809992132
 31
0.0
  0
LINE
  5
A1
330
1F
100
AcDbEntity
  8
Doc_ Finishes
  6
Continuous
100
AcDbLine
 10
26.4412839299764
 20
15.40026308025177
 30
0.0
 11
26.30309303697875
 21
15.62136850904799
 31
0.0
  0
LINE
  5
A2
330
1F
100
AcDbEntity
  8
Doc_ Finishes
  6
Continuous
100
AcDbLine
 10
26.9387667191188
 20
15.17916207710464
 30
0.0
 11
26.4412839299764
 21
15.40026308025177
 31
0.0
  0
LINE
  5
A3
330
1F
100
AcDbEntity
  8
Doc_ Finishes
  6
Continuous
100
AcDbLine
 10
27.82317515735641
 20
14.40530192761605
 30
0.0
 11
26.9387667191188
 21
15.17916207710464
 31
0.0
  0
LINE
  5
A4
330
1F
100
AcDbEntity
  8
Doc_ Finishes
  6
Continuous
100
AcDbLine
 10
28.92868902439024
 20
13.74199449252557
 30
0.0
 11
27.82317515735641
 21
14.40530192761605
 31
0.0
  0
LINE
  5
A5
330
1F
100
AcDbEntity
  8
Doc_ Finishes
  6
Continuous
100
AcDbLine
 10
29.59199645948072
 20
13.3827025963808
 30
0.0
 11
28.92868902439024
 21
13.74199449252557
 31
0.0
  0
LINE
  5
A6
330
1F
100
AcDbEntity
  8
Doc_ Finishes
  6
Continuous
100
AcDbLine
 10
30.20003196302124
 20
13.07868705743509
 30
0.0
 11
29.59199645948072
 21
13.3827025963808
 31
0.0
  0
LINE
  5
A7
330
1F
100
AcDbEntity
  8
Doc_ Finishes
  6
Continuous
100
AcDbLine
 10
31.55428501180173
 20
12.08372590479937
 30
0.0
 11
30.20003196302124
 21
13.07868705743509
 31
0.0
  0
LINE
  5
A8
330
1F
100
AcDbEntity
  8
Doc_ Finishes
  6
Continuous
100
AcDbLine
 10
32.07940155389457
 20
11.69679583005508
 30
0.0
 11
31.55428501180173
 21
12.08372590479937
 31
0.0
  0
LINE
  5
A9
330
1F
100
AcDbEntity
  8
Doc_ Finishes
  6
Continuous
100
AcDbLine
 10
32.88089988198269
 20
11.08876032651456
 30
0.0
 11
32.07940155389457
 21
11.69679583005508
 31
0.0
  0
LINE
  5
AA
330
1F
100
AcDbEntity
  8
Doc_ Finishes
  6
Continuous
100
AcDbLine
 10
33.59948367427223
 20
10.50836742722266
 30
0.0
 11
32.88089988198269
 21
11.08876032651456
 31
0.0
  0
LINE
  5
AB
330
1F
100
AcDbEntity
  8
Doc_ Finishes
  6
Continuous
100
AcDbLine
 10
34.56680664830842
 20
9.817421813532652
 30
0.0
 11
33.59948367427223
 21
10.50836742722266
 31
0.0
  0
LINE
  5
AC
330
1F
100
AcDbEntity
  8
Doc_ Finishes
  6
Continuous
100
AcDbLine
 10
35.06428943745082
 20
9.458129917387884
 30
0.0
 11
34.56680664830842
 21
9.817421813532652
 31
0.0
  0
LINE
  5
AD
330
1F
100
AcDbEntity
  8
Doc_ Finishes
  6
Continuous
100
AcDbLine
 10
35.81051140833988
 20
8.933013375295044
 30
0.0
 11
35.06428943745082
 21
9.458129917387884
 31
0.0
  0
LINE
  5
AE
330
1F
100
AcDbEntity
  8
Doc_ Finishes
  6
Continuous
100
AcDbLine
 10
36.61200973642801
 20
8.407892407553108
 30
0.0
 11
35.81051140833988
 21
8.933013375295044
 31
0.0
  0
LINE
  5
AF
330
1F
100
AcDbEntity
  8
Doc_ Finishes
  6
Continuous
100
AcDbLine
 10
36.77783438237608
 20
8.18679140440598
 30
0.0
 11
36.61200973642801
 21
8.407892407553108
 31
0.0
  0
LINE
  5
B0
330
1F
100
AcDbEntity
  8
Doc_ Finishes
  6
Continuous
100
AcDbLine
 10
37.38586546026751
 20
7.744584972462627
 30
0.0
 11
36.77783438237608
 21
8.18679140440598
 31
0.0
  0
LINE
  5
B1
330
1F
100
AcDbEntity
  8
Doc_ Finishes
  6
Continuous
100
AcDbLine
 10
38.18736378835562
 20
6.915448465774981
 30
0.0
 11
37.38586546026751
 21
7.744584972462627
 31
0.0
  0
LINE
  5
B2
330
1F
100
AcDbEntity
  8
Doc_ Finishes
  6
Continuous
100
AcDbLine
 10
38.79539486624704
 20
6.4456038552321
 30
0.0
 11
38.18736378835562
 21
6.915448465774981
 31
0.0
  0
LINE
  5
B3
330
1F
100
AcDbEntity
  8
Doc_ Finishes
  6
Continuous
100
AcDbLine
 10
39.56925501573564
 20
6.169226494885916
 30
0.0
 11
38.79539486624704
 21
6.4456038552321
 31
0.0
  0
LINE
  5
B4
330
1F
100
AcDbEntity
  8
Doc_ Finishes
  6
Continuous
100
AcDbLine
 10
40.23256245082612
 20
6.086316384736428
 30
0.0
 11
39.56925501573564
 21
6.169226494885916
 31
0.0
  0
LINE
  5
B5
330
1F
100
AcDbEntity
  8
Doc_ Finishes
  6
Continuous
100
AcDbLine
 10
40.48130605822187
 20
6.307417387883556
 30
0.0
 11
40.23256245082612
 21
6.086316384736428
 31
0.0
  0
LINE
  5
B6
330
1F
100
AcDbEntity
  8
Doc_ Finishes
  6
Continuous
100
AcDbLine
 10
40.14965234067663
 20
6.611432926829268
 30
0.0
 11
40.48130605822187
 21
6.307417387883556
 31
0.0
  0
LINE
  5
B7
330
1F
100
AcDbEntity
  8
Doc_ Finishes
  6
Continuous
100
AcDbLine
 10
39.48634490558615
 20
6.998363001573564
 30
0.0
 11
40.14965234067663
 21
6.611432926829268
 31
0.0
  0
LINE
  5
B8
330
1F
100
AcDbEntity
  8
Doc_ Finishes
  6
Continuous
100
AcDbLine
 10
38.76776111329661
 20
7.357654897718332
 30
0.0
 11
39.48634490558615
 21
6.998363001573564
 31
0.0
  0
LINE
  5
B9
330
1F
100
AcDbEntity
  8
Doc_ Finishes
  6
Continuous
100
AcDbLine
 10
38.18736378835562
 20
8.048600511408338
 30
0.0
 11
38.76776111329661
 21
7.357654897718332
 31
0.0
  0
LINE
  5
BA
330
1F
100
AcDbEntity
  8
Doc_ Finishes
  6
Continuous
100
AcDbLine
 10
36.9989353855232
 20
8.822460660896931
 30
0.0
 11
38.18736378835562
 21
8.048600511408338
 31
0.0
  0
LINE
  5
BB
330
1F
100
AcDbEntity
  8
Doc_ Finishes
  6
Continuous
100
AcDbLine
 10
36.47381884343037
 20
9.319939024390242
 30
0.0
 11
36.9989353855232
 21
8.822460660896931
 31
0.0
  0
LINE
  5
BC
330
1F
100
AcDbEntity
  8
Doc_ Finishes
  6
Continuous
100
AcDbLine
 10
36.22507966168371
 20
9.734507277734066
 30
0.0
 11
36.47381884343037
 21
9.319939024390242
 31
0.0
  0
LINE
  5
BD
330
1F
100
AcDbEntity
  8
Doc_ Finishes
  6
Continuous
100
AcDbLine
 10
35.17484215184894
 20
10.31490460267506
 30
0.0
 11
36.22507966168371
 21
9.734507277734066
 31
0.0
  0
LINE
  5
BE
330
1F
100
AcDbEntity
  8
Doc_ Finishes
  6
Continuous
100
AcDbLine
 10
34.73263571990559
 20
10.78474478756884
 30
0.0
 11
35.17484215184894
 21
10.31490460267506
 31
0.0
  0
LINE
  5
BF
330
1F
100
AcDbEntity
  8
Doc_ Finishes
  6
Continuous
100
AcDbLine
 10
34.23515293076317
 20
11.17167486231314
 30
0.0
 11
34.73263571990559
 21
10.78474478756884
 31
0.0
  0
LINE
  5
C0
330
1F
100
AcDbEntity
  8
Doc_ Finishes
  6
Continuous
100
AcDbLine
 10
33.48893095987412
 20
11.61388129425649
 30
0.0
 11
34.23515293076317
 21
11.17167486231314
 31
0.0
  0
LINE
  5
C1
330
1F
100
AcDbEntity
  8
Doc_ Finishes
  6
Continuous
100
AcDbLine
 10
32.85326170338316
 20
12.16663601494886
 30
0.0
 11
33.48893095987412
 21
11.61388129425649
 31
0.0
  0
LINE
  5
C2
330
1F
100
AcDbEntity
  8
Doc_ Finishes
  6
Continuous
100
AcDbLine
 10
32.35578333988985
 20
12.58120426829268
 30
0.0
 11
32.85326170338316
 21
12.16663601494886
 31
0.0
  0
LINE
  5
C3
330
1F
100
AcDbEntity
  8
Doc_ Finishes
  6
Continuous
100
AcDbLine
 10
31.69247147915027
 20
12.99577252163651
 30
0.0
 11
32.35578333988985
 21
12.58120426829268
 31
0.0
  0
LINE
  5
C4
330
1F
100
AcDbEntity
  8
Doc_ Finishes
  6
Continuous
100
AcDbLine
 10
31.22263129425649
 20
13.32742623918175
 30
0.0
 11
31.69247147915027
 21
12.99577252163651
 31
0.0
  0
LINE
  5
C5
330
1F
100
AcDbEntity
  8
Doc_ Finishes
  6
Continuous
100
AcDbLine
 10
30.72514850511408
 20
13.5761654209284
 30
0.0
 11
31.22263129425649
 21
13.32742623918175
 31
0.0
  0
LINE
  5
C6
330
1F
100
AcDbEntity
  8
Doc_ Finishes
  6
Continuous
100
AcDbLine
 10
29.93747147915028
 20
14.0644340086546
 30
0.0
 11
30.72514850511408
 21
13.5761654209284
 31
0.0
  0
LINE
  5
C7
330
1F
100
AcDbEntity
  8
Doc_ Finishes
  6
Continuous
100
AcDbLine
 10
29.43077891424075
 20
14.38687795043273
 30
0.0
 11
29.93747147915028
 21
14.0644340086546
 31
0.0
  0
LINE
  5
C8
330
1F
100
AcDbEntity
  8
Doc_ Finishes
  6
Continuous
100
AcDbLine
 10
28.92408192368214
 20
14.70931746656176
 30
0.0
 11
29.43077891424075
 21
14.38687795043273
 31
0.0
  0
LINE
  5
C9
330
1F
100
AcDbEntity
  8
Doc_ Finishes
  6
Continuous
100
AcDbLine
 10
28.62467348544453
 20
15.10085464201416
 30
0.0
 11
28.92408192368214
 21
14.70931746656176
 31
0.0
  0
LINE
  5
CA
330
1F
100
AcDbEntity
  8
Doc_ Finishes
  6
Continuous
100
AcDbLine
 10
27.95675894964595
 20
15.67664486624705
 30
0.0
 11
28.62467348544453
 21
15.10085464201416
 31
0.0
  0
LINE
  5
CB
330
1F
100
AcDbEntity
  8
Doc_ Finishes
  6
Continuous
100
AcDbLine
 10
27.47309746262785
 20
15.95302222659323
 30
0.0
 11
27.95675894964595
 21
15.67664486624705
 31
0.0
  0
LINE
  5
CC
330
1F
100
AcDbEntity
  8
Doc_ Finishes
  6
Continuous
100
AcDbLine
 10
26.82821400472069
 20
16.36759047993706
 30
0.0
 11
27.47309746262785
 21
15.95302222659323
 31
0.0
  0
LINE
  5
CD
330
1F
100
AcDbEntity
  8
Doc_ Finishes
  6
Continuous
100
AcDbLine
 10
26.50577448859166
 20
16.22939958693942
 30
0.0
 11
26.82821400472069
 21
16.36759047993706
 31
0.0
  0
LINE
  5
CE
330
1F
100
AcDbEntity
  8
Doc_ Finishes
  6
Continuous
100
AcDbLine
 10
26.06817515735641
 20
15.74573809992132
 30
0.0
 11
26.50577448859166
 21
16.22939958693942
 31
0.0
  0
LINE
  5
CF
330
1F
100
AcDbEntity
  8
Doc_ Finishes
  6
Continuous
 62
   254
370
    18
100
AcDbLine
 10
95.43333841463415
 20
5.093360051140834
 30
0.0
 11
95.43333841463415
 21
20.69901750590086
 31
0.0
  0
LINE
  5
D0
330
1F
100
AcDbEntity
  8
Doc_ Finishes
  6
Continuous
 62
   254
370
    18
100
AcDbLine
 10
5.000000983477577
 20
20.69901750590086
 30
0.0
 11
288.2406845003933
 21
20.69901750590086
 31
0.0
  0
LINE
  5
D1
330
1F
100
AcDbEntity
  8
Doc_ Finishes
  6
Continuous
 62
   254
370
    18
100
AcDbLine
 10
288.2406845003933
 20
20.69901750590086
 30
0.0
 11
288.2406845003933
 21
5.000000983477577
 31
0.0
  0
LINE
  5
D2
330
1F
100
AcDbEntity
  8
Doc_ Finishes
  6
Continuous
 62
   254
370
    18
100
AcDbLine
 10
288.2406845003933
 20
5.000000983477577
 30
0.0
 11
5.000000983477577
 21
5.000000983477577
 31
0.0
  0
LINE
  5
D3
330
1F
100
AcDbEntity
  8
Doc_ Finishes
  6
Continuous
 62
   254
370
    18
100
AcDbLine
 10
5.000000983477577
 20
20.69901750590086
 30
0.0
 11
5.000000983477577
 21
5.000000983477577
 31
0.0
  0
LINE
  5
D4
330
1F
100
AcDbEntity
  8
Doc_ Finishes
  6
Continuous
 62
   254
370
    18
100
AcDbLine
 10
188.291944826908
 20
5.093360051140834
 30
0.0
 11
188.291944826908
 21
20.69901750590086
 31
0.0
  0
LINE
  5
D5
330
1F
100
AcDbEntity
  8
Doc_ Finishes
  6
Continuous
 62
   254
370
    18
100
AcDbLine
 10
188.291944826908
 20
12.8961909913454
 30
0.0
 11
288.2406845003933
 21
12.8961909913454
 31
0.0
  0
MTEXT
  5
D7
330
1F
100
AcDbEntity
  8
0
  6
Continuous
100
AcDbMText
 10
208.3494767103412
 20
15.00228834043999
 30
0.0
 40
2.25
 41
0.0
 71
     7
 72
     1
  1
{C-TRS9-08}
  7
GENERATED_STYLE_1
 73
     1
 44
1.0
  0
MTEXT
  5
D8
330
1F
100
AcDbEntity
  8
0
  6
Continuous
100
AcDbMText
 10
208.3494767103412
 20
11.03300550383743
 30
0.0
 40
3.0
 41
0.0
 71
     1
 72
     1
  1
{APRON DETAIL - SIDE - CHASED}
  7
GENERATED_STYLE_1
 73
     1
 44
1.0
  0
MTEXT
  5
DA
330
1F
100
AcDbEntity
  8
Doc_ Floor
  6
Continuous
100
AcDbMText
 10
27.78353726544612
 20
13.33283672870609
 30
0.0
 40
5.603347280334726
 41
0.0
 71
     1
 72
     1
  1
{The Roofing Store}
  7
GENERATED_STYLE_2
 73
     1
 44
1.0
  0
MTEXT
  5
DC
102
{ACAD_XDICTIONARY
360
375
102
}
330
1F
100
AcDbEntity
  8
0
  6
Continuous
100
AcDbMText
 10
100.7389238446655
 20
5.628836745729685
 30
0.0
 40
1.5
 41
0.0
 71
     7
 72
     1
  1
{P: HEAD OFFICE              09 277 2717\P    ALBANY             09 972 0060\P    KATIKAIT            07 549 5190\P    WELLINGTON              04 974 5792\P    CHRISTCHURCH03 348 6528}
  7
GENERATED_STYLE_1
 73
     1
 44
1.062946161486498
  0
MTEXT
  5
DD
330
1F
100
AcDbEntity
  8
0
  6
Continuous
100
AcDbMText
 10
147.4184566143587
 20
8.449084231526156
 30
0.0
 40
1.5
 41
0.0
 71
     7
 72
     1
  1
{WEB: www.theroofingstore.co.nz}
  7
GENERATED_STYLE_1
 73
     1
 44
1.0
  0
MTEXT
  5
DE
330
1F
100
AcDbEntity
  8
0
  6
Continuous
100
AcDbMText
 10
147.4184566143587
 20
5.870946023411262
 30
0.0
 40
1.5
 41
0.0
 71
     7
 72
     1
  1
{Copyright \U+00A9 The Roofing Store 2013}
  7
GENERATED_STYLE_1
 73
     1
 44
1.0
  0
MTEXT
  5
DF
330
1F
100
AcDbEntity
  8
0
  6
Continuous
100
AcDbMText
 10
271.9546684065315
 20
15.01595667428533
 30
0.0
 40
2.25
 41
0.0
 71
     7
 72
     1
  1
{1:5}
  7
GENERATED_STYLE_1
 73
     1
 44
1.0
  0
MTEXT
  5
E0
330
1F
100
AcDbEntity
  8
0
  6
Continuous
100
AcDbMText
 10
262.8396605309016
 20
15.51746459162148
 30
0.0
 40
1.5
 41
0.0
 71
     7
 72
     1
  1
{SCALE:}
  7
GENERATED_STYLE_1
 73
     1
 44
1.0
  0
MTEXT
  5
E1
330
1F
100
AcDbEntity
  8
0
  6
Continuous
100
AcDbMText
 10
189.5066235617487
 20
15.48695559872207
 30
0.0
 40
1.5
 41
0.0
 71
     7
 72
     1
  1
{DETAIL NUMBER:}
  7
GENERATED_STYLE_1
 73
     1
 44
1.0
  0
MTEXT
  5
E2
330
1F
100
AcDbEntity
  8
0
  6
Continuous
100
AcDbMText
 10
189.5066235617487
 20
9.005462392315325
 30
0.0
 40
1.5
 41
0.0
 71
     7
 72
     1
  1
{TITLE:}
  7
GENERATED_STYLE_1
 73
     1
 44
1.0
  0
INSERT
  5
343
102
{ACAD_XDICTIONARY
360
344
102
}
330
1F
100
AcDbEntity
  8
0
  6
Continuous
100
AcDbBlockReference
  2
Drawing_1_2
 10
-2107.144517011996
 20
304.3468474410897
 30
0.0
  0
ENDSEC
  0
SECTION
  2
OBJECTS
  0
DICTIONARY
  5
C
330
0
100
AcDbDictionary
281
     1
  3
ACAD_GROUP
350
D
  3
ACAD_LAYOUT
350
1A
  3
ACAD_MATERIAL
350
3B
  3
ACAD_MLEADERSTYLE
350
370
  3
ACAD_MLINESTYLE
350
17
  3
ACAD_PLOTSETTINGS
350
19
  3
ACAD_PLOTSTYLENAME
350
E
  3
ACAD_SCALELIST
350
34A
  3
ACAD_VISUALSTYLE
350
2A
  3
AcDbVariableDictionary
350
36E
  3
WATERMARKS
350
36C
  0
DICTIONARY
  5
375
330
DC
100
AcDbDictionary
280
     1
281
     1
  3
ACAD_MTEXT_RT
360
376
  0
DICTIONARY
  5
344
330
343
100
AcDbDictionary
280
     1
281
     1
  3
ACAD_FILTER
360
345
  0
DICTIONARY
  5
D
102
{ACAD_REACTORS
330
C
102
}
330
C
100
AcDbDictionary
281
     1
  0
DICTIONARY
  5
1A
102
{ACAD_REACTORS
330
C
102
}
330
C
100
AcDbDictionary
281
     1
  3
Layout1
350
1E
  3
Model
350
22
  0
DICTIONARY
  5
3B
102
{ACAD_REACTORS
330
C
102
}
330
C
100
AcDbDictionary
281
     1
  3
ByBlock
350
3D
  3
ByLayer
350
3C
  3
Global
350
3E
  0
DICTIONARY
  5
370
102
{ACAD_REACTORS
330
C
102
}
330
C
100
AcDbDictionary
281
     1
  0
DICTIONARY
  5
17
102
{ACAD_REACTORS
330
C
102
}
330
C
100
AcDbDictionary
281
     1
  3
Standard
350
18
  0
DICTIONARY
  5
19
102
{ACAD_REACTORS
330
C
102
}
330
C
100
AcDbDictionary
281
     1
  0
ACDBDICTIONARYWDFLT
  5
E
102
{ACAD_REACTORS
330
C
102
}
330
C
100
AcDbDictionary
281
     1
  3
Normal
350
F
100
AcDbDictionaryWithDefault
340
F
  0
DICTIONARY
  5
34A
102
{ACAD_REACTORS
330
C
102
}
330
C
100
AcDbDictionary
281
     1
  3
A0
350
34B
  3
A1
350
34C
  3
A2
350
34D
  3
A3
350
34E
  3
A4
350
34F
  3
A5
350
350
  3
A6
350
351
  3
A7
350
352
  3
A8
350
353
  3
A9
350
354
  3
B0
350
355
  3
B1
350
356
  3
B2
350
357
  3
B3
350
358
  3
B4
350
359
  3
B5
350
35A
  3
B6
350
35B
  3
B7
350
35C
  3
B8
350
35D
  3
B9
350
35E
  3
C0
350
35F
  3
C1
350
360
  3
C2
350
361
  3
C3
350
362
  3
C4
350
363
  3
C5
350
364
  3
C6
350
365
  3
C7
350
366
  3
C8
350
367
  3
C9
350
368
  3
D0
350
369
  3
D1
350
36A
  3
D2
350
36B
  0
DICTIONARY
  5
2A
102
{ACAD_REACTORS
330
C
102
}
330
C
100
AcDbDictionary
281
     1
  3
2dWireframe
350
2F
  3
3D Hidden
350
31
  3
3dWireframe
350
30
  3
Basic
350
32
  3
Brighten
350
36
  3
ColorChange
350
3A
  3
Conceptual
350
34
  3
Dim
350
35
  3
Facepattern
350
39
  3
Flat
350
2B
  3
FlatWithEdges
350
2C
  3
Gouraud
350
2D
  3
GouraudWithEdges
350
2E
  3
Linepattern
350
38
  3
Realistic
350
33
  3
Thicken
350
37
  0
DICTIONARY
  5
36E
102
{ACAD_REACTORS
330
C
102
}
330
C
100
AcDbDictionary
281
     1
  3
CANNOSCALE
350
372
  3
DIMASSOC
350
373
  3
HIDETEXT
350
374
  3
XCLIPFRAME
350
371
  0
DICTIONARY
  5
36C
102
{ACAD_REACTORS
330
C
102
}
330
C
100
AcDbDictionary
281
     1
  3
AC_WATERMARK
350
36D
  0
XRECORD
  5
376
102
{ACAD_REACTORS
330
375
102
}
330
375
100
AcDbXrecord
280
     1
 40
892718.0
  1
{P: HEAD OFFICE ^I^I09 277 2717\P    ALBANY ^I^I09 972 0060\P    KATIKAIT^I^I07 549 5190\P    WELLINGTON^I^I04 974 5792\P    CHRISTCHURCH^I03 348 6528}
  0
DICTIONARY
  5
345
102
{ACAD_REACTORS
330
344
102
}
330
344
100
AcDbDictionary
280
     1
281
     1
  3
SPATIAL
360
346
  0
LAYOUT
  5
1E
102
{ACAD_REACTORS
330
1A
102
}
330
1A
100
AcDbPlotSettings
  1

  2
none_device
  4

  6

 40
0.0
 41
0.0
 42
0.0
 43
0.0
 44
0.0
 45
0.0
 46
0.0
 47
0.0
 48
0.0
 49
0.0
140
0.0
141
0.0
142
1.0
143
1.0
 70
   688
 72
     0
 73
     0
 74
     5
  7

 75
    16
147
1.0
148
0.0
149
0.0
100
AcDbLayout
  1
Layout1
 70
     1
 71
     1
 10
0.0
 20
0.0
 11
12.0
 21
9.0
 12
0.0
 22
0.0
 32
0.0
 14
1.000000000000000E+20
 24
1.000000000000000E+20
 34
1.000000000000000E+20
 15
-1.000000000000000E+20
 25
-1.000000000000000E+20
 35
-1.000000000000000E+20
146
0.0
 13
0.0
 23
0.0
 33
0.0
 16
1.0
 26
0.0
 36
0.0
 17
0.0
 27
1.0
 37
0.0
 76
     0
330
1B
  0
LAYOUT
  5
22
102
{ACAD_REACTORS
330
1A
102
}
330
1A
100
AcDbPlotSettings
  1

  2
none_device
  4

  6

 40
0.0
 41
0.0
 42
0.0
 43
0.0
 44
0.0
 45
0.0
 46
0.0
 47
0.0
 48
0.0
 49
0.0
140
0.0
141
0.0
142
1.0
143
1.0
 70
  1712
 72
     0
 73
     0
 74
     0
  7

 75
     0
147
1.0
148
0.0
149
0.0
100
AcDbLayout
  1
Model
 70
     1
 71
     0
 10
0.0
 20
0.0
 11
12.0
 21
9.0
 12
0.0
 22
0.0
 32
0.0
 14
1.000000000000000E+20
 24
1.000000000000000E+20
 34
1.000000000000000E+20
 15
-1.000000000000000E+20
 25
-1.000000000000000E+20
 35
-1.000000000000000E+20
146
0.0
 13
0.0
 23
0.0
 33
0.0
 16
1.0
 26
0.0
 36
0.0
 17
0.0
 27
1.0
 37
0.0
 76
     0
330
1F
331
29
  0
MATERIAL
  5
3D
102
{ACAD_REACTORS
330
3B
102
}
102
{ACAD_XDICTIONARY
360
399
102
}
330
3B
100
AcDbMaterial
  1
ByBlock
  0
MATERIAL
  5
3C
102
{ACAD_REACTORS
330
3B
102
}
102
{ACAD_XDICTIONARY
360
397
102
}
330
3B
100
AcDbMaterial
  1
ByLayer
  0
MATERIAL
  5
3E
102
{ACAD_REACTORS
330
3B
102
}
102
{ACAD_XDICTIONARY
360
39B
102
}
330
3B
100
AcDbMaterial
  1
Global
  0
MLINESTYLE
  5
18
102
{ACAD_REACTORS
330
17
102
}
330
17
100
AcDbMlineStyle
  2
Standard
 70
     0
  3

 62
   256
 51
90.0
 52
90.0
 71
     2
 49
0.5
 62
   256
  6
BYLAYER
 49
-0.5
 62
   256
  6
BYLAYER
  0
ACDBPLACEHOLDER
  5
F
102
{ACAD_REACTORS
330
E
102
}
330
E
  0
SCALE
  5
34B
102
{ACAD_REACTORS
330
34A
102
}
330
34A
100
AcDbScale
 70
     0
300
1:1
140
1.0
141
1.0
290
     1
  0
SCALE
  5
34C
102
{ACAD_REACTORS
330
34A
102
}
330
34A
100
AcDbScale
 70
     0
300
1:2
140
1.0
141
2.0
290
     0
  0
SCALE
  5
34D
102
{ACAD_REACTORS
330
34A
102
}
330
34A
100
AcDbScale
 70
     0
300
1:4
140
1.0
141
4.0
290
     0
  0
SCALE
  5
34E
102
{ACAD_REACTORS
330
34A
102
}
330
34A
100
AcDbScale
 70
     0
300
1:5
140
1.0
141
5.0
290
     0
  0
SCALE
  5
34F
102
{ACAD_REACTORS
330
34A
102
}
330
34A
100
AcDbScale
 70
     0
300
1:8
140
1.0
141
8.0
290
     0
  0
SCALE
  5
350
102
{ACAD_REACTORS
330
34A
102
}
330
34A
100
AcDbScale
 70
     0
300
1:10
140
1.0
141
10.0
290
     0
  0
SCALE
  5
351
102
{ACAD_REACTORS
330
34A
102
}
330
34A
100
AcDbScale
 70
     0
300
1:16
140
1.0
141
16.0
290
     0
  0
SCALE
  5
352
102
{ACAD_REACTORS
330
34A
102
}
330
34A
100
AcDbScale
 70
     0
300
1:20
140
1.0
141
20.0
290
     0
  0
SCALE
  5
353
102
{ACAD_REACTORS
330
34A
102
}
330
34A
100
AcDbScale
 70
     0
300
1:30
140
1.0
141
30.0
290
     0
  0
SCALE
  5
354
102
{ACAD_REACTORS
330
34A
102
}
330
34A
100
AcDbScale
 70
     0
300
1:40
140
1.0
141
40.0
290
     0
  0
SCALE
  5
355
102
{ACAD_REACTORS
330
34A
102
}
330
34A
100
AcDbScale
 70
     0
300
1:50
140
1.0
141
50.0
290
     0
  0
SCALE
  5
356
102
{ACAD_REACTORS
330
34A
102
}
330
34A
100
AcDbScale
 70
     0
300
1:100
140
1.0
141
100.0
290
     0
  0
SCALE
  5
357
102
{ACAD_REACTORS
330
34A
102
}
330
34A
100
AcDbScale
 70
     0
300
2:1
140
2.0
141
1.0
290
     0
  0
SCALE
  5
358
102
{ACAD_REACTORS
330
34A
102
}
330
34A
100
AcDbScale
 70
     0
300
4:1
140
4.0
141
1.0
290
     0
  0
SCALE
  5
359
102
{ACAD_REACTORS
330
34A
102
}
330
34A
100
AcDbScale
 70
     0
300
8:1
140
8.0
141
1.0
290
     0
  0
SCALE
  5
35A
102
{ACAD_REACTORS
330
34A
102
}
330
34A
100
AcDbScale
 70
     0
300
10:1
140
10.0
141
1.0
290
     0
  0
SCALE
  5
35B
102
{ACAD_REACTORS
330
34A
102
}
330
34A
100
AcDbScale
 70
     0
300
100:1
140
100.0
141
1.0
290
     0
  0
SCALE
  5
35C
102
{ACAD_REACTORS
330
34A
102
}
330
34A
100
AcDbScale
 70
     0
300
1/128" = 1'-0"
140
0.0078125
141
12.0
290
     0
  0
SCALE
  5
35D
102
{ACAD_REACTORS
330
34A
102
}
330
34A
100
AcDbScale
 70
     0
300
1/64" = 1'-0"
140
0.015625
141
12.0
290
     0
  0
SCALE
  5
35E
102
{ACAD_REACTORS
330
34A
102
}
330
34A
100
AcDbScale
 70
     0
300
1/32" = 1'-0"
140
0.03125
141
12.0
290
     0
  0
SCALE
  5
35F
102
{ACAD_REACTORS
330
34A
102
}
330
34A
100
AcDbScale
 70
     0
300
1/16" = 1'-0"
140
0.0625
141
12.0
290
     0
  0
SCALE
  5
360
102
{ACAD_REACTORS
330
34A
102
}
330
34A
100
AcDbScale
 70
     0
300
3/32" = 1'-0"
140
0.09375
141
12.0
290
     0
  0
SCALE
  5
361
102
{ACAD_REACTORS
330
34A
102
}
330
34A
100
AcDbScale
 70
     0
300
1/8" = 1'-0"
140
0.125
141
12.0
290
     0
  0
SCALE
  5
362
102
{ACAD_REACTORS
330
34A
102
}
330
34A
100
AcDbScale
 70
     0
300
3/16" = 1'-0"
140
0.1875
141
12.0
290
     0
  0
SCALE
  5
363
102
{ACAD_REACTORS
330
34A
102
}
330
34A
100
AcDbScale
 70
     0
300
1/4" = 1'-0"
140
0.25
141
12.0
290
     0
  0
SCALE
  5
364
102
{ACAD_REACTORS
330
34A
102
}
330
34A
100
AcDbScale
 70
     0
300
3/8" = 1'-0"
140
0.375
141
12.0
290
     0
  0
SCALE
  5
365
102
{ACAD_REACTORS
330
34A
102
}
330
34A
100
AcDbScale
 70
     0
300
1/2" = 1'-0"
140
0.5
141
12.0
290
     0
  0
SCALE
  5
366
102
{ACAD_REACTORS
330
34A
102
}
330
34A
100
AcDbScale
 70
     0
300
3/4" = 1'-0"
140
0.75
141
12.0
290
     0
  0
SCALE
  5
367
102
{ACAD_REACTORS
330
34A
102
}
330
34A
100
AcDbScale
 70
     0
300
1" = 1'-0"
140
1.0
141
12.0
290
     0
  0
SCALE
  5
368
102
{ACAD_REACTORS
330
34A
102
}
330
34A
100
AcDbScale
 70
     0
300
1-1/2" = 1'-0"
140
1.5
141
12.0
290
     0
  0
SCALE
  5
369
102
{ACAD_REACTORS
330
34A
102
}
330
34A
100
AcDbScale
 70
     0
300
3" = 1'-0"
140
3.0
141
12.0
290
     0
  0
SCALE
  5
36A
102
{ACAD_REACTORS
330
34A
102
}
330
34A
100
AcDbScale
 70
     0
300
6" = 1'-0"
140
6.0
141
12.0
290
     0
  0
SCALE
  5
36B
102
{ACAD_REACTORS
330
34A
102
}
330
34A
100
AcDbScale
 70
     0
300
1'-0" = 1'-0"
140
12.0
141
12.0
290
     0
  0
VISUALSTYLE
  5
2F
102
{ACAD_REACTORS
330
2A
102
}
102
{ACAD_XDICTIONARY
360
37F
102
}
330
2A
100
AcDbVisualStyle
  2
2dWireframe
 70
     4
 71
     0
 72
     2
 73
     0
 90
        0
 40
-0.6
 41
-30.0
 62
     5
 63
     7
 74
     1
 91
        4
 64
     7
 65
   257
 75
     1
175
     1
 42
1.0
 92
        0
 66
   257
 43
1.0
 76
     1
 77
     6
 78
     2
 67
     7
 79
     5
170
     0
171
     0
290
     0
174
     0
 93
        1
 44
0.0
173
     0
291
     0
 45
0.0
1001
ACAD
1000
AcDbSavedByObjectVersion
1070
     0
  0
VISUALSTYLE
  5
31
102
{ACAD_REACTORS
330
2A
102
}
102
{ACAD_XDICTIONARY
360
383
102
}
330
2A
100
AcDbVisualStyle
  2
3D Hidden
 70
     6
 71
     1
 72
     2
 73
     2
 90
        0
 40
-0.6
 41
-30.0
 62
     5
 63
     7
 74
     2
 91
        2
 64
     7
 65
   257
 75
     2
175
     1
 42
40.0
 92
        0
 66
   257
 43
1.0
 76
     1
 77
     6
 78
     2
 67
     7
 79
     3
170
     0
171
     0
290
     0
174
     0
 93
        1
 44
0.0
173
     0
291
     0
 45
0.0
1001
ACAD
1000
AcDbSavedByObjectVersion
1070
     0
  0
VISUALSTYLE
  5
30
102
{ACAD_REACTORS
330
2A
102
}
102
{ACAD_XDICTIONARY
360
381
102
}
330
2A
100
AcDbVisualStyle
  2
3dWireframe
 70
     5
 71
     0
 72
     2
 73
     0
 90
        0
 40
-0.6
 41
-30.0
 62
     5
 63
     7
 74
     1
 91
        4
 64
     7
 65
   257
 75
     1
175
     1
 42
1.0
 92
        0
 66
   257
 43
1.0
 76
     1
 77
     6
 78
     2
 67
     7
 79
     5
170
     0
171
     0
290
     0
174
     0
 93
        1
 44
0.0
173
     0
291
     0
 45
0.0
1001
ACAD
1000
AcDbSavedByObjectVersion
1070
     0
  0
VISUALSTYLE
  5
32
102
{ACAD_REACTORS
330
2A
102
}
102
{ACAD_XDICTIONARY
360
385
102
}
330
2A
100
AcDbVisualStyle
  2
Basic
 70
     7
 71
     1
 72
     0
 73
     1
 90
        0
 40
-0.6
 41
-30.0
 62
     5
 63
     7
 74
     0
 91
        4
 64
     7
 65
   257
 75
     1
175
     1
 42
1.0
 92
        8
 66
     7
 43
1.0
 76
     1
 77
     6
 78
     2
 67
     7
 79
     5
170
     0
171
     0
290
     0
174
     0
 93
        1
 44
0.0
173
     0
291
     1
 45
0.0
1001
ACAD
1000
AcDbSavedByObjectVersion
1070
     0
  0
VISUALSTYLE
  5
36
102
{ACAD_REACTORS
330
2A
102
}
102
{ACAD_XDICTIONARY
360
38D
102
}
330
2A
100
AcDbVisualStyle
  2
Brighten
 70
    12
 71
     2
 72
     2
 73
     0
 90
        0
 40
-0.6
 41
-30.0
 62
     5
 63
     7
 74
     1
 91
        4
 64
     7
 65
   257
 75
     1
175
     1
 42
1.0
 92
        8
 66
     7
 43
1.0
 76
     1
 77
     6
 78
     2
 67
     7
 79
     5
170
     0
171
     0
290
     0
174
     0
 93
        1
 44
50.0
173
     0
291
     1
 45
0.0
1001
ACAD
1000
AcDbSavedByObjectVersion
1070
     0
  0
VISUALSTYLE
  5
3A
102
{ACAD_REACTORS
330
2A
102
}
102
{ACAD_XDICTIONARY
360
395
102
}
330
2A
100
AcDbVisualStyle
  2
ColorChange
 70
    16
 71
     2
 72
     2
 73
     3
 90
        0
 40
-0.6
 41
-30.0
 62
     5
 63
     8
 74
     1
 91
        4
 64
     7
 65
   257
 75
     1
175
     1
 42
1.0
 92
        8
 66
     8
 43
1.0
 76
     1
 77
     6
 78
     2
 67
     7
 79
     5
170
     0
171
     0
290
     0
174
     0
 93
        1
 44
0.0
173
     0
291
     1
 45
0.0
1001
ACAD
1000
AcDbSavedByObjectVersion
1070
     0
  0
VISUALSTYLE
  5
34
102
{ACAD_REACTORS
330
2A
102
}
102
{ACAD_XDICTIONARY
360
389
102
}
330
2A
100
AcDbVisualStyle
  2
Conceptual
 70
     9
 71
     3
 72
     2
 73
     0
 90
        0
 40
-0.6
 41
-30.0
 62
     5
 63
     7
 74
     2
 91
        2
 64
     7
 65
   257
 75
     1
175
     1
 42
40.0
 92
        8
 66
     7
 43
1.0
 76
     1
 77
     6
 78
     2
 67
     7
 79
     3
170
     0
171
     0
290
     0
174
     0
 93
        1
 44
0.0
173
     0
291
     0
 45
0.0
1001
ACAD
1000
AcDbSavedByObjectVersion
1070
     0
  0
VISUALSTYLE
  5
35
102
{ACAD_REACTORS
330
2A
102
}
102
{ACAD_XDICTIONARY
360
38B
102
}
330
2A
100
AcDbVisualStyle
  2
Dim
 70
    11
 71
     2
 72
     2
 73
     0
 90
        0
 40
-0.6
 41
-30.0
 62
     5
 63
     7
 74
     1
 91
        4
 64
     7
 65
   257
 75
     1
175
     1
 42
1.0
 92
        8
 66
     7
 43
1.0
 76
     1
 77
     6
 78
     2
 67
     7
 79
     5
170
     0
171
     0
290
     0
174
     0
 93
        1
 44
-50.0
173
     0
291
     1
 45
0.0
1001
ACAD
1000
AcDbSavedByObjectVersion
1070
     0
  0
VISUALSTYLE
  5
39
102
{ACAD_REACTORS
330
2A
102
}
102
{ACAD_XDICTIONARY
360
393
102
}
330
2A
100
AcDbVisualStyle
  2
Facepattern
 70
    15
 71
     2
 72
     2
 73
     0
 90
        0
 40
-0.6
 41
-30.0
 62
     5
 63
     7
 74
     1
 91
        4
 64
     7
 65
   257
 75
     1
175
     1
 42
1.0
 92
        8
 66
     7
 43
1.0
 76
     1
 77
     6
 78
     2
 67
     7
 79
     5
170
     0
171
     0
290
     0
174
     0
 93
        1
 44
0.0
173
     0
291
     1
 45
0.0
1001
ACAD
1000
AcDbSavedByObjectVersion
1070
     0
  0
VISUALSTYLE
  5
2B
102
{ACAD_REACTORS
330
2A
102
}
102
{ACAD_XDICTIONARY
360
377
102
}
330
2A
100
AcDbVisualStyle
  2
Flat
 70
     0
 71
     2
 72
     1
 73
     1
 90
        2
 40
-0.6
 41
30.0
 62
     5
 63
     7
 74
     0
 91
        4
 64
     7
 65
   257
 75
     1
175
     1
 42
1.0
 92
        8
 66
     7
 43
1.0
 76
     1
 77
     6
 78
     2
 67
     7
 79
     5
170
     0
171
     0
290
     0
174
     0
 93
       13
 44
0.0
173
     0
291
     1
 45
0.0
1001
ACAD
1000
AcDbSavedByObjectVersion
1070
     0
  0
VISUALSTYLE
  5
2C
102
{ACAD_REACTORS
330
2A
102
}
102
{ACAD_XDICTIONARY
360
379
102
}
330
2A
100
AcDbVisualStyle
  2
FlatWithEdges
 70
     1
 71
     2
 72
     1
 73
     1
 90
        2
 40
-0.6
 41
30.0
 62
     5
 63
     7
 74
     1
 91
        4
 64
     7
 65
   257
 75
     1
175
     1
 42
1.0
 92
        0
 66
   257
 43
1.0
 76
     1
 77
     6
 78
     2
 67
     7
 79
     5
170
     0
171
     0
290
     0
174
     0
 93
       13
 44
0.0
173
     0
291
     1
 45
0.0
1001
ACAD
1000
AcDbSavedByObjectVersion
1070
     0
  0
VISUALSTYLE
  5
2D
102
{ACAD_REACTORS
330
2A
102
}
102
{ACAD_XDICTIONARY
360
37B
102
}
330
2A
100
AcDbVisualStyle
  2
Gouraud
 70
     2
 71
     2
 72
     2
 73
     1
 90
        2
 40
-0.6
 41
30.0
 62
     5
 63
     7
 74
     0
 91
        4
 64
     7
 65
   257
 75
     1
175
     1
 42
1.0
 92
        0
 66
     7
 43
1.0
 76
     1
 77
     6
 78
     2
 67
     7
 79
     5
170
     0
171
     0
290
     0
174
     0
 93
       13
 44
0.0
173
     0
291
     1
 45
0.0
1001
ACAD
1000
AcDbSavedByObjectVersion
1070
     0
  0
VISUALSTYLE
  5
2E
102
{ACAD_REACTORS
330
2A
102
}
102
{ACAD_XDICTIONARY
360
37D
102
}
330
2A
100
AcDbVisualStyle
  2
GouraudWithEdges
 70
     3
 71
     2
 72
     2
 73
     1
 90
        2
 40
-0.6
 41
30.0
 62
     5
 63
     7
 74
     1
 91
        4
 64
     7
 65
   257
 75
     1
175
     1
 42
1.0
 92
        0
 66
   257
 43
1.0
 76
     1
 77
     6
 78
     2
 67
     7
 79
     5
170
     0
171
     0
290
     0
174
     0
 93
       13
 44
0.0
173
     0
291
     1
 45
0.0
1001
ACAD
1000
AcDbSavedByObjectVersion
1070
     0
  0
VISUALSTYLE
  5
38
102
{ACAD_REACTORS
330
2A
102
}
102
{ACAD_XDICTIONARY
360
391
102
}
330
2A
100
AcDbVisualStyle
  2
Linepattern
 70
    14
 71
     2
 72
     2
 73
     0
 90
        0
 40
-0.6
 41
-30.0
 62
     5
 63
     7
 74
     1
 91
        4
 64
     7
 65
   257
 75
     7
175
     7
 42
1.0
 92
        8
 66
     7
 43
1.0
 76
     1
 77
     6
 78
     2
 67
     7
 79
     5
170
     0
171
     0
290
     0
174
     0
 93
        1
 44
0.0
173
     0
291
     1
 45
0.0
1001
ACAD
1000
AcDbSavedByObjectVersion
1070
     0
  0
VISUALSTYLE
  5
33
102
{ACAD_REACTORS
330
2A
102
}
102
{ACAD_XDICTIONARY
360
387
102
}
330
2A
100
AcDbVisualStyle
  2
Realistic
 70
     8
 71
     2
 72
     2
 73
     0
 90
        0
 40
-0.6
 41
-30.0
 62
     5
 63
     7
 74
     1
 91
        0
 64
     7
 65
   257
 75
     1
175
     1
 42
1.0
 92
        8
 66
     8
 43
1.0
 76
     1
 77
     6
 78
     2
 67
     7
 79
     5
170
     0
171
     0
290
     0
174
     0
 93
       13
 44
0.0
173
     0
291
     0
 45
0.0
1001
ACAD
1000
AcDbSavedByObjectVersion
1070
     0
  0
VISUALSTYLE
  5
37
102
{ACAD_REACTORS
330
2A
102
}
102
{ACAD_XDICTIONARY
360
38F
102
}
330
2A
100
AcDbVisualStyle
  2
Thicken
 70
    13
 71
     2
 72
     2
 73
     0
 90
        0
 40
-0.6
 41
-30.0
 62
     5
 63
     7
 74
     1
 91
        4
 64
     7
 65
   257
 75
     1
175
     1
 42
1.0
 92
       12
 66
     7
 43
1.0
 76
     1
 77
     6
 78
     2
 67
     7
 79
     5
170
     0
171
     0
290
     0
174
     0
 93
        1
 44
0.0
173
     0
291
     1
 45
0.0
1001
ACAD
1000
AcDbSavedByObjectVersion
1070
     0
  0
DICTIONARYVAR
  5
372
102
{ACAD_REACTORS
330
36E
102
}
330
36E
100
DictionaryVariables
280
     0
  1
1:1
  0
DICTIONARYVAR
  5
373
102
{ACAD_REACTORS
330
36E
102
}
330
36E
100
DictionaryVariables
280
     0
  1
2
  0
DICTIONARYVAR
  5
374
102
{ACAD_REACTORS
330
36E
102
}
330
36E
100
DictionaryVariables
280
     0
  1
1
  0
DICTIONARYVAR
  5
371
102
{ACAD_REACTORS
330
36E
102
}
330
36E
100
DictionaryVariables
280
     0
  1
0
  0
XRECORD
  5
36D
102
{ACAD_REACTORS
330
36C
102
}
330
36C
100
AcDbXrecord
280
     1
1000
This DWG file was created in ArchiCAD(TM)®
  0
SPATIAL_FILTER
  5
346
102
{ACAD_REACTORS
330
345
102
}
330
345
100
AcDbFilter
100
AcDbSpatialFilter
 70
     4
 10
1.137125479457986
 20
21.90350362027126
 10
293.8039325271136
 20
21.90350362027126
 10
293.8039325271136
 20
205.0
 10
1.137125479457986
 20
205.0
210
0.0
220
0.0
230
1.0
 11
0.0
 21
0.0
 31
0.0
 71
     1
 72
     0
 73
     0
 40
1.0
 40
0.0
 40
0.0
 40
0.0
 40
0.0
 40
1.0
 40
0.0
 40
0.0
 40
0.0
 40
0.0
 40
1.0
 40
0.0
 40
1.0
 40
0.0
 40
0.0
 40
0.0
 40
0.0
 40
1.0
 40
0.0
 40
0.0
 40
0.0
 40
0.0
 40
1.0
 40
0.0
  0
DICTIONARY
  5
399
330
3D
100
AcDbDictionary
280
     1
281
     1
  3
ACAD_XREC_ROUNDTRIP
360
39A
  0
DICTIONARY
  5
397
330
3C
100
AcDbDictionary
280
     1
281
     1
  3
ACAD_XREC_ROUNDTRIP
360
398
  0
DICTIONARY
  5
39B
330
3E
100
AcDbDictionary
280
     1
281
     1
  3
ACAD_XREC_ROUNDTRIP
360
39C
  0
DICTIONARY
  5
37F
330
2F
100
AcDbDictionary
280
     1
281
     1
  3
ACAD_XREC_ROUNDTRIP
360
380
  0
DICTIONARY
  5
383
330
31
100
AcDbDictionary
280
     1
281
     1
  3
ACAD_XREC_ROUNDTRIP
360
384
  0
DICTIONARY
  5
381
330
30
100
AcDbDictionary
280
     1
281
     1
  3
ACAD_XREC_ROUNDTRIP
360
382
  0
DICTIONARY
  5
385
330
32
100
AcDbDictionary
280
     1
281
     1
  3
ACAD_XREC_ROUNDTRIP
360
386
  0
DICTIONARY
  5
38D
330
36
100
AcDbDictionary
280
     1
281
     1
  3
ACAD_XREC_ROUNDTRIP
360
38E
  0
DICTIONARY
  5
395
330
3A
100
AcDbDictionary
280
     1
281
     1
  3
ACAD_XREC_ROUNDTRIP
360
396
  0
DICTIONARY
  5
389
330
34
100
AcDbDictionary
280
     1
281
     1
  3
ACAD_XREC_ROUNDTRIP
360
38A
  0
DICTIONARY
  5
38B
330
35
100
AcDbDictionary
280
     1
281
     1
  3
ACAD_XREC_ROUNDTRIP
360
38C
  0
DICTIONARY
  5
393
330
39
100
AcDbDictionary
280
     1
281
     1
  3
ACAD_XREC_ROUNDTRIP
360
394
  0
DICTIONARY
  5
377
330
2B
100
AcDbDictionary
280
     1
281
     1
  3
ACAD_XREC_ROUNDTRIP
360
378
  0
DICTIONARY
  5
379
330
2C
100
AcDbDictionary
280
     1
281
     1
  3
ACAD_XREC_ROUNDTRIP
360
37A
  0
DICTIONARY
  5
37B
330
2D
100
AcDbDictionary
280
     1
281
     1
  3
ACAD_XREC_ROUNDTRIP
360
37C
  0
DICTIONARY
  5
37D
330
2E
100
AcDbDictionary
280
     1
281
     1
  3
ACAD_XREC_ROUNDTRIP
360
37E
  0
DICTIONARY
  5
391
330
38
100
AcDbDictionary
280
     1
281
     1
  3
ACAD_XREC_ROUNDTRIP
360
392
  0
DICTIONARY
  5
387
330
33
100
AcDbDictionary
280
     1
281
     1
  3
ACAD_XREC_ROUNDTRIP
360
388
  0
DICTIONARY
  5
38F
330
37
100
AcDbDictionary
280
     1
281
     1
  3
ACAD_XREC_ROUNDTRIP
360
390
  0
XRECORD
  5
39A
102
{ACAD_REACTORS
330
399
102
}
330
399
100
AcDbXrecord
280
     1
102
MATERIAL
148
0.0
149
0.0
149
0.0
 93
        0
 94
      127
282
     0
 72
     1
 77
     1
171
     1
175
     1
179
     1
273
     0
  0
XRECORD
  5
398
102
{ACAD_REACTORS
330
397
102
}
330
397
100
AcDbXrecord
280
     1
102
MATERIAL
148
0.0
149
0.0
149
0.0
 93
        0
 94
      127
282
     0
 72
     1
 77
     1
171
     1
175
     1
179
     1
273
     0
  0
XRECORD
  5
39C
102
{ACAD_REACTORS
330
39B
102
}
330
39B
100
AcDbXrecord
280
     1
102
MATERIAL
148
0.0
149
0.0
149
0.0
 93
        0
 94
      127
282
     0
 72
     1
 77
     1
171
     1
175
     1
179
     1
273
     0
  0
XRECORD
  5
380
102
{ACAD_REACTORS
330
37F
102
}
330
37F
100
AcDbXrecord
280
     1
102
RTVSPropertyOp0
 70
     1
102
RTVSPropertyOp1
 70
     1
102
RTVSPropertyOp2
 70
     1
102
RTVSPropertyOp3
 70
     1
102
RTVSPropertyOp4
 70
     1
102
RTVSPropertyOp5
 70
     1
102
RTVSPropertyOp6
 70
     1
102
RTVSPropertyOp7
 70
     1
102
RTVSPropertyOp8
 70
     1
102
RTVSPropertyOp9
 70
     1
102
RTVSPropertyOp10
 70
     1
102
RTVSPropertyOp11
 70
     1
102
RTVSPropertyOp12
 70
     1
102
RTVSPropertyOp13
 70
     1
102
RTVSPropertyOp14
 70
     1
102
RTVSPropertyOp15
 70
     1
102
RTVSPropertyOp16
 70
     1
102
RTVSPropertyOp17
 70
     1
102
RTVSPropertyOp18
 70
     1
102
RTVSPropertyOp19
 70
     1
102
RTVSPropertyOp20
 70
     1
102
RTVSPropertyOp21
 70
     1
102
RTVSPropertyOp22
 70
     1
102
RTVSPropertyOp23
 70
     1
102
RTVSPropertyOp24
 70
     1
102
RTVSPropertyOp25
 70
     1
102
RTVSPropertyOp26
 70
     1
102
RTVSPropertyOp27
 70
     1
102
RTVSPropertyOp28
 70
     1
102
RTVSPropertyOp29
 70
     1
102
RTVSPropertyOp30
 70
     1
102
RTVSPropertyOp31
 70
     1
102
RTVSPropertyOp32
 70
     1
  0
XRECORD
  5
384
102
{ACAD_REACTORS
330
383
102
}
330
383
100
AcDbXrecord
280
     1
102
RTVSPropertyOp0
 70
     1
102
RTVSPropertyOp1
 70
     1
102
RTVSPropertyOp2
 70
     1
102
RTVSPropertyOp3
 70
     1
102
RTVSPropertyOp4
 70
     1
102
RTVSPropertyOp5
 70
     1
102
RTVSPropertyOp6
 70
     1
102
RTVSPropertyOp7
 70
     1
102
RTVSPropertyOp8
 70
     1
102
RTVSPropertyOp9
 70
     1
102
RTVSPropertyOp10
 70
     1
102
RTVSPropertyOp11
 70
     1
102
RTVSPropertyOp12
 70
     1
102
RTVSPropertyOp13
 70
     1
102
RTVSPropertyOp14
 70
     1
102
RTVSPropertyOp15
 70
     1
102
RTVSPropertyOp16
 70
     1
102
RTVSPropertyOp17
 70
     1
102
RTVSPropertyOp18
 70
     1
102
RTVSPropertyOp19
 70
     1
102
RTVSPropertyOp20
 70
     1
102
RTVSPropertyOp21
 70
     1
102
RTVSPropertyOp22
 70
     1
102
RTVSPropertyOp23
 70
     1
102
RTVSPropertyOp24
 70
     1
102
RTVSPropertyOp25
 70
     1
102
RTVSPropertyOp26
 70
     1
102
RTVSPropertyOp27
 70
     1
102
RTVSPropertyOp28
 70
     1
102
RTVSPropertyOp29
 70
     1
102
RTVSPropertyOp30
 70
     1
102
RTVSPropertyOp31
 70
     1
102
RTVSPropertyOp32
 70
     1
  0
XRECORD
  5
382
102
{ACAD_REACTORS
330
381
102
}
330
381
100
AcDbXrecord
280
     1
102
RTVSPropertyOp0
 70
     1
102
RTVSPropertyOp1
 70
     1
102
RTVSPropertyOp2
 70
     1
102
RTVSPropertyOp3
 70
     1
102
RTVSPropertyOp4
 70
     1
102
RTVSPropertyOp5
 70
     1
102
RTVSPropertyOp6
 70
     1
102
RTVSPropertyOp7
 70
     1
102
RTVSPropertyOp8
 70
     1
102
RTVSPropertyOp9
 70
     1
102
RTVSPropertyOp10
 70
     1
102
RTVSPropertyOp11
 70
     1
102
RTVSPropertyOp12
 70
     1
102
RTVSPropertyOp13
 70
     1
102
RTVSPropertyOp14
 70
     1
102
RTVSPropertyOp15
 70
     1
102
RTVSPropertyOp16
 70
     1
102
RTVSPropertyOp17
 70
     1
102
RTVSPropertyOp18
 70
     1
102
RTVSPropertyOp19
 70
     1
102
RTVSPropertyOp20
 70
     1
102
RTVSPropertyOp21
 70
     1
102
RTVSPropertyOp22
 70
     1
102
RTVSPropertyOp23
 70
     1
102
RTVSPropertyOp24
 70
     1
102
RTVSPropertyOp25
 70
     1
102
RTVSPropertyOp26
 70
     1
102
RTVSPropertyOp27
 70
     1
102
RTVSPropertyOp28
 70
     1
102
RTVSPropertyOp29
 70
     1
102
RTVSPropertyOp30
 70
     1
102
RTVSPropertyOp31
 70
     1
102
RTVSPropertyOp32
 70
     1
  0
XRECORD
  5
386
102
{ACAD_REACTORS
330
385
102
}
330
385
100
AcDbXrecord
280
     1
102
RTVSPropertyOp0
 70
     1
102
RTVSPropertyOp1
 70
     1
102
RTVSPropertyOp2
 70
     1
102
RTVSPropertyOp3
 70
     1
102
RTVSPropertyOp4
 70
     1
102
RTVSPropertyOp5
 70
     1
102
RTVSPropertyOp6
 70
     1
102
RTVSPropertyOp7
 70
     1
102
RTVSPropertyOp8
 70
     1
102
RTVSPropertyOp9
 70
     1
102
RTVSPropertyOp10
 70
     1
102
RTVSPropertyOp11
 70
     1
102
RTVSPropertyOp12
 70
     1
102
RTVSPropertyOp13
 70
     1
102
RTVSPropertyOp14
 70
     1
102
RTVSPropertyOp15
 70
     1
102
RTVSPropertyOp16
 70
     1
102
RTVSPropertyOp17
 70
     1
102
RTVSPropertyOp18
 70
     1
102
RTVSPropertyOp19
 70
     1
102
RTVSPropertyOp20
 70
     1
102
RTVSPropertyOp21
 70
     1
102
RTVSPropertyOp22
 70
     1
102
RTVSPropertyOp23
 70
     1
102
RTVSPropertyOp24
 70
     1
102
RTVSPropertyOp25
 70
     1
102
RTVSPropertyOp26
 70
     1
102
RTVSPropertyOp27
 70
     1
102
RTVSPropertyOp28
 70
     1
102
RTVSPropertyOp29
 70
     1
102
RTVSPropertyOp30
 70
     1
102
RTVSPropertyOp31
 70
     1
102
RTVSPropertyOp32
 70
     1
  0
XRECORD
  5
38E
102
{ACAD_REACTORS
330
38D
102
}
330
38D
100
AcDbXrecord
280
     1
102
RTVSPropertyOp0
 70
     1
102
RTVSPropertyOp1
 70
     1
102
RTVSPropertyOp2
 70
     1
102
RTVSPropertyOp3
 70
     1
102
RTVSPropertyOp4
 70
     1
102
RTVSPropertyOp5
 70
     1
102
RTVSPropertyOp6
 70
     1
102
RTVSPropertyOp7
 70
     1
102
RTVSPropertyOp8
 70
     1
102
RTVSPropertyOp9
 70
     1
102
RTVSPropertyOp10
 70
     1
102
RTVSPropertyOp11
 70
     1
102
RTVSPropertyOp12
 70
     1
102
RTVSPropertyOp13
 70
     1
102
RTVSPropertyOp14
 70
     1
102
RTVSPropertyOp15
 70
     1
102
RTVSPropertyOp16
 70
     1
102
RTVSPropertyOp17
 70
     1
102
RTVSPropertyOp18
 70
     1
102
RTVSPropertyOp19
 70
     1
102
RTVSPropertyOp20
 70
     1
102
RTVSPropertyOp21
 70
     1
102
RTVSPropertyOp22
 70
     1
102
RTVSPropertyOp23
 70
     1
102
RTVSPropertyOp24
 70
     1
102
RTVSPropertyOp25
 70
     1
102
RTVSPropertyOp26
 70
     1
102
RTVSPropertyOp27
 70
     1
102
RTVSPropertyOp28
 70
     1
102
RTVSPropertyOp29
 70
     1
102
RTVSPropertyOp30
 70
     1
102
RTVSPropertyOp31
 70
     1
102
RTVSPropertyOp32
 70
     1
  0
XRECORD
  5
396
102
{ACAD_REACTORS
330
395
102
}
330
395
100
AcDbXrecord
280
     1
102
RTVSPropertyOp0
 70
     1
102
RTVSPropertyOp1
 70
     1
102
RTVSPropertyOp2
 70
     1
102
RTVSPropertyOp3
 70
     1
102
RTVSPropertyOp4
 70
     1
102
RTVSPropertyOp5
 70
     1
102
RTVSPropertyOp6
 70
     1
102
RTVSPropertyOp7
 70
     1
102
RTVSPropertyOp8
 70
     1
102
RTVSPropertyOp9
 70
     1
102
RTVSPropertyOp10
 70
     1
102
RTVSPropertyOp11
 70
     1
102
RTVSPropertyOp12
 70
     1
102
RTVSPropertyOp13
 70
     1
102
RTVSPropertyOp14
 70
     1
102
RTVSPropertyOp15
 70
     1
102
RTVSPropertyOp16
 70
     1
102
RTVSPropertyOp17
 70
     1
102
RTVSPropertyOp18
 70
     1
102
RTVSPropertyOp19
 70
     1
102
RTVSPropertyOp20
 70
     1
102
RTVSPropertyOp21
 70
     1
102
RTVSPropertyOp22
 70
     1
102
RTVSPropertyOp23
 70
     1
102
RTVSPropertyOp24
 70
     1
102
RTVSPropertyOp25
 70
     1
102
RTVSPropertyOp26
 70
     1
102
RTVSPropertyOp27
 70
     1
102
RTVSPropertyOp28
 70
     1
102
RTVSPropertyOp29
 70
     1
102
RTVSPropertyOp30
 70
     1
102
RTVSPropertyOp31
 70
     1
102
RTVSPropertyOp32
 70
     1
  0
XRECORD
  5
38A
102
{ACAD_REACTORS
330
389
102
}
330
389
100
AcDbXrecord
280
     1
102
RTVSPropertyOp0
 70
     1
102
RTVSPropertyOp1
 70
     1
102
RTVSPropertyOp2
 70
     1
102
RTVSPropertyOp3
 70
     1
102
RTVSPropertyOp4
 70
     1
102
RTVSPropertyOp5
 70
     1
102
RTVSPropertyOp6
 70
     1
102
RTVSPropertyOp7
 70
     1
102
RTVSPropertyOp8
 70
     1
102
RTVSPropertyOp9
 70
     1
102
RTVSPropertyOp10
 70
     1
102
RTVSPropertyOp11
 70
     1
102
RTVSPropertyOp12
 70
     1
102
RTVSPropertyOp13
 70
     1
102
RTVSPropertyOp14
 70
     1
102
RTVSPropertyOp15
 70
     1
102
RTVSPropertyOp16
 70
     1
102
RTVSPropertyOp17
 70
     1
102
RTVSPropertyOp18
 70
     1
102
RTVSPropertyOp19
 70
     1
102
RTVSPropertyOp20
 70
     1
102
RTVSPropertyOp21
 70
     1
102
RTVSPropertyOp22
 70
     1
102
RTVSPropertyOp23
 70
     1
102
RTVSPropertyOp24
 70
     1
102
RTVSPropertyOp25
 70
     1
102
RTVSPropertyOp26
 70
     1
102
RTVSPropertyOp27
 70
     1
102
RTVSPropertyOp28
 70
     1
102
RTVSPropertyOp29
 70
     1
102
RTVSPropertyOp30
 70
     1
102
RTVSPropertyOp31
 70
     1
102
RTVSPropertyOp32
 70
     1
  0
XRECORD
  5
38C
102
{ACAD_REACTORS
330
38B
102
}
330
38B
100
AcDbXrecord
280
     1
102
RTVSPropertyOp0
 70
     1
102
RTVSPropertyOp1
 70
     1
102
RTVSPropertyOp2
 70
     1
102
RTVSPropertyOp3
 70
     1
102
RTVSPropertyOp4
 70
     1
102
RTVSPropertyOp5
 70
     1
102
RTVSPropertyOp6
 70
     1
102
RTVSPropertyOp7
 70
     1
102
RTVSPropertyOp8
 70
     1
102
RTVSPropertyOp9
 70
     1
102
RTVSPropertyOp10
 70
     1
102
RTVSPropertyOp11
 70
     1
102
RTVSPropertyOp12
 70
     1
102
RTVSPropertyOp13
 70
     1
102
RTVSPropertyOp14
 70
     1
102
RTVSPropertyOp15
 70
     1
102
RTVSPropertyOp16
 70
     1
102
RTVSPropertyOp17
 70
     1
102
RTVSPropertyOp18
 70
     1
102
RTVSPropertyOp19
 70
     1
102
RTVSPropertyOp20
 70
     1
102
RTVSPropertyOp21
 70
     1
102
RTVSPropertyOp22
 70
     1
102
RTVSPropertyOp23
 70
     1
102
RTVSPropertyOp24
 70
     1
102
RTVSPropertyOp25
 70
     1
102
RTVSPropertyOp26
 70
     1
102
RTVSPropertyOp27
 70
     1
102
RTVSPropertyOp28
 70
     1
102
RTVSPropertyOp29
 70
     1
102
RTVSPropertyOp30
 70
     1
102
RTVSPropertyOp31
 70
     1
102
RTVSPropertyOp32
 70
     1
  0
XRECORD
  5
394
102
{ACAD_REACTORS
330
393
102
}
330
393
100
AcDbXrecord
280
     1
102
RTVSPropertyOp0
 70
     1
102
RTVSPropertyOp1
 70
     1
102
RTVSPropertyOp2
 70
     1
102
RTVSPropertyOp3
 70
     1
102
RTVSPropertyOp4
 70
     1
102
RTVSPropertyOp5
 70
     1
102
RTVSPropertyOp6
 70
     1
102
RTVSPropertyOp7
 70
     1
102
RTVSPropertyOp8
 70
     1
102
RTVSPropertyOp9
 70
     1
102
RTVSPropertyOp10
 70
     1
102
RTVSPropertyOp11
 70
     1
102
RTVSPropertyOp12
 70
     1
102
RTVSPropertyOp13
 70
     1
102
RTVSPropertyOp14
 70
     1
102
RTVSPropertyOp15
 70
     1
102
RTVSPropertyOp16
 70
     1
102
RTVSPropertyOp17
 70
     1
102
RTVSPropertyOp18
 70
     1
102
RTVSPropertyOp19
 70
     1
102
RTVSPropertyOp20
 70
     1
102
RTVSPropertyOp21
 70
     1
102
RTVSPropertyOp22
 70
     1
102
RTVSPropertyOp23
 70
     1
102
RTVSPropertyOp24
 70
     1
102
RTVSPropertyOp25
 70
     1
102
RTVSPropertyOp26
 70
     1
102
RTVSPropertyOp27
 70
     1
102
RTVSPropertyOp28
 70
     1
102
RTVSPropertyOp29
 70
     1
102
RTVSPropertyOp30
 70
     1
102
RTVSPropertyOp31
 70
     1
102
RTVSPropertyOp32
 70
     1
  0
XRECORD
  5
378
102
{ACAD_REACTORS
330
377
102
}
330
377
100
AcDbXrecord
280
     1
102
RTVSPropertyOp0
 70
     1
102
RTVSPropertyOp1
 70
     1
102
RTVSPropertyOp2
 70
     1
102
RTVSPropertyOp3
 70
     1
102
RTVSPropertyOp4
 70
     1
102
RTVSPropertyOp5
 70
     1
102
RTVSPropertyOp6
 70
     1
102
RTVSPropertyOp7
 70
     1
102
RTVSPropertyOp8
 70
     1
102
RTVSPropertyOp9
 70
     1
102
RTVSPropertyOp10
 70
     1
102
RTVSPropertyOp11
 70
     1
102
RTVSPropertyOp12
 70
     1
102
RTVSPropertyOp13
 70
     1
102
RTVSPropertyOp14
 70
     1
102
RTVSPropertyOp15
 70
     1
102
RTVSPropertyOp16
 70
     1
102
RTVSPropertyOp17
 70
     1
102
RTVSPropertyOp18
 70
     1
102
RTVSPropertyOp19
 70
     1
102
RTVSPropertyOp20
 70
     1
102
RTVSPropertyOp21
 70
     1
102
RTVSPropertyOp22
 70
     1
102
RTVSPropertyOp23
 70
     1
102
RTVSPropertyOp24
 70
     1
102
RTVSPropertyOp25
 70
     1
102
RTVSPropertyOp26
 70
     1
102
RTVSPropertyOp27
 70
     1
102
RTVSPropertyOp28
 70
     1
102
RTVSPropertyOp29
 70
     1
102
RTVSPropertyOp30
 70
     1
102
RTVSPropertyOp31
 70
     1
102
RTVSPropertyOp32
 70
     1
  0
XRECORD
  5
37A
102
{ACAD_REACTORS
330
379
102
}
330
379
100
AcDbXrecord
280
     1
102
RTVSPropertyOp0
 70
     1
102
RTVSPropertyOp1
 70
     1
102
RTVSPropertyOp2
 70
     1
102
RTVSPropertyOp3
 70
     1
102
RTVSPropertyOp4
 70
     1
102
RTVSPropertyOp5
 70
     1
102
RTVSPropertyOp6
 70
     1
102
RTVSPropertyOp7
 70
     1
102
RTVSPropertyOp8
 70
     1
102
RTVSPropertyOp9
 70
     1
102
RTVSPropertyOp10
 70
     1
102
RTVSPropertyOp11
 70
     1
102
RTVSPropertyOp12
 70
     1
102
RTVSPropertyOp13
 70
     1
102
RTVSPropertyOp14
 70
     1
102
RTVSPropertyOp15
 70
     1
102
RTVSPropertyOp16
 70
     1
102
RTVSPropertyOp17
 70
     1
102
RTVSPropertyOp18
 70
     1
102
RTVSPropertyOp19
 70
     1
102
RTVSPropertyOp20
 70
     1
102
RTVSPropertyOp21
 70
     1
102
RTVSPropertyOp22
 70
     1
102
RTVSPropertyOp23
 70
     1
102
RTVSPropertyOp24
 70
     1
102
RTVSPropertyOp25
 70
     1
102
RTVSPropertyOp26
 70
     1
102
RTVSPropertyOp27
 70
     1
102
RTVSPropertyOp28
 70
     1
102
RTVSPropertyOp29
 70
     1
102
RTVSPropertyOp30
 70
     1
102
RTVSPropertyOp31
 70
     1
102
RTVSPropertyOp32
 70
     1
  0
XRECORD
  5
37C
102
{ACAD_REACTORS
330
37B
102
}
330
37B
100
AcDbXrecord
280
     1
102
RTVSPropertyOp0
 70
     1
102
RTVSPropertyOp1
 70
     1
102
RTVSPropertyOp2
 70
     1
102
RTVSPropertyOp3
 70
     1
102
RTVSPropertyOp4
 70
     1
102
RTVSPropertyOp5
 70
     1
102
RTVSPropertyOp6
 70
     1
102
RTVSPropertyOp7
 70
     1
102
RTVSPropertyOp8
 70
     1
102
RTVSPropertyOp9
 70
     1
102
RTVSPropertyOp10
 70
     1
102
RTVSPropertyOp11
 70
     1
102
RTVSPropertyOp12
 70
     1
102
RTVSPropertyOp13
 70
     1
102
RTVSPropertyOp14
 70
     1
102
RTVSPropertyOp15
 70
     1
102
RTVSPropertyOp16
 70
     1
102
RTVSPropertyOp17
 70
     1
102
RTVSPropertyOp18
 70
     1
102
RTVSPropertyOp19
 70
     1
102
RTVSPropertyOp20
 70
     1
102
RTVSPropertyOp21
 70
     1
102
RTVSPropertyOp22
 70
     1
102
RTVSPropertyOp23
 70
     1
102
RTVSPropertyOp24
 70
     1
102
RTVSPropertyOp25
 70
     1
102
RTVSPropertyOp26
 70
     1
102
RTVSPropertyOp27
 70
     1
102
RTVSPropertyOp28
 70
     1
102
RTVSPropertyOp29
 70
     1
102
RTVSPropertyOp30
 70
     1
102
RTVSPropertyOp31
 70
     1
102
RTVSPropertyOp32
 70
     1
  0
XRECORD
  5
37E
102
{ACAD_REACTORS
330
37D
102
}
330
37D
100
AcDbXrecord
280
     1
102
RTVSPropertyOp0
 70
     1
102
RTVSPropertyOp1
 70
     1
102
RTVSPropertyOp2
 70
     1
102
RTVSPropertyOp3
 70
     1
102
RTVSPropertyOp4
 70
     1
102
RTVSPropertyOp5
 70
     1
102
RTVSPropertyOp6
 70
     1
102
RTVSPropertyOp7
 70
     1
102
RTVSPropertyOp8
 70
     1
102
RTVSPropertyOp9
 70
     1
102
RTVSPropertyOp10
 70
     1
102
RTVSPropertyOp11
 70
     1
102
RTVSPropertyOp12
 70
     1
102
RTVSPropertyOp13
 70
     1
102
RTVSPropertyOp14
 70
     1
102
RTVSPropertyOp15
 70
     1
102
RTVSPropertyOp16
 70
     1
102
RTVSPropertyOp17
 70
     1
102
RTVSPropertyOp18
 70
     1
102
RTVSPropertyOp19
 70
     1
102
RTVSPropertyOp20
 70
     1
102
RTVSPropertyOp21
 70
     1
102
RTVSPropertyOp22
 70
     1
102
RTVSPropertyOp23
 70
     1
102
RTVSPropertyOp24
 70
     1
102
RTVSPropertyOp25
 70
     1
102
RTVSPropertyOp26
 70
     1
102
RTVSPropertyOp27
 70
     1
102
RTVSPropertyOp28
 70
     1
102
RTVSPropertyOp29
 70
     1
102
RTVSPropertyOp30
 70
     1
102
RTVSPropertyOp31
 70
     1
102
RTVSPropertyOp32
 70
     1
  0
XRECORD
  5
392
102
{ACAD_REACTORS
330
391
102
}
330
391
100
AcDbXrecord
280
     1
102
RTVSPropertyOp0
 70
     1
102
RTVSPropertyOp1
 70
     1
102
RTVSPropertyOp2
 70
     1
102
RTVSPropertyOp3
 70
     1
102
RTVSPropertyOp4
 70
     1
102
RTVSPropertyOp5
 70
     1
102
RTVSPropertyOp6
 70
     1
102
RTVSPropertyOp7
 70
     1
102
RTVSPropertyOp8
 70
     1
102
RTVSPropertyOp9
 70
     1
102
RTVSPropertyOp10
 70
     1
102
RTVSPropertyOp11
 70
     1
102
RTVSPropertyOp12
 70
     1
102
RTVSPropertyOp13
 70
     1
102
RTVSPropertyOp14
 70
     1
102
RTVSPropertyOp15
 70
     1
102
RTVSPropertyOp16
 70
     1
102
RTVSPropertyOp17
 70
     1
102
RTVSPropertyOp18
 70
     1
102
RTVSPropertyOp19
 70
     1
102
RTVSPropertyOp20
 70
     1
102
RTVSPropertyOp21
 70
     1
102
RTVSPropertyOp22
 70
     1
102
RTVSPropertyOp23
 70
     1
102
RTVSPropertyOp24
 70
     1
102
RTVSPropertyOp25
 70
     1
102
RTVSPropertyOp26
 70
     1
102
RTVSPropertyOp27
 70
     1
102
RTVSPropertyOp28
 70
     1
102
RTVSPropertyOp29
 70
     1
102
RTVSPropertyOp30
 70
     1
102
RTVSPropertyOp31
 70
     1
102
RTVSPropertyOp32
 70
     1
  0
XRECORD
  5
388
102
{ACAD_REACTORS
330
387
102
}
330
387
100
AcDbXrecord
280
     1
102
RTVSPropertyOp0
 70
     1
102
RTVSPropertyOp1
 70
     1
102
RTVSPropertyOp2
 70
     1
102
RTVSPropertyOp3
 70
     1
102
RTVSPropertyOp4
 70
     1
102
RTVSPropertyOp5
 70
     1
102
RTVSPropertyOp6
 70
     1
102
RTVSPropertyOp7
 70
     1
102
RTVSPropertyOp8
 70
     1
102
RTVSPropertyOp9
 70
     1
102
RTVSPropertyOp10
 70
     1
102
RTVSPropertyOp11
 70
     1
102
RTVSPropertyOp12
 70
     1
102
RTVSPropertyOp13
 70
     1
102
RTVSPropertyOp14
 70
     1
102
RTVSPropertyOp15
 70
     1
102
RTVSPropertyOp16
 70
     1
102
RTVSPropertyOp17
 70
     1
102
RTVSPropertyOp18
 70
     1
102
RTVSPropertyOp19
 70
     1
102
RTVSPropertyOp20
 70
     1
102
RTVSPropertyOp21
 70
     1
102
RTVSPropertyOp22
 70
     1
102
RTVSPropertyOp23
 70
     1
102
RTVSPropertyOp24
 70
     1
102
RTVSPropertyOp25
 70
     1
102
RTVSPropertyOp26
 70
     1
102
RTVSPropertyOp27
 70
     1
102
RTVSPropertyOp28
 70
     1
102
RTVSPropertyOp29
 70
     1
102
RTVSPropertyOp30
 70
     1
102
RTVSPropertyOp31
 70
     1
102
RTVSPropertyOp32
 70
     1
  0
XRECORD
  5
390
102
{ACAD_REACTORS
330
38F
102
}
330
38F
100
AcDbXrecord
280
     1
102
RTVSPropertyOp0
 70
     1
102
RTVSPropertyOp1
 70
     1
102
RTVSPropertyOp2
 70
     1
102
RTVSPropertyOp3
 70
     1
102
RTVSPropertyOp4
 70
     1
102
RTVSPropertyOp5
 70
     1
102
RTVSPropertyOp6
 70
     1
102
RTVSPropertyOp7
 70
     1
102
RTVSPropertyOp8
 70
     1
102
RTVSPropertyOp9
 70
     1
102
RTVSPropertyOp10
 70
     1
102
RTVSPropertyOp11
 70
     1
102
RTVSPropertyOp12
 70
     1
102
RTVSPropertyOp13
 70
     1
102
RTVSPropertyOp14
 70
     1
102
RTVSPropertyOp15
 70
     1
102
RTVSPropertyOp16
 70
     1
102
RTVSPropertyOp17
 70
     1
102
RTVSPropertyOp18
 70
     1
102
RTVSPropertyOp19
 70
     1
102
RTVSPropertyOp20
 70
     1
102
RTVSPropertyOp21
 70
     1
102
RTVSPropertyOp22
 70
     1
102
RTVSPropertyOp23
 70
     1
102
RTVSPropertyOp24
 70
     1
102
RTVSPropertyOp25
 70
     1
102
RTVSPropertyOp26
 70
     1
102
RTVSPropertyOp27
 70
     1
102
RTVSPropertyOp28
 70
     1
102
RTVSPropertyOp29
 70
     1
102
RTVSPropertyOp30
 70
     1
102
RTVSPropertyOp31
 70
     1
102
RTVSPropertyOp32
 70
     1
  0
ENDSEC
  0
EOF
