  0
SECTION
  2
HEADER
  9
$ACADVER
  1
AC1015
  9
$ACADMAINTVER
 70
     6
  9
$DWGCODEPAGE
  3
ANSI_949
  9
$INSBASE
 10
0.0
 20
0.0
 30
0.0
  9
$EXTMIN
 10
1.000000000000000E+20
 20
1.000000000000000E+20
 30
1.000000000000000E+20
  9
$EXTMAX
 10
-1.000000000000000E+20
 20
-1.000000000000000E+20
 30
-1.000000000000000E+20
  9
$LIMMIN
 10
0.0
 20
0.0
  9
$LIMMAX
 10
12.0
 20
9.0
  9
$ORTHOMODE
 70
     0
  9
$REGENMODE
 70
     1
  9
$FILLMODE
 70
     1
  9
$QTEXTMODE
 70
     0
  9
$MIRRTEXT
 70
     1
  9
$LTSCALE
 40
1.0
  9
$ATTMODE
 70
     1
  9
$TEXTSIZE
 40
0.2
  9
$TRACEWID
 40
0.05
  9
$TEXTSTYLE
  7
Standard
  9
$CLAYER
  8
0
  9
$CELTYPE
  6
ByLayer
  9
$CECOLOR
 62
   256
  9
$CELTSCALE
 40
1.0
  9
$DISPSILH
 70
     0
  9
$DIMSCALE
 40
1.0
  9
$DIMASZ
 40
0.18
  9
$DIMEXO
 40
0.0625
  9
$DIMDLI
 40
0.38
  9
$DIMRND
 40
0.0
  9
$DIMDLE
 40
0.0
  9
$DIMEXE
 40
0.18
  9
$DIMTP
 40
0.0
  9
$DIMTM
 40
0.0
  9
$DIMTXT
 40
0.18
  9
$DIMCEN
 40
0.09
  9
$DIMTSZ
 40
0.0
  9
$DIMTOL
 70
     0
  9
$DIMLIM
 70
     0
  9
$DIMTIH
 70
     1
  9
$DIMTOH
 70
     1
  9
$DIMSE1
 70
     0
  9
$DIMSE2
 70
     0
  9
$DIMTAD
 70
     0
  9
$DIMZIN
 70
     0
  9
$DIMBLK
  1

  9
$DIMASO
 70
     1
  9
$DIMSHO
 70
     1
  9
$DIMPOST
  1

  9
$DIMAPOST
  1

  9
$DIMALT
 70
     0
  9
$DIMALTD
 70
     2
  9
$DIMALTF
 40
25.4
  9
$DIMLFAC
 40
1.0
  9
$DIMTOFL
 70
     0
  9
$DIMTVP
 40
0.0
  9
$DIMTIX
 70
     0
  9
$DIMSOXD
 70
     0
  9
$DIMSAH
 70
     0
  9
$DIMBLK1
  1

  9
$DIMBLK2
  1

  9
$DIMSTYLE
  2
Standard
  9
$DIMCLRD
 70
     0
  9
$DIMCLRE
 70
     0
  9
$DIMCLRT
 70
     0
  9
$DIMTFAC
 40
1.0
  9
$DIMGAP
 40
0.09
  9
$DIMJUST
 70
     0
  9
$DIMSD1
 70
     0
  9
$DIMSD2
 70
     0
  9
$DIMTOLJ
 70
     1
  9
$DIMTZIN
 70
     0
  9
$DIMALTZ
 70
     0
  9
$DIMALTTZ
 70
     0
  9
$DIMUPT
 70
     0
  9
$DIMDEC
 70
     4
  9
$DIMTDEC
 70
     4
  9
$DIMALTU
 70
     2
  9
$DIMALTTD
 70
     2
  9
$DIMTXSTY
  7
Standard
  9
$DIMAUNIT
 70
     0
  9
$DIMADEC
 70
     0
  9
$DIMALTRND
 40
0.0
  9
$DIMAZIN
 70
     0
  9
$DIMDSEP
 70
    46
  9
$DIMATFIT
 70
     3
  9
$DIMFRAC
 70
     0
  9
$DIMLDRBLK
  1

  9
$DIMLUNIT
 70
     2
  9
$DIMLWD
 70
    -2
  9
$DIMLWE
 70
    -2
  9
$DIMTMOVE
 70
     0
  9
$LUNITS
 70
     2
  9
$LUPREC
 70
     4
  9
$SKETCHINC
 40
0.1
  9
$FILLETRAD
 40
0.5
  9
$AUNITS
 70
     0
  9
$AUPREC
 70
     0
  9
$MENU
  1
.
  9
$ELEVATION
 40
0.0
  9
$PELEVATION
 40
0.0
  9
$THICKNESS
 40
0.0
  9
$LIMCHECK
 70
     0
  9
$CHAMFERA
 40
0.5
  9
$CHAMFERB
 40
0.5
  9
$CHAMFERC
 40
1.0
  9
$CHAMFERD
 40
0.0
  9
$SKPOLY
 70
     0
  9
$TDCREATE
 40
2456522.616964953
  9
$TDUCREATE
 40
2456522.116964953
  9
$TDUPDATE
 40
2456522.616992199
  9
$TDUUPDATE
 40
2456522.116992199
  9
$TDINDWG
 40
0.0000000116
  9
$TDUSRTIMER
 40
0.0000000116
  9
$USRTIMER
 70
     1
  9
$ANGBASE
 50
0.0
  9
$ANGDIR
 70
     0
  9
$PDMODE
 70
     0
  9
$PDSIZE
 40
0.0
  9
$PLINEWID
 40
0.0
  9
$SPLFRAME
 70
     0
  9
$SPLINETYPE
 70
     6
  9
$SPLINESEGS
 70
     8
  9
$HANDSEED
  5
3B4
  9
$SURFTAB1
 70
     6
  9
$SURFTAB2
 70
     6
  9
$SURFTYPE
 70
     6
  9
$SURFU
 70
     6
  9
$SURFV
 70
     6
  9
$UCSBASE
  2

  9
$UCSNAME
  2

  9
$UCSORG
 10
0.0
 20
0.0
 30
0.0
  9
$UCSXDIR
 10
1.0
 20
0.0
 30
0.0
  9
$UCSYDIR
 10
0.0
 20
1.0
 30
0.0
  9
$UCSORTHOREF
  2

  9
$UCSORTHOVIEW
 70
     0
  9
$UCSORGTOP
 10
0.0
 20
0.0
 30
0.0
  9
$UCSORGBOTTOM
 10
0.0
 20
0.0
 30
0.0
  9
$UCSORGLEFT
 10
0.0
 20
0.0
 30
0.0
  9
$UCSORGRIGHT
 10
0.0
 20
0.0
 30
0.0
  9
$UCSORGFRONT
 10
0.0
 20
0.0
 30
0.0
  9
$UCSORGBACK
 10
0.0
 20
0.0
 30
0.0
  9
$PUCSBASE
  2

  9
$PUCSNAME
  2

  9
$PUCSORG
 10
0.0
 20
0.0
 30
0.0
  9
$PUCSXDIR
 10
1.0
 20
0.0
 30
0.0
  9
$PUCSYDIR
 10
0.0
 20
1.0
 30
0.0
  9
$PUCSORTHOREF
  2

  9
$PUCSORTHOVIEW
 70
     0
  9
$PUCSORGTOP
 10
0.0
 20
0.0
 30
0.0
  9
$PUCSORGBOTTOM
 10
0.0
 20
0.0
 30
0.0
  9
$PUCSORGLEFT
 10
0.0
 20
0.0
 30
0.0
  9
$PUCSORGRIGHT
 10
0.0
 20
0.0
 30
0.0
  9
$PUCSORGFRONT
 10
0.0
 20
0.0
 30
0.0
  9
$PUCSORGBACK
 10
0.0
 20
0.0
 30
0.0
  9
$USERI1
 70
     0
  9
$USERI2
 70
     0
  9
$USERI3
 70
     0
  9
$USERI4
 70
     0
  9
$USERI5
 70
     0
  9
$USERR1
 40
0.0
  9
$USERR2
 40
0.0
  9
$USERR3
 40
0.0
  9
$USERR4
 40
0.0
  9
$USERR5
 40
0.0
  9
$WORLDVIEW
 70
     1
  9
$SHADEDGE
 70
     3
  9
$SHADEDIF
 70
    70
  9
$TILEMODE
 70
     1
  9
$MAXACTVP
 70
    64
  9
$PINSBASE
 10
0.0
 20
0.0
 30
0.0
  9
$PLIMCHECK
 70
     0
  9
$PEXTMIN
 10
1.000000000000000E+20
 20
1.000000000000000E+20
 30
1.000000000000000E+20
  9
$PEXTMAX
 10
-1.000000000000000E+20
 20
-1.000000000000000E+20
 30
-1.000000000000000E+20
  9
$PLIMMIN
 10
0.0
 20
0.0
  9
$PLIMMAX
 10
12.0
 20
9.0
  9
$UNITMODE
 70
     0
  9
$VISRETAIN
 70
     1
  9
$PLINEGEN
 70
     0
  9
$PSLTSCALE
 70
     1
  9
$TREEDEPTH
 70
  3020
  9
$CMLSTYLE
  2
Standard
  9
$CMLJUST
 70
     0
  9
$CMLSCALE
 40
1.0
  9
$PROXYGRAPHICS
 70
     1
  9
$MEASUREMENT
 70
     0
  9
$CELWEIGHT
370
    -1
  9
$ENDCAPS
280
     0
  9
$JOINSTYLE
280
     0
  9
$LWDISPLAY
290
     1
  9
$INSUNITS
 70
     4
  9
$HYPERLINKBASE
  1

  9
$STYLESHEET
  1

  9
$XEDIT
290
     1
  9
$CEPSNTYPE
380
     0
  9
$PSTYLEMODE
290
     1
  9
$FINGERPRINTGUID
  2
{BA23DDCF-A5E8-4362-B4F2-3137888E36C7}
  9
$VERSIONGUID
  2
{FAEB1C32-E019-11D5-929B-00C0DF256EC4}
  9
$EXTNAMES
290
     1
  9
$PSVPSCALE
 40
0.0
  9
$OLESTARTUP
290
     0
  0
ENDSEC
  0
SECTION
  2
CLASSES
  0
CLASS
  1
ACDBDICTIONARYWDFLT
  2
AcDbDictionaryWithDefault
  3
ObjectDBX Classes
 90
        0
280
     0
281
     0
  0
CLASS
  1
VISUALSTYLE
  2
AcDbVisualStyle
  3
ObjectDBX Classes
 90
     4095
280
     0
281
     0
  0
CLASS
  1
MATERIAL
  2
AcDbMaterial
  3
ObjectDBX Classes
 90
     1153
280
     0
281
     0
  0
CLASS
  1
SPATIAL_FILTER
  2
AcDbSpatialFilter
  3
ObjectDBX Classes
 90
        0
280
     0
281
     0
  0
CLASS
  1
WIPEOUT
  2
AcDbWipeout
  3
WipeOut|AutoCAD Express Tool|expresstools@autodesk.com
 90
      127
280
     0
281
     1
  0
CLASS
  1
SCALE
  2
AcDbScale
  3
ObjectDBX Classes
 90
     1153
280
     0
281
     0
  0
CLASS
  1
DICTIONARYVAR
  2
AcDbDictionaryVar
  3
ObjectDBX Classes
 90
        0
280
     0
281
     0
  0
CLASS
  1
ACDBPLACEHOLDER
  2
AcDbPlaceHolder
  3
ObjectDBX Classes
 90
        0
280
     0
281
     0
  0
CLASS
  1
LAYOUT
  2
AcDbLayout
  3
ObjectDBX Classes
 90
        0
280
     0
281
     0
  0
ENDSEC
  0
SECTION
  2
TABLES
  0
TABLE
  2
VPORT
  5
8
330
0
100
AcDbSymbolTable
 70
     1
  0
VPORT
  5
29
330
8
100
AcDbSymbolTableRecord
100
AcDbViewportTableRecord
  2
*Active
 70
     0
 10
0.0
 20
0.0
 11
1.0
 21
1.0
 12
152.240064226362
 22
97.52949511571411
 13
0.0
 23
0.0
 14
0.5
 24
0.5
 15
0.5
 25
0.5
 16
0.0
 26
0.0
 36
1.0
 17
0.0
 27
0.0
 37
0.0
 40
194.8252579226682
 41
1.541739157531154
 42
50.0
 43
0.0
 44
0.0
 50
0.0
 51
0.0
 71
     0
 72
   100
 73
     1
 74
     3
 75
     0
 76
     0
 77
     0
 78
     0
281
     0
 65
     1
110
0.0
120
0.0
130
0.0
111
1.0
121
0.0
131
0.0
112
0.0
122
1.0
132
0.0
 79
     0
146
0.0
  0
ENDTAB
  0
TABLE
  2
LTYPE
  5
5
330
0
100
AcDbSymbolTable
 70
     3
  0
LTYPE
  5
14
330
5
100
AcDbSymbolTableRecord
100
AcDbLinetypeTableRecord
  2
ByBlock
 70
     0
  3

 72
    65
 73
     0
 40
0.0
  0
LTYPE
  5
15
330
5
100
AcDbSymbolTableRecord
100
AcDbLinetypeTableRecord
  2
ByLayer
 70
     0
  3

 72
    65
 73
     0
 40
0.0
  0
LTYPE
  5
16
330
5
100
AcDbSymbolTableRecord
100
AcDbLinetypeTableRecord
  2
Continuous
 70
     0
  3
Solid line
 72
    65
 73
     0
 40
0.0
  0
LTYPE
  5
255
330
5
100
AcDbSymbolTableRecord
100
AcDbLinetypeTableRecord
  2
Contour Line
 70
     0
  3
- - - - - 
 72
    65
 73
     2
 40
2.0
 49
1.0
 74
     0
 49
-1.0
 74
     0
  0
LTYPE
  5
35C
330
5
100
AcDbSymbolTableRecord
100
AcDbLinetypeTableRecord
  2
Wipeout_Contour
 70
     0
  3
- - - - - 
 72
    65
 73
     2
 40
1000.0
 49
0.0
 74
     0
 49
-1000.0
 74
     0
  0
ENDTAB
  0
TABLE
  2
LAYER
  5
2
330
0
100
AcDbSymbolTable
 70
     3
  0
LAYER
  5
10
330
2
100
AcDbSymbolTableRecord
100
AcDbLayerTableRecord
  2
0
 70
     0
 62
     7
  6
Continuous
370
    -3
390
F
  0
LAYER
  5
40
330
2
100
AcDbSymbolTableRecord
100
AcDbLayerTableRecord
  2
Doc_ Finishes
 70
     0
 62
     7
  6
Continuous
370
    -3
390
F
  0
LAYER
  5
DB
330
2
100
AcDbSymbolTableRecord
100
AcDbLayerTableRecord
  2
Doc_ Floor
 70
     0
 62
     7
  6
Continuous
370
    -3
390
F
  0
ENDTAB
  0
TABLE
  2
STYLE
  5
3
330
0
100
AcDbSymbolTable
 70
     3
  0
STYLE
  5
11
330
3
100
AcDbSymbolTableRecord
100
AcDbTextStyleTableRecord
  2
Standard
 70
     0
 40
0.0
 41
1.0
 50
0.0
 71
     0
 42
0.2
  3
txt
  4

  0
STYLE
  5
D6
330
3
100
AcDbSymbolTableRecord
100
AcDbTextStyleTableRecord
  2
GENERATED_STYLE_1
 70
     0
 40
0.0
 41
1.0
 50
0.0
 71
     0
 42
0.2
  3

  4

1001
ACAD
1000
Century Gothic
1071
       34
  0
STYLE
  5
D9
330
3
100
AcDbSymbolTableRecord
100
AcDbTextStyleTableRecord
  2
GENERATED_STYLE_2
 70
     0
 40
0.0
 41
1.0
 50
0.0
 71
     0
 42
0.2
  3

  4

1001
ACAD
1000
DilleniaUPC
1071
 33554450
  0
ENDTAB
  0
TABLE
  2
VIEW
  5
6
330
0
100
AcDbSymbolTable
 70
     0
  0
ENDTAB
  0
TABLE
  2
UCS
  5
7
330
0
100
AcDbSymbolTable
 70
     0
  0
ENDTAB
  0
TABLE
  2
APPID
  5
9
330
0
100
AcDbSymbolTable
 70
     1
  0
APPID
  5
12
330
9
100
AcDbSymbolTableRecord
100
AcDbRegAppTableRecord
  2
ACAD
 70
     0
  0
ENDTAB
  0
TABLE
  2
DIMSTYLE
  5
A
330
0
100
AcDbSymbolTable
 70
     1
100
AcDbDimStyleTable
  0
DIMSTYLE
105
27
330
A
100
AcDbSymbolTableRecord
100
AcDbDimStyleTableRecord
  2
Standard
 70
     0
178
     0
340
11
  0
ENDTAB
  0
TABLE
  2
BLOCK_RECORD
  5
1
330
0
100
AcDbSymbolTable
 70
     3
  0
BLOCK_RECORD
  5
1F
330
1
100
AcDbSymbolTableRecord
100
AcDbBlockTableRecord
  2
*Model_Space
340
22
  0
BLOCK_RECORD
  5
1B
330
1
100
AcDbSymbolTableRecord
100
AcDbBlockTableRecord
  2
*Paper_Space
340
1E
  0
BLOCK_RECORD
  5
E3
330
1
100
AcDbSymbolTableRecord
100
AcDbBlockTableRecord
  2
Drawing_1_2
340
0
102
{BLKREFS
331
355
102
}
  0
BLOCK_RECORD
  5
35E
330
1
100
AcDbSymbolTableRecord
100
AcDbBlockTableRecord
  2
C-TRS9-11 PIPE PENETRATION DETA_STORY_MARKER
340
0
  0
ENDTAB
  0
ENDSEC
  0
SECTION
  2
BLOCKS
  0
BLOCK
  5
20
330
1F
100
AcDbEntity
  8
0
100
AcDbBlockBegin
  2
*Model_Space
 70
     0
 10
0.0
 20
0.0
 30
0.0
  3
*Model_Space
  1

  0
ENDBLK
  5
21
330
1F
100
AcDbEntity
  8
0
100
AcDbBlockEnd
  0
BLOCK
  5
1C
330
1B
100
AcDbEntity
 67
     1
  8
0
100
AcDbBlockBegin
  2
*Paper_Space
 70
     0
 10
0.0
 20
0.0
 30
0.0
  3
*Paper_Space
  1

  0
ENDBLK
  5
1D
330
1B
100
AcDbEntity
 67
     1
  8
0
100
AcDbBlockEnd
  0
BLOCK
  5
E4
330
E3
100
AcDbEntity
  8
0
100
AcDbBlockBegin
  2
Drawing_1_2
 70
     0
 10
123.4347811420589
 20
154.9677208573375
 30
0.0
  3
Drawing_1_2
  1

  0
HATCH
  5
E6
330
E3
100
AcDbEntity
  8
0
  6
Continuous
 62
   255
370
    18
100
AcDbHatch
 10
0.0
 20
0.0
 30
0.0
210
0.0
220
0.0
230
1.0
  2
SOLID
 70
     1
 71
     0
 91
        1
 92
        3
 72
     0
 73
     1
 93
        6
 10
143.8977451533764
 20
156.5740697045734
 10
143.4672076034533
 20
155.0405762289878
 10
145.4457381337452
 20
153.062045698696
 10
153.963189856592
 20
148.0865787014066
 10
158.2542671240046
 20
152.3776559688192
 10
146.2156193199376
 20
158.1683580507426
 97
        0
 75
     0
 76
     1
 98
        0
  0
LINE
  5
E7
330
E3
100
AcDbEntity
  8
0
  6
Continuous
100
AcDbLine
 10
143.4672066511828
 20
155.0405758134323
 30
0.0
 11
143.8977447518539
 21
156.5740691067123
 31
0.0
  0
LINE
  5
E8
330
E3
100
AcDbEntity
  8
0
  6
Continuous
100
AcDbLine
 10
145.4457398352027
 20
153.0620467457309
 30
0.0
 11
143.4672066511828
 21
155.0405758134323
 31
0.0
  0
LINE
  5
E9
330
E3
100
AcDbEntity
  8
0
  6
Continuous
100
AcDbLine
 10
153.9631890245925
 20
148.0865784833516
 30
0.0
 11
145.4457398352027
 21
153.0620467457309
 31
0.0
  0
LINE
  5
EA
330
E3
100
AcDbEntity
  8
0
  6
Continuous
100
AcDbLine
 10
158.2542658245233
 20
152.3776552832823
 30
0.0
 11
153.9631890245925
 21
148.0865784833516
 31
0.0
  0
LINE
  5
EB
330
E3
100
AcDbEntity
  8
0
  6
Continuous
100
AcDbLine
 10
146.2156190002197
 20
158.1683563078907
 30
0.0
 11
158.2542658245233
 21
152.3776552832823
 31
0.0
  0
LINE
  5
EC
330
E3
100
AcDbEntity
  8
0
  6
Continuous
100
AcDbLine
 10
143.8977447518539
 20
156.5740691067123
 30
0.0
 11
146.2156190002197
 21
158.1683563078907
 31
0.0
  0
HATCH
  5
ED
330
E3
100
AcDbEntity
  8
0
  6
Continuous
 62
   255
370
    18
100
AcDbHatch
 10
0.0
 20
0.0
 30
0.0
210
0.0
220
0.0
230
1.0
  2
SOLID
 70
     1
 71
     0
 91
        1
 92
        3
 72
     0
 73
     1
 93
        3
 10
120.800528954303
 20
133.2649658171974
 10
125.611214880951
 20
130.4522616743554
 10
140.0777985458975
 20
135.3903525932175
 97
        0
 75
     0
 76
     1
 98
        0
  0
LINE
  5
EE
330
E3
100
AcDbEntity
  8
0
  6
Continuous
100
AcDbLine
 10
125.6112138726327
 20
130.4522618048794
 30
0.0
 11
120.800530072369
 21
133.2649669325381
 31
0.0
  0
LINE
  5
EF
330
E3
100
AcDbEntity
  8
0
  6
Continuous
100
AcDbLine
 10
140.0777970693041
 20
135.390353895296
 30
0.0
 11
125.6112138726327
 21
130.4522618048794
 31
0.0
  0
LINE
  5
F0
330
E3
100
AcDbEntity
  8
0
  6
Continuous
100
AcDbLine
 10
120.800530072369
 20
133.2649669325381
 30
0.0
 11
140.0777970693041
 21
135.390353895296
 31
0.0
  0
HATCH
  5
F1
330
E3
100
AcDbEntity
  8
0
  6
Continuous
 62
   254
370
    13
100
AcDbHatch
 10
0.0
 20
0.0
 30
0.0
210
0.0
220
0.0
230
1.0
  2
SOLID
 70
     1
 71
     0
 91
        1
 92
        3
 72
     0
 73
     1
 93
        4
 10
133.5796250328574
 20
171.2242651066864
 10
128.8050321660489
 20
172.1763814479364
 10
190.7262165499272
 20
145.8424081680283
 10
195.6616996610917
 20
145.0624794659528
 97
        0
 75
     0
 76
     1
 98
        0
  0
HATCH
  5
F2
330
E3
100
AcDbEntity
  8
0
  6
Continuous
 62
   254
370
    13
100
AcDbHatch
 10
0.0
 20
0.0
 30
0.0
210
0.0
220
0.0
230
1.0
  2
SOLID
 70
     1
 71
     0
 91
        1
 92
        3
 72
     0
 73
     1
 93
        3
 10
195.5203679098768
 20
144.9342800563434
 10
193.6818603074089
 20
145.2239789263607
 10
195.3800392523565
 20
144.5049785129836
 97
        0
 75
     0
 76
     1
 98
        0
  0
HATCH
  5
F3
330
E3
100
AcDbEntity
  8
0
  6
Continuous
 62
   254
370
    13
100
AcDbHatch
 10
0.0
 20
0.0
 30
0.0
210
0.0
220
0.0
230
1.0
  2
SOLID
 70
     1
 71
     0
 91
        1
 92
        3
 72
     0
 73
     1
 93
        7
 10
188.9467056246269
 20
144.0760288374537
 10
188.9614700712175
 20
144.0509825973606
 10
190.5228194595298
 20
143.3750743066555
 10
190.5316278010839
 20
143.3349927491163
 10
191.1273268645357
 20
145.1693298777613
 10
190.6764939321034
 20
145.3617361342758
 10
189.3661807511902
 20
143.8944610797063
 97
        0
 75
     0
 76
     1
 98
        0
  0
HATCH
  5
F4
330
E3
100
AcDbEntity
  8
0
  6
Continuous
 62
   254
370
    13
100
AcDbHatch
 10
0.0
 20
0.0
 30
0.0
210
0.0
220
0.0
230
1.0
  2
SOLID
 70
     1
 71
     0
 91
        1
 92
        3
 72
     0
 73
     1
 93
        4
 10
190.6764939081401
 20
145.3617361071847
 10
191.1273269908182
 20
145.1693301521246
 10
195.3800391497802
 20
144.5049785669517
 10
194.929241254681
 20
144.6958441789192
 97
        0
 75
     0
 76
     1
 98
        0
  0
HATCH
  5
F5
330
E3
100
AcDbEntity
  8
0
  6
Continuous
 62
   254
370
    13
100
AcDbHatch
 10
0.0
 20
0.0
 30
0.0
210
0.0
220
0.0
230
1.0
  2
SOLID
 70
     1
 71
     0
 91
        1
 92
        3
 72
     0
 73
     1
 93
        4
 10
195.5120062098435
 20
144.6045951488082
 10
195.4746091781472
 20
144.4902049664141
 10
208.9818908498054
 20
142.3801198689842
 10
208.5321717676921
 20
142.5659072859182
 97
        0
 75
     0
 76
     1
 98
        0
  0
HATCH
  5
F6
330
E3
100
AcDbEntity
  8
0
  6
Continuous
 62
   254
370
    13
100
AcDbHatch
 10
0.0
 20
0.0
 30
0.0
210
0.0
220
0.0
230
1.0
  2
SOLID
 70
     1
 71
     0
 91
        1
 92
        3
 72
     0
 73
     1
 93
        5
 10
188.849949269832
 20
144.2401644742527
 10
188.9467059333894
 20
144.0760286437395
 10
189.3661805484302
 20
143.8944611677468
 10
189.9517662953958
 20
144.5501938891957
 10
189.3643379128832
 20
144.6405685538242
 97
        0
 75
     0
 76
     1
 98
        0
  0
HATCH
  5
F7
330
E3
100
AcDbEntity
  8
0
  6
Continuous
 62
   253
370
    25
100
AcDbHatch
 10
0.0
 20
0.0
 30
0.0
210
0.0
220
0.0
230
1.0
  2
SOLID
 70
     1
 71
     0
 91
        1
 92
        3
 72
     0
 73
     1
 93
        6
 10
189.3643380806134
 20
144.6405687002318
 10
189.9517665293431
 20
144.5501938790851
 10
190.6764937580059
 20
145.3617359421766
 10
194.9292416809479
 20
144.6958439593523
 10
193.6818602008376
 20
145.2239789302836
 10
190.7145096326148
 20
145.6915527397911
 97
        0
 75
     0
 76
     1
 98
        0
  0
HATCH
  5
F8
330
E3
100
AcDbEntity
  8
0
  6
Continuous
 62
   253
370
    25
100
AcDbHatch
 10
0.0
 20
0.0
 30
0.0
210
0.0
220
0.0
230
1.0
  2
SOLID
 70
     1
 71
     0
 91
        1
 92
        3
 72
     0
 73
     1
 93
        5
 10
204.4074866909593
 20
144.2698935721736
 10
193.347294162801
 20
146.0377849427935
 10
195.6616994016758
 20
145.0624793748184
 10
195.5120061789366
 20
144.6045952047972
 10
204.7093465371912
 20
143.1644823684734
 97
        0
 75
     0
 76
     1
 98
        0
  0
HATCH
  5
F9
330
E3
100
AcDbEntity
  8
0
  6
Continuous
 62
   254
370
    13
100
AcDbHatch
 10
0.0
 20
0.0
 30
0.0
210
0.0
220
0.0
230
1.0
  2
SOLID
 70
     1
 71
     0
 91
        1
 92
        3
 72
     0
 73
     1
 93
        4
 10
191.9191345497786
 20
146.6396202295818
 10
193.3472945068363
 20
146.0377846714016
 10
204.4074866598608
 20
144.2698936322395
 10
202.9810493632283
 20
144.8591820943421
 97
        0
 75
     0
 76
     1
 98
        0
  0
HATCH
  5
FA
330
E3
100
AcDbEntity
  8
0
  6
Continuous
 62
   253
370
    25
100
AcDbHatch
 10
0.0
 20
0.0
 30
0.0
210
0.0
220
0.0
230
1.0
  2
SOLID
 70
     1
 71
     0
 91
        1
 92
        3
 72
     0
 73
     1
 93
        4
 10
198.9842622252609
 20
146.5103312873094
 10
187.9196421788211
 20
148.3250324588218
 10
191.9191343337292
 20
146.6396205588325
 10
199.2720064219672
 20
145.4561603440482
 97
        0
 75
     0
 76
     1
 98
        0
  0
HATCH
  5
FB
330
E3
100
AcDbEntity
  8
0
  6
Continuous
 62
   254
370
    13
100
AcDbHatch
 10
0.0
 20
0.0
 30
0.0
210
0.0
220
0.0
230
1.0
  2
SOLID
 70
     1
 71
     0
 91
        1
 92
        3
 72
     0
 73
     1
 93
        4
 10
197.6017141232926
 20
147.081488317351
 10
186.5368853704155
 20
148.9077349284964
 10
187.9196420751508
 20
148.3250321747054
 10
198.9842621346488
 20
146.5103312924086
 97
        0
 75
     0
 76
     1
 98
        0
  0
HATCH
  5
FC
330
E3
100
AcDbEntity
  8
0
  6
Continuous
 62
   253
370
    25
100
AcDbHatch
 10
0.0
 20
0.0
 30
0.0
210
0.0
220
0.0
230
1.0
  2
SOLID
 70
     1
 71
     0
 91
        1
 92
        3
 72
     0
 73
     1
 93
        4
 10
182.6635413647024
 20
150.5399866083054
 10
186.5368849022729
 20
148.9077349766539
 10
194.0015940215229
 20
147.6756869009568
 10
193.7269671669265
 20
148.682220235305
 97
        0
 75
     0
 76
     1
 98
        0
  0
HATCH
  5
FD
330
E3
100
AcDbEntity
  8
0
  6
Continuous
 62
   254
370
    13
100
AcDbHatch
 10
0.0
 20
0.0
 30
0.0
210
0.0
220
0.0
230
1.0
  2
SOLID
 70
     1
 71
     0
 91
        1
 92
        3
 72
     0
 73
     1
 93
        4
 10
181.3240545260957
 20
151.1044547723177
 10
182.6635401807968
 20
150.5399869461076
 10
193.7269671103429
 20
148.6822204186122
 10
192.38631386884
 20
149.2360698463723
 97
        0
 75
     0
 76
     1
 98
        0
  0
HATCH
  5
FE
330
E3
100
AcDbEntity
  8
0
  6
Continuous
 62
   253
370
    25
100
AcDbHatch
 10
0.0
 20
0.0
 30
0.0
210
0.0
220
0.0
230
1.0
  2
SOLID
 70
     1
 71
     0
 91
        1
 92
        3
 72
     0
 73
     1
 93
        4
 10
177.5709834526437
 20
152.6860233452267
 10
181.3240560011045
 20
151.104454537827
 10
188.8905150294038
 20
149.8265003830446
 10
188.628100891439
 20
150.7886594330261
 97
        0
 75
     0
 76
     1
 98
        0
  0
HATCH
  5
FF
330
E3
100
AcDbEntity
  8
0
  6
Continuous
 62
   254
370
    13
100
AcDbHatch
 10
0.0
 20
0.0
 30
0.0
210
0.0
220
0.0
230
1.0
  2
SOLID
 70
     1
 71
     0
 91
        1
 92
        3
 72
     0
 73
     1
 93
        4
 10
187.3274659102429
 20
151.3259766416703
 10
176.2727652556775
 20
153.2331003525906
 10
177.5709831344866
 20
152.6860232373367
 10
188.6281015482148
 20
150.7886587833263
 97
        0
 75
     0
 76
     1
 98
        0
  0
HATCH
  5
100
330
E3
100
AcDbEntity
  8
0
  6
Continuous
 62
   253
370
    25
100
AcDbHatch
 10
0.0
 20
0.0
 30
0.0
210
0.0
220
0.0
230
1.0
  2
SOLID
 70
     1
 71
     0
 91
        1
 92
        3
 72
     0
 73
     1
 93
        4
 10
183.6806092186667
 20
152.8325626533606
 10
172.6344529488154
 20
154.7663085172378
 10
176.2727656129173
 20
153.2331004534634
 10
183.9316302189422
 20
151.911816309942
 97
        0
 75
     0
 76
     1
 98
        0
  0
HATCH
  5
101
330
E3
100
AcDbEntity
  8
0
  6
Continuous
 62
   254
370
    13
100
AcDbHatch
 10
0.0
 20
0.0
 30
0.0
210
0.0
220
0.0
230
1.0
  2
SOLID
 70
     1
 71
     0
 91
        1
 92
        3
 72
     0
 73
     1
 93
        4
 10
182.4182277112581
 20
153.3540767173089
 10
171.3756301746883
 20
155.2967845276931
 10
172.6344555123406
 20
154.7663076021252
 10
183.6806091065572
 20
152.8325627292416
 97
        0
 75
     0
 76
     1
 98
        0
  0
HATCH
  5
102
330
E3
100
AcDbEntity
  8
0
  6
Continuous
 62
   253
370
    25
100
AcDbHatch
 10
0.0
 20
0.0
 30
0.0
210
0.0
220
0.0
230
1.0
  2
SOLID
 70
     1
 71
     0
 91
        1
 92
        3
 72
     0
 73
     1
 93
        4
 10
167.8468865197777
 20
156.7838198111646
 10
171.3756298017759
 20
155.2967848096827
 10
179.1182244165602
 20
153.9346411861328
 10
178.8778485505964
 20
154.8166750062867
 97
        0
 75
     0
 76
     1
 98
        0
  0
HATCH
  5
103
330
E3
100
AcDbEntity
  8
0
  6
Continuous
 62
   254
370
    13
100
AcDbHatch
 10
0.0
 20
0.0
 30
0.0
210
0.0
220
0.0
230
1.0
  2
SOLID
 70
     1
 71
     0
 91
        1
 92
        3
 72
     0
 73
     1
 93
        4
 10
177.6520568796536
 20
155.3230723025166
 10
166.6256949057617
 20
157.2984377199398
 10
167.8468869098126
 20
156.7838194566554
 10
178.877848224572
 20
154.8166743203753
 97
        0
 75
     0
 76
     1
 98
        0
  0
HATCH
  5
104
330
E3
100
AcDbEntity
  8
0
  6
Continuous
 62
   253
370
    25
100
AcDbHatch
 10
0.0
 20
0.0
 30
0.0
210
0.0
220
0.0
230
1.0
  2
SOLID
 70
     1
 71
     0
 91
        1
 92
        3
 72
     0
 73
     1
 93
        4
 10
163.2016472988864
 20
158.7413536277054
 10
166.6256946946465
 20
157.2984380608591
 10
174.4439716851766
 20
155.8977988122025
 10
174.21356039028
 20
156.7435809849104
 97
        0
 75
     0
 76
     1
 98
        0
  0
HATCH
  5
105
330
E3
100
AcDbEntity
  8
0
  6
Continuous
 62
   254
370
    13
100
AcDbHatch
 10
0.0
 20
0.0
 30
0.0
210
0.0
220
0.0
230
1.0
  2
SOLID
 70
     1
 71
     0
 91
        1
 92
        3
 72
     0
 73
     1
 93
        4
 10
173.0227908077757
 20
157.2355103858277
 10
162.0164187092927
 20
159.240816689326
 10
163.2016483993334
 20
158.7413532506289
 10
174.2135604728733
 20
156.7435812841277
 97
        0
 75
     0
 76
     1
 98
        0
  0
HATCH
  5
106
330
E3
100
AcDbEntity
  8
0
  6
Continuous
 62
   253
370
    25
100
AcDbHatch
 10
0.0
 20
0.0
 30
0.0
210
0.0
220
0.0
230
1.0
  2
SOLID
 70
     1
 71
     0
 91
        1
 92
        3
 72
     0
 73
     1
 93
        4
 10
158.6924789937618
 20
160.641546827417
 10
162.016418394457
 20
159.2408165134948
 10
169.9029109331818
 20
157.8039373551431
 10
169.6818412778638
 20
158.6157212081604
 97
        0
 75
     0
 76
     1
 98
        0
  0
HATCH
  5
107
330
E3
100
AcDbEntity
  8
0
  6
Continuous
 62
   254
370
    13
100
AcDbHatch
 10
0.0
 20
0.0
 30
0.0
210
0.0
220
0.0
230
1.0
  2
SOLID
 70
     1
 71
     0
 91
        1
 92
        3
 72
     0
 73
     1
 93
        4
 10
168.5246140328538
 20
159.0937936537367
 10
157.5416472336544
 20
161.1265143882436
 10
158.6924784648674
 20
160.6415465533839
 10
169.6818412326984
 20
158.6157211794874
 97
        0
 75
     0
 76
     1
 98
        0
  0
HATCH
  5
108
330
E3
100
AcDbEntity
  8
0
  6
Continuous
 62
   253
370
    25
100
AcDbHatch
 10
0.0
 20
0.0
 30
0.0
210
0.0
220
0.0
230
1.0
  2
SOLID
 70
     1
 71
     0
 91
        1
 92
        3
 72
     0
 73
     1
 93
        4
 10
165.2771179510722
 20
160.4353961844132
 10
154.3134834578698
 20
162.4868830685896
 10
157.5416457236686
 20
161.1265145836586
 10
165.4894171149407
 20
159.6555462261888
 97
        0
 75
     0
 76
     1
 98
        0
  0
HATCH
  5
109
330
E3
100
AcDbEntity
  8
0
  6
Continuous
 62
   254
370
    13
100
AcDbHatch
 10
0.0
 20
0.0
 30
0.0
210
0.0
220
0.0
230
1.0
  2
SOLID
 70
     1
 71
     0
 91
        1
 92
        3
 72
     0
 73
     1
 93
        4
 10
164.1520356996611
 20
160.9001893442939
 10
153.1955763381466
 20
162.957976635752
 10
154.3134841678845
 20
162.4868831988495
 10
165.2771180626488
 20
160.4353965046565
 97
        0
 75
     0
 76
     1
 98
        0
  0
HATCH
  5
10A
330
E3
100
AcDbEntity
  8
0
  6
Continuous
 62
   253
370
    25
100
AcDbHatch
 10
0.0
 20
0.0
 30
0.0
210
0.0
220
0.0
230
1.0
  2
SOLID
 70
     1
 71
     0
 91
        1
 92
        3
 72
     0
 73
     1
 93
        4
 10
160.994126322703
 20
162.204781669268
 10
150.0591097313626
 20
164.2797038632267
 10
153.1955756904588
 20
162.9579767904476
 10
161.1981794160948
 20
161.4549680885706
 97
        0
 75
     0
 76
     1
 98
        0
  0
HATCH
  5
10B
330
E3
100
AcDbEntity
  8
0
  6
Continuous
 62
   254
370
    13
100
AcDbHatch
 10
0.0
 20
0.0
 30
0.0
210
0.0
220
0.0
230
1.0
  2
SOLID
 70
     1
 71
     0
 91
        1
 92
        3
 72
     0
 73
     1
 93
        4
 10
159.8998675154075
 20
162.6568411936511
 10
148.9727301535915
 20
164.7375111986101
 10
150.0591089027881
 20
164.2797042726082
 10
160.9941263907604
 20
162.2047821581906
 97
        0
 75
     0
 76
     1
 98
        0
  0
HATCH
  5
10C
330
E3
100
AcDbEntity
  8
0
  6
Continuous
 62
   253
370
    25
100
AcDbHatch
 10
0.0
 20
0.0
 30
0.0
210
0.0
220
0.0
230
1.0
  2
SOLID
 70
     1
 71
     0
 91
        1
 92
        3
 72
     0
 73
     1
 93
        4
 10
156.8278882678527
 20
163.9259348318259
 10
145.9241109555609
 20
166.0222190109726
 10
148.9727302082607
 20
164.7375112603403
 10
157.0241783239316
 20
163.2044098203667
 97
        0
 75
     0
 76
     1
 98
        0
  0
HATCH
  5
10D
330
E3
100
AcDbEntity
  8
0
  6
Continuous
 62
   254
370
    13
100
AcDbHatch
 10
0.0
 20
0.0
 30
0.0
210
0.0
220
0.0
230
1.0
  2
SOLID
 70
     1
 71
     0
 91
        1
 92
        3
 72
     0
 73
     1
 93
        4
 10
155.7632049083255
 20
164.3657758404216
 10
144.8679470969963
 20
166.46729358588
 10
145.9241098594377
 20
166.0222197326342
 10
156.8278893689879
 20
163.9259344402791
 97
        0
 75
     0
 76
     1
 98
        0
  0
HATCH
  5
10E
330
E3
100
AcDbEntity
  8
0
  6
Continuous
 62
   253
370
    25
100
AcDbHatch
 10
0.0
 20
0.0
 30
0.0
210
0.0
220
0.0
230
1.0
  2
SOLID
 70
     1
 71
     0
 91
        1
 92
        3
 72
     0
 73
     1
 93
        4
 10
152.773695507058
 20
165.6007995033147
 10
141.9035316564363
 20
167.7165175066955
 10
144.8679468760641
 20
166.4672936588258
 10
152.962666224494
 20
164.9059542273775
 97
        0
 75
     0
 76
     1
 98
        0
  0
HATCH
  5
10F
330
E3
100
AcDbEntity
  8
0
  6
Continuous
 62
   254
370
    13
100
AcDbHatch
 10
0.0
 20
0.0
 30
0.0
210
0.0
220
0.0
230
1.0
  2
SOLID
 70
     1
 71
     0
 91
        1
 92
        3
 72
     0
 73
     1
 93
        4
 10
140.876340501635
 20
168.1493824697446
 10
141.9035326108333
 20
167.7165171983023
 10
152.7736951611332
 20
165.6007997878257
 10
151.737402148604
 20
166.0289124145521
 97
        0
 75
     0
 76
     1
 98
        0
  0
HATCH
  5
110
330
E3
100
AcDbEntity
  8
0
  6
Continuous
 62
   253
370
    25
100
AcDbHatch
 10
0.0
 20
0.0
 30
0.0
210
0.0
220
0.0
230
1.0
  2
SOLID
 70
     1
 71
     0
 91
        1
 92
        3
 72
     0
 73
     1
 93
        4
 10
137.992688249995
 20
169.3645720784054
 10
140.8763409569841
 20
168.1493822916256
 10
149.009148160927
 20
166.5615656993699
 10
148.8270853885789
 20
167.2312185488487
 97
        0
 75
     0
 76
     1
 98
        0
  0
HATCH
  5
111
330
E3
100
AcDbEntity
  8
0
  6
Continuous
 62
   254
370
    13
100
AcDbHatch
 10
0.0
 20
0.0
 30
0.0
210
0.0
220
0.0
230
1.0
  2
SOLID
 70
     1
 71
     0
 91
        1
 92
        3
 72
     0
 73
     1
 93
        4
 10
136.993291979433
 20
169.7857237407028
 10
137.9926883020045
 20
169.3645719181442
 10
148.8270859959695
 20
167.2312195226862
 10
147.8180635888671
 20
167.6480655376265
 97
        0
 75
     0
 76
     1
 98
        0
  0
HATCH
  5
112
330
E3
100
AcDbEntity
  8
0
  6
Continuous
 62
   255
370
     0
100
AcDbHatch
 10
0.0
 20
0.0
 30
0.0
210
0.0
220
0.0
230
1.0
  2
SOLID
 70
     1
 71
     0
 91
        1
 92
        3
 72
     0
 73
     1
 93
        6
 10
190.7262167745284
 20
145.842407803116
 10
190.7145096748422
 20
145.6915527980283
 10
195.5203679450939
 20
144.9342800271625
 10
195.3800392174735
 20
144.5049785171614
 10
195.474609266179
 20
144.4902049413804
 10
195.6616996610917
 20
145.0624794659528
 97
        0
 75
     0
 76
     1
 98
        0
  0
HATCH
  5
113
330
E3
100
AcDbEntity
  8
0
  6
Continuous
100
AcDbHatch
 10
0.0
 20
0.0
 30
0.0
210
0.0
220
0.0
230
1.0
  2
Steel_0002
 70
     0
 71
     0
 91
        1
 92
        3
 72
     0
 73
     1
 93
        6
 10
190.7262167745284
 20
145.842407803116
 10
190.7145096748422
 20
145.6915527980283
 10
195.5203679450939
 20
144.9342800271625
 10
195.3800392174735
 20
144.5049785171614
 10
195.474609266179
 20
144.4902049413804
 10
195.6616996610917
 20
145.0624794659528
 97
        0
 75
     0
 76
     2
 52
0.0
 41
1.0
 77
     0
 78
     2
 53
58.68292131881505
 43
123.4347811420589
 44
154.9677208573375
 45
-1.396376815338328
 46
1.867829154228773
 79
     0
 53
58.68292131881505
 43
122.9693222036127
 44
155.5903305754138
 45
-1.396376815338328
 46
1.867829154228773
 79
     0
 98
        0
  0
HATCH
  5
114
330
E3
100
AcDbEntity
  8
0
  6
Continuous
 62
   255
370
     0
100
AcDbHatch
 10
0.0
 20
0.0
 30
0.0
210
0.0
220
0.0
230
1.0
  2
SOLID
 70
     1
 71
     0
 91
        1
 92
        3
 72
     0
 73
     1
 93
        4
 10
191.1273269797279
 20
145.169330169315
 10
190.5316288202434
 20
143.3349918930748
 10
208.804043749251
 20
140.5846659929283
 10
208.9818908498054
 20
142.3801197359942
 97
        0
 75
     0
 76
     1
 98
        0
  0
HATCH
  5
115
330
E3
100
AcDbEntity
  8
0
  6
Continuous
100
AcDbHatch
 10
0.0
 20
0.0
 30
0.0
210
0.0
220
0.0
230
1.0
  2
Steel_0002
 70
     0
 71
     0
 91
        1
 92
        3
 72
     0
 73
     1
 93
        4
 10
191.1273269797279
 20
145.169330169315
 10
190.5316288202434
 20
143.3349918930748
 10
208.804043749251
 20
140.5846659929283
 10
208.9818908498054
 20
142.3801197359942
 97
        0
 75
     0
 76
     2
 52
0.0
 41
1.0
 77
     0
 78
     2
 53
58.68827426055502
 43
123.4347811420589
 44
154.9677208573375
 45
-1.391265280940957
 46
1.859412161720163
 79
     0
 53
58.68827426055502
 43
122.9710260484119
 44
155.5875249112442
 45
-1.391265280940957
 46
1.859412161720163
 79
     0
 98
        0
  0
HATCH
  5
116
330
E3
100
AcDbEntity
  8
0
  6
Continuous
 62
   252
370
    13
100
AcDbHatch
 10
0.0
 20
0.0
 30
0.0
210
0.0
220
0.0
230
1.0
  2
SOLID
 70
     1
 71
     0
 91
        1
 92
        3
 72
     0
 73
     1
 93
        4
 10
185.2809283730272
 20
141.6050493711661
 10
123.9113572677443
 20
168.9232773462758
 10
124.0504677192147
 20
168.5073669352748
 10
185.39285767038
 20
141.1204325442748
 97
        0
 75
     0
 76
     1
 98
        0
  0
HATCH
  5
117
330
E3
100
AcDbEntity
  8
0
  6
Continuous
 62
   255
370
    18
100
AcDbHatch
 10
0.0
 20
0.0
 30
0.0
210
0.0
220
0.0
230
1.0
  2
SOLID
 70
     1
 71
     0
 91
        1
 92
        3
 72
     0
 73
     1
 93
        4
 10
128.8050323920534
 20
172.1763823446152
 10
123.9113572677443
 20
168.9232778142703
 10
185.2809284738752
 20
141.6050496252481
 10
190.7262168711781
 20
145.8424081009207
 97
        0
 75
     0
 76
     1
 98
        0
  0
HATCH
  5
118
330
E3
100
AcDbEntity
  8
0
  6
Continuous
 62
   252
370
    13
100
AcDbHatch
 10
0.0
 20
0.0
 30
0.0
210
0.0
220
0.0
230
1.0
  2
SOLID
 70
     1
 71
     0
 91
        1
 92
        3
 72
     0
 73
     1
 93
        3
 10
121.8674589142567
 20
89.63088720948252
 10
123.4020424609113
 20
88.4860221266994
 10
122.6941034463235
 20
90.27742823514082
 97
        0
 75
     0
 76
     1
 98
        0
  0
HATCH
  5
119
330
E3
100
AcDbEntity
  8
0
  6
Continuous
 62
   252
370
    13
100
AcDbHatch
 10
0.0
 20
0.0
 30
0.0
210
0.0
220
0.0
230
1.0
  2
SOLID
 70
     1
 71
     0
 91
        1
 92
        3
 72
     0
 73
     1
 93
        3
 10
158.3553006008934
 20
118.1690156535259
 10
160.0035658284588
 20
117.2426326439773
 10
159.4720542565315
 20
119.0424586036298
 97
        0
 75
     0
 76
     1
 98
        0
  0
HATCH
  5
11A
330
E3
100
AcDbEntity
  8
0
  6
Continuous
 62
   253
370
    25
100
AcDbHatch
 10
0.0
 20
0.0
 30
0.0
210
0.0
220
0.0
230
1.0
  2
SOLID
 70
     1
 71
     0
 91
        1
 92
        3
 72
     0
 73
     1
 93
        4
 10
124.2835567703052
 20
168.4033008770677
 10
52.36482085899497
 20
120.5113993556508
 10
52.80939361366047
 20
118.8600911063203
 10
125.8597304357002
 20
167.6996032824404
 97
        0
 75
     0
 76
     1
 98
        0
  0
HATCH
  5
11B
330
E3
100
AcDbEntity
  8
0
  6
Continuous
 62
   255
370
    18
100
AcDbHatch
 10
0.0
 20
0.0
 30
0.0
210
0.0
220
0.0
230
1.0
  2
SOLID
 70
     1
 71
     0
 91
        1
 92
        3
 72
     0
 73
     1
 93
        5
 10
52.80939321312954
 20
118.8600913493984
 10
54.27850564736399
 20
117.5982427682756
 10
54.54442371747081
 20
118.9086607743828
 10
126.7580700150186
 20
167.2985297395461
 10
125.8597312439974
 20
167.6996018737367
 97
        0
 75
     0
 76
     1
 98
        0
  0
HATCH
  5
11C
330
E3
100
AcDbEntity
  8
0
  6
Continuous
 62
   255
370
    18
100
AcDbHatch
 10
0.0
 20
0.0
 30
0.0
210
0.0
220
0.0
230
1.0
  2
SOLID
 70
     1
 71
     0
 91
        1
 92
        3
 72
     0
 73
     1
 93
        8
 10
185.2695731554925
 20
141.1754741051409
 10
102.177107883487
 20
76.45723228017171
 10
103.5011798154676
 20
75.3199626689673
 10
190.5228180732264
 20
143.3750728145579
 10
188.9614696222366
 20
144.05098289899
 10
185.4699705062666
 20
141.3315582667253
 10
185.4995091218467
 20
141.2035264431119
 10
185.3928578426506
 20
141.1204331247772
 97
        0
 75
     0
 76
     1
 98
        0
  0
HATCH
  5
11D
330
E3
100
AcDbEntity
  8
0
  6
Continuous
 62
   253
370
    25
100
AcDbHatch
 10
0.0
 20
0.0
 30
0.0
210
0.0
220
0.0
230
1.0
  2
SOLID
 70
     1
 71
     0
 91
        1
 92
        3
 72
     0
 73
     1
 93
        4
 10
183.1152761158245
 20
142.1372819587063
 10
101.5081954984703
 20
78.93335641143308
 10
102.1771083773332
 20
76.45723380626917
 10
185.269572475131
 20
141.1754742132202
 97
        0
 75
     0
 76
     1
 98
        0
  0
HATCH
  5
11E
330
E3
100
AcDbEntity
  8
0
  6
Continuous
 62
   253
370
    25
100
AcDbHatch
 10
0.0
 20
0.0
 30
0.0
210
0.0
220
0.0
230
1.0
  2
SOLID
 70
     1
 71
     0
 91
        1
 92
        3
 72
     0
 73
     1
 93
        4
 10
188.8499495683918
 20
144.2401648814593
 10
185.4156732687923
 20
141.5668981425493
 10
185.4699705908575
 20
141.3315584894414
 10
188.9614697990445
 20
144.0509830344175
 97
        0
 75
     0
 76
     1
 98
        0
  0
HATCH
  5
11F
330
E3
100
AcDbEntity
  8
0
  6
Continuous
 62
   255
370
    18
100
AcDbHatch
 10
0.0
 20
0.0
 30
0.0
210
0.0
220
0.0
230
1.0
  2
SOLID
 70
     1
 71
     0
 91
        1
 92
        3
 72
     0
 73
     1
 93
        4
 10
100.2835569449954
 20
79.97576135850043
 10
101.5081947825517
 20
78.93335409436507
 10
183.1152767065315
 20
142.1372821902114
 10
181.6782731055646
 20
142.7788463758999
 97
        0
 75
     0
 76
     1
 98
        0
  0
HATCH
  5
120
330
E3
100
AcDbEntity
  8
0
  6
Continuous
 62
   255
370
    18
100
AcDbHatch
 10
0.0
 20
0.0
 30
0.0
210
0.0
220
0.0
230
1.0
  2
SOLID
 70
     1
 71
     0
 91
        1
 92
        3
 72
     0
 73
     1
 93
        5
 10
179.7885908835672
 20
143.6225147809782
 10
97.51982841660156
 20
80.45745771136045
 10
99.73318994966773
 20
78.55636081806627
 10
100.2835566437536
 20
79.97576082103053
 10
181.6782733250226
 20
142.7788460845906
 97
        0
 75
     0
 76
     1
 98
        0
  0
HATCH
  5
121
330
E3
100
AcDbEntity
  8
0
  6
Continuous
 62
   253
370
    25
100
AcDbHatch
 10
0.0
 20
0.0
 30
0.0
210
0.0
220
0.0
230
1.0
  2
SOLID
 70
     1
 71
     0
 91
        1
 92
        3
 72
     0
 73
     1
 93
        4
 10
177.6564509308708
 20
144.5744297162751
 10
96.86380989020282
 20
82.88663206497412
 10
97.51982695043526
 20
80.45745722667051
 10
179.7885913294002
 20
143.6225138031684
 97
        0
 75
     0
 76
     1
 98
        0
  0
HATCH
  5
122
330
E3
100
AcDbEntity
  8
0
  6
Continuous
 62
   255
370
    18
100
AcDbHatch
 10
0.0
 20
0.0
 30
0.0
210
0.0
220
0.0
230
1.0
  2
SOLID
 70
     1
 71
     0
 91
        1
 92
        3
 72
     0
 73
     1
 93
        4
 10
176.2668084626073
 20
145.1948496565947
 10
95.68483365715846
 20
83.8901699634569
 10
96.86380959694985
 20
82.88663058998534
 10
177.656450705786
 20
144.5744303146804
 97
        0
 75
     0
 76
     1
 98
        0
  0
HATCH
  5
123
330
E3
100
AcDbEntity
  8
0
  6
Continuous
 62
   255
370
    18
100
AcDbHatch
 10
0.0
 20
0.0
 30
0.0
210
0.0
220
0.0
230
1.0
  2
SOLID
 70
     1
 71
     0
 91
        1
 92
        3
 72
     0
 73
     1
 93
        5
 10
93.03503038987782
 20
84.30953440896879
 10
95.16681901702367
 20
82.47850176722721
 10
95.68483354785232
 20
83.89016946856248
 10
176.2668085359057
 20
145.1948498920951
 10
174.4867328601195
 20
145.9895830973904
 97
        0
 75
     0
 76
     1
 98
        0
  0
HATCH
  5
124
330
E3
100
AcDbEntity
  8
0
  6
Continuous
 62
   253
370
    25
100
AcDbHatch
 10
0.0
 20
0.0
 30
0.0
210
0.0
220
0.0
230
1.0
  2
SOLID
 70
     1
 71
     0
 91
        1
 92
        3
 72
     0
 73
     1
 93
        4
 10
172.3764635954254
 20
146.9317347532416
 10
92.39141840911499
 20
86.69350650086169
 10
93.03503100213281
 20
84.30953509849708
 10
174.4867325712824
 20
145.9895827352385
 97
        0
 75
     0
 76
     1
 98
        0
  0
HATCH
  5
125
330
E3
100
AcDbEntity
  8
0
  6
Continuous
 62
   255
370
    18
100
AcDbHatch
 10
0.0
 20
0.0
 30
0.0
210
0.0
220
0.0
230
1.0
  2
SOLID
 70
     1
 71
     0
 91
        1
 92
        3
 72
     0
 73
     1
 93
        4
 10
171.0318820569543
 20
147.5320373298558
 10
91.2555959716555
 20
87.66031295733768
 10
92.3914172183093
 20
86.69350681506366
 10
172.376463629607
 20
146.9317345926685
 97
        0
 75
     0
 76
     1
 98
        0
  0
HATCH
  5
126
330
E3
100
AcDbEntity
  8
0
  6
Continuous
 62
   255
370
    18
100
AcDbHatch
 10
0.0
 20
0.0
 30
0.0
210
0.0
220
0.0
230
1.0
  2
SOLID
 70
     1
 71
     0
 91
        1
 92
        3
 72
     0
 73
     1
 93
        5
 10
88.713306520624
 20
88.021545083673
 10
90.76794915019536
 20
86.25677426619727
 10
91.25559637828421
 20
87.66031205767686
 10
171.0318817304598
 20
147.5320368731759
 10
169.3553581016948
 20
148.2805372074121
 97
        0
 75
     0
 76
     1
 98
        0
  0
HATCH
  5
127
330
E3
100
AcDbEntity
  8
0
  6
Continuous
 62
   253
370
    25
100
AcDbHatch
 10
0.0
 20
0.0
 30
0.0
210
0.0
220
0.0
230
1.0
  2
SOLID
 70
     1
 71
     0
 91
        1
 92
        3
 72
     0
 73
     1
 93
        4
 10
167.2666666339186
 20
149.2130550797746
 10
88.08164063659069
 20
90.36196637601965
 10
88.71330652018604
 20
88.02154542338955
 10
169.3553586043303
 20
148.2805378443983
 97
        0
 75
     0
 76
     1
 98
        0
  0
HATCH
  5
128
330
E3
100
AcDbEntity
  8
0
  6
Continuous
 62
   255
370
    18
100
AcDbHatch
 10
0.0
 20
0.0
 30
0.0
210
0.0
220
0.0
230
1.0
  2
SOLID
 70
     1
 71
     0
 91
        1
 92
        3
 72
     0
 73
     1
 93
        4
 10
165.9649870255189
 20
149.7942023866004
 10
86.98664531298323
 20
91.29402046445607
 10
88.0816408525857
 20
90.36196482227207
 10
167.2666675429601
 20
149.213054830999
 97
        0
 75
     0
 76
     1
 98
        0
  0
HATCH
  5
129
330
E3
100
AcDbEntity
  8
0
  6
Continuous
 62
   255
370
    18
100
AcDbHatch
 10
0.0
 20
0.0
 30
0.0
210
0.0
220
0.0
230
1.0
  2
SOLID
 70
     1
 71
     0
 91
        1
 92
        3
 72
     0
 73
     1
 93
        5
 10
84.54592080397136
 20
91.60099030951284
 10
86.52753204164334
 20
89.89894834276186
 10
86.98664502913056
 20
91.29402001797078
 10
165.9649871158695
 20
149.7942029740558
 10
164.3863740989916
 20
150.4989909524954
 97
        0
 75
     0
 76
     1
 98
        0
  0
HATCH
  5
12A
330
E3
100
AcDbEntity
  8
0
  6
Continuous
 62
   253
370
    25
100
AcDbHatch
 10
0.0
 20
0.0
 30
0.0
210
0.0
220
0.0
230
1.0
  2
SOLID
 70
     1
 71
     0
 91
        1
 92
        3
 72
     0
 73
     1
 93
        4
 10
162.3189657656042
 20
151.4220066944035
 10
83.92576610821223
 20
93.89942220543053
 10
84.5459209480087
 20
91.60099165200619
 10
164.3863739689604
 20
150.4989903612104
 97
        0
 75
     0
 76
     1
 98
        0
  0
HATCH
  5
12B
330
E3
100
AcDbEntity
  8
0
  6
Continuous
 62
   255
370
    18
100
AcDbHatch
 10
0.0
 20
0.0
 30
0.0
210
0.0
220
0.0
230
1.0
  2
SOLID
 70
     1
 71
     0
 91
        1
 92
        3
 72
     0
 73
     1
 93
        4
 10
161.0581662126198
 20
151.9849031712438
 10
82.86943552042564
 20
94.79856543444039
 10
83.92576497447055
 20
93.89942242317508
 10
162.3189655473801
 20
151.4220066227255
 97
        0
 75
     0
 76
     1
 98
        0
  0
HATCH
  5
12C
330
E3
100
AcDbEntity
  8
0
  6
Continuous
 62
   255
370
    18
100
AcDbHatch
 10
0.0
 20
0.0
 30
0.0
210
0.0
220
0.0
230
1.0
  2
SOLID
 70
     1
 71
     0
 91
        1
 92
        3
 72
     0
 73
     1
 93
        5
 10
80.52475112470945
 20
95.05484970404102
 10
82.43715452196076
 20
93.41224947167176
 10
82.86943504688197
 20
94.79856501840706
 10
161.0581661416923
 20
151.9849027503583
 10
159.5721930619645
 20
152.648330669763
 97
        0
 75
     0
 76
     1
 98
        0
  0
HATCH
  5
12D
330
E3
100
AcDbEntity
  8
0
  6
Continuous
 62
   253
370
    25
100
AcDbHatch
 10
0.0
 20
0.0
 30
0.0
210
0.0
220
0.0
230
1.0
  2
SOLID
 70
     1
 71
     0
 91
        1
 92
        3
 72
     0
 73
     1
 93
        4
 10
157.5257643261561
 20
153.5619791587573
 10
79.91569555237155
 20
97.31277384814096
 10
80.52475164312743
 20
95.05484862714516
 10
159.57219307597
 20
152.6483309259496
 97
        0
 75
     0
 76
     1
 98
        0
  0
HATCH
  5
12E
330
E3
100
AcDbEntity
  8
0
  6
Continuous
 62
   255
370
    18
100
AcDbHatch
 10
0.0
 20
0.0
 30
0.0
210
0.0
220
0.0
230
1.0
  2
SOLID
 70
     1
 71
     0
 91
        1
 92
        3
 72
     0
 73
     1
 93
        4
 10
156.3039490131065
 20
154.1074712186833
 10
78.89601737468361
 20
98.18071754928332
 10
79.91569505689564
 20
97.31277303531174
 10
157.5257641783098
 20
153.5619800450871
 97
        0
 75
     0
 76
     1
 98
        0
  0
HATCH
  5
12F
330
E3
100
AcDbEntity
  8
0
  6
Continuous
 62
   255
370
    18
100
AcDbHatch
 10
0.0
 20
0.0
 30
0.0
210
0.0
220
0.0
230
1.0
  2
SOLID
 70
     1
 71
     0
 91
        1
 92
        3
 72
     0
 73
     1
 93
        5
 10
76.64223488534927
 20
98.38961514357969
 10
78.48899644790205
 20
96.80339751174186
 10
78.8960168070804
 20
98.18071752308464
 10
156.3039500477453
 20
154.1074715124263
 10
154.9056892310658
 20
154.7317380371897
 97
        0
 75
     0
 76
     1
 98
        0
  0
HATCH
  5
130
330
E3
100
AcDbEntity
  8
0
  6
Continuous
 62
   253
370
    25
100
AcDbHatch
 10
0.0
 20
0.0
 30
0.0
210
0.0
220
0.0
230
1.0
  2
SOLID
 70
     1
 71
     0
 91
        1
 92
        3
 72
     0
 73
     1
 93
        4
 10
152.8799381730838
 20
155.6361559064975
 10
76.04388820698269
 20
100.6084339085717
 10
76.64223447585185
 20
98.38961492014312
 10
154.9056897720444
 20
154.7317390568934
 97
        0
 75
     0
 76
     1
 98
        0
  0
HATCH
  5
131
330
E3
100
AcDbEntity
  8
0
  6
Continuous
 62
   255
370
    18
100
AcDbHatch
 10
0.0
 20
0.0
 30
0.0
210
0.0
220
0.0
230
1.0
  2
SOLID
 70
     1
 71
     0
 91
        1
 92
        3
 72
     0
 73
     1
 93
        4
 10
151.695329570369
 20
156.1650371138
 10
75.05898737262676
 20
101.4467761692113
 10
76.04388820155398
 20
100.6084343743251
 10
152.8799384637379
 20
155.6361559629877
 97
        0
 75
     0
 76
     1
 98
        0
  0
HATCH
  5
132
330
E3
100
AcDbEntity
  8
0
  6
Continuous
 62
   255
370
    18
100
AcDbHatch
 10
0.0
 20
0.0
 30
0.0
210
0.0
220
0.0
230
1.0
  2
SOLID
 70
     1
 71
     0
 91
        1
 92
        3
 72
     0
 73
     1
 93
        5
 10
72.89132153047638
 20
101.611345763463
 10
74.67576222042308
 20
100.0786549722645
 10
75.0589871733419
 20
101.446776191892
 10
151.6953292413126
 20
156.1650373091581
 10
150.3801747499205
 20
156.7522004881688
 97
        0
 75
     0
 76
     1
 98
        0
  0
HATCH
  5
133
330
E3
100
AcDbEntity
  8
0
  6
Continuous
 62
   253
370
    25
100
AcDbHatch
 10
0.0
 20
0.0
 30
0.0
210
0.0
220
0.0
230
1.0
  2
SOLID
 70
     1
 71
     0
 91
        1
 92
        3
 72
     0
 73
     1
 93
        4
 10
148.3747943759391
 20
157.6475229731506
 10
72.30331449324207
 20
103.7923901092987
 10
72.89132252769251
 20
101.6113448153395
 10
150.3801746459263
 20
156.7522012023301
 97
        0
 75
     0
 76
     1
 98
        0
  0
HATCH
  5
134
330
E3
100
AcDbEntity
  8
0
  6
Continuous
 62
   255
370
    18
100
AcDbHatch
 10
0.0
 20
0.0
 30
0.0
210
0.0
220
0.0
230
1.0
  2
SOLID
 70
     1
 71
     0
 91
        1
 92
        3
 72
     0
 73
     1
 93
        4
 10
147.2257137835752
 20
158.1605413858012
 10
71.35144168798374
 20
104.6026185941628
 10
72.30331400761642
 20
103.7923898284126
 10
148.3747939725124
 20
157.6475229433489
 97
        0
 75
     0
 76
     1
 98
        0
  0
HATCH
  5
135
330
E3
100
AcDbEntity
  8
0
  6
Continuous
 62
   255
370
    18
100
AcDbHatch
 10
0.0
 20
0.0
 30
0.0
210
0.0
220
0.0
230
1.0
  2
SOLID
 70
     1
 71
     0
 91
        1
 92
        3
 72
     0
 73
     1
 93
        5
 10
69.26543291960141
 20
104.7256891240172
 10
70.99065474871813
 20
103.2438631580106
 10
71.35144154126662
 20
104.6026186441139
 10
147.2257144160206
 20
158.1605413792502
 10
145.9893509771203
 20
158.7125288615838
 97
        0
 75
     0
 76
     1
 98
        0
  0
HATCH
  5
136
330
E3
100
AcDbEntity
  8
0
  6
Continuous
 62
   253
370
    25
100
AcDbHatch
 10
0.0
 20
0.0
 30
0.0
210
0.0
220
0.0
230
1.0
  2
SOLID
 70
     1
 71
     0
 91
        1
 92
        3
 72
     0
 73
     1
 93
        4
 10
144.0040366305919
 20
159.5988932156945
 10
68.68741342151397
 20
106.8702254887631
 10
69.26543284798294
 20
104.7256889945637
 10
145.9893520127506
 20
158.7125278787686
 97
        0
 75
     0
 76
     1
 98
        0
  0
HATCH
  5
137
330
E3
100
AcDbEntity
  8
0
  6
Continuous
 62
   255
370
    18
100
AcDbHatch
 10
0.0
 20
0.0
 30
0.0
210
0.0
220
0.0
230
1.0
  2
SOLID
 70
     1
 71
     0
 91
        1
 92
        3
 72
     0
 73
     1
 93
        4
 10
67.76693471561713
 20
107.6537316501579
 10
68.68741392638667
 20
106.8702249353013
 10
144.004036478238
 20
159.5988932684237
 10
142.8889134570919
 20
160.0967516884247
 97
        0
 75
     0
 76
     1
 98
        0
  0
HATCH
  5
138
330
E3
100
AcDbEntity
  8
0
  6
Continuous
 62
   255
370
    18
100
AcDbHatch
 10
0.0
 20
0.0
 30
0.0
210
0.0
220
0.0
230
1.0
  2
SOLID
 70
     1
 71
     0
 91
        1
 92
        3
 72
     0
 73
     1
 93
        5
 10
65.75841967758346
 20
107.7379294530269
 10
67.42732307261295
 20
106.3044765295337
 10
67.76693432812603
 20
107.6537314688437
 10
142.8889130155693
 20
160.096751295668
 10
141.7272950620329
 20
160.6153680310273
 97
        0
 75
     0
 76
     1
 98
        0
  0
HATCH
  5
139
330
E3
100
AcDbEntity
  8
0
  6
Continuous
 62
   253
370
    25
100
AcDbHatch
 10
0.0
 20
0.0
 30
0.0
210
0.0
220
0.0
230
1.0
  2
SOLID
 70
     1
 71
     0
 91
        1
 92
        3
 72
     0
 73
     1
 93
        4
 10
139.7617415008766
 20
161.4929087360331
 10
65.19005418636611
 20
109.8471570648761
 10
65.75841979821875
 20
107.7379281578247
 10
141.7272954278563
 20
160.6153675139637
 97
        0
 75
     0
 76
     1
 98
        0
  0
HATCH
  5
13A
330
E3
100
AcDbEntity
  8
0
  6
Continuous
 62
   255
370
    18
100
AcDbHatch
 10
0.0
 20
0.0
 30
0.0
210
0.0
220
0.0
230
1.0
  2
SOLID
 70
     1
 71
     0
 91
        1
 92
        3
 72
     0
 73
     1
 93
        4
 10
138.6790898401631
 20
161.9762694035111
 10
64.29944167568574
 20
110.6052425145359
 10
65.19005328697925
 20
109.8471572592455
 10
139.7617407503006
 20
161.4929096109933
 97
        0
 75
     0
 76
     1
 98
        0
  0
HATCH
  5
13B
330
E3
100
AcDbEntity
  8
0
  6
Continuous
 62
   255
370
    18
100
AcDbHatch
 10
0.0
 20
0.0
 30
0.0
210
0.0
220
0.0
230
1.0
  2
SOLID
 70
     1
 71
     0
 91
        1
 92
        3
 72
     0
 73
     1
 93
        5
 10
62.36452989829468
 20
110.653004974663
 10
63.9798279041543
 20
109.265594892581
 10
64.29944163267963
 20
110.6052424187164
 10
138.6790894208892
 20
161.9762702133901
 10
137.5884233079782
 20
162.4632092495161
 97
        0
 75
     0
 76
     1
 98
        0
  0
HATCH
  5
13C
330
E3
100
AcDbEntity
  8
0
  6
Continuous
 62
   253
370
    25
100
AcDbHatch
 10
0.0
 20
0.0
 30
0.0
210
0.0
220
0.0
230
1.0
  2
SOLID
 70
     1
 71
     0
 91
        1
 92
        3
 72
     0
 73
     1
 93
        4
 10
135.642325790567
 20
163.3320634957777
 10
61.80550147783558
 20
112.7280707250038
 10
62.36452993912685
 20
110.6530043969759
 10
137.5884233372013
 20
162.463209351564
 97
        0
 75
     0
 76
     1
 98
        0
  0
HATCH
  5
13D
330
E3
100
AcDbEntity
  8
0
  6
Continuous
 62
   255
370
    18
100
AcDbHatch
 10
0.0
 20
0.0
 30
0.0
210
0.0
220
0.0
230
1.0
  2
SOLID
 70
     1
 71
     0
 91
        1
 92
        3
 72
     0
 73
     1
 93
        4
 10
134.5907481534698
 20
163.801551384621
 10
60.9433248212794
 20
113.4619497837024
 10
61.8055009425747
 20
112.7280699038578
 10
135.6423254135842
 20
163.3320646128739
 97
        0
 75
     0
 76
     1
 98
        0
  0
HATCH
  5
13E
330
E3
100
AcDbEntity
  8
0
  6
Continuous
 62
   255
370
    18
100
AcDbHatch
 10
0.0
 20
0.0
 30
0.0
210
0.0
220
0.0
230
1.0
  2
SOLID
 70
     1
 71
     0
 91
        1
 92
        3
 72
     0
 73
     1
 93
        5
 10
59.07837666759195
 20
113.4755428724221
 10
60.64261117913085
 20
112.1319927403773
 10
60.94332480080595
 20
113.4619501774353
 10
134.5907483009431
 20
163.8015508736889
 10
133.5674726688557
 20
164.2584038276865
 97
        0
 75
     0
 76
     1
 98
        0
  0
HATCH
  5
13F
330
E3
100
AcDbEntity
  8
0
  6
Continuous
 62
   253
370
    25
100
AcDbHatch
 10
0.0
 20
0.0
 30
0.0
210
0.0
220
0.0
230
1.0
  2
SOLID
 70
     1
 71
     0
 91
        1
 92
        3
 72
     0
 73
     1
 93
        4
 10
58.52838409605191
 20
115.5175346382552
 10
59.07837755811579
 20
113.475542643463
 10
133.567472241376
 20
164.2584038787701
 10
131.6405277029559
 20
165.118707577133
 97
        0
 75
     0
 76
     1
 98
        0
  0
HATCH
  5
140
330
E3
100
AcDbEntity
  8
0
  6
Continuous
 62
   255
370
    18
100
AcDbHatch
 10
0.0
 20
0.0
 30
0.0
210
0.0
220
0.0
230
1.0
  2
SOLID
 70
     1
 71
     0
 91
        1
 92
        3
 72
     0
 73
     1
 93
        4
 10
130.6187064523833
 20
165.5749095076678
 10
57.69330285082648
 20
116.2283510486979
 10
58.52838370361102
 20
115.5175348283445
 10
131.6405274958405
 20
165.1187072470972
 97
        0
 75
     0
 76
     1
 98
        0
  0
HATCH
  5
141
330
E3
100
AcDbEntity
  8
0
  6
Continuous
 62
   255
370
    18
100
AcDbHatch
 10
0.0
 20
0.0
 30
0.0
210
0.0
220
0.0
230
1.0
  2
SOLID
 70
     1
 71
     0
 91
        1
 92
        3
 72
     0
 73
     1
 93
        5
 10
55.89491123018666
 20
116.2098825870991
 10
57.41046627125618
 20
114.9081431919094
 10
57.69330272911525
 20
116.2283517533485
 10
130.618706009088
 20
165.5749097170225
 10
129.6594718292766
 20
166.0031701206727
 97
        0
 75
     0
 76
     1
 98
        0
  0
HATCH
  5
142
330
E3
100
AcDbEntity
  8
0
  6
Continuous
 62
   253
370
    25
100
AcDbHatch
 10
0.0
 20
0.0
 30
0.0
210
0.0
220
0.0
230
1.0
  2
SOLID
 70
     1
 71
     0
 91
        1
 92
        3
 72
     0
 73
     1
 93
        4
 10
127.7513818078235
 20
166.8550567362149
 10
55.35366650794848
 20
118.2198372491839
 10
55.89491054866813
 20
116.2098818672558
 10
129.6594718637895
 20
166.0031699001896
 97
        0
 75
     0
 76
     1
 98
        0
  0
HATCH
  5
143
330
E3
100
AcDbEntity
  8
0
  6
Continuous
 62
   255
370
    18
100
AcDbHatch
 10
0.0
 20
0.0
 30
0.0
210
0.0
220
0.0
230
1.0
  2
SOLID
 70
     1
 71
     0
 91
        1
 92
        3
 72
     0
 73
     1
 93
        4
 10
126.7580697060898
 20
167.2985298561628
 10
54.5444231762046
 20
118.9086601274703
 10
55.35366634232794
 20
118.2198369802261
 10
127.751381867363
 20
166.8550553112805
 97
        0
 75
     0
 76
     1
 98
        0
  0
HATCH
  5
144
330
E3
100
AcDbEntity
  8
0
  6
Continuous
 62
   255
370
     0
100
AcDbHatch
 10
0.0
 20
0.0
 30
0.0
210
0.0
220
0.0
230
1.0
  2
SOLID
 70
     1
 71
     0
 91
        1
 92
        3
 72
     0
 73
     1
 93
        6
 10
185.2809282017
 20
141.6050496252481
 10
185.39285767038
 20
141.1204325442748
 10
185.4995089502553
 20
141.2035268745666
 10
185.4156737933615
 20
141.566897655571
 10
190.714509771477
 20
145.691552868799
 10
190.7262168711781
 20
145.8424078738736
 97
        0
 75
     0
 76
     1
 98
        0
  0
HATCH
  5
145
330
E3
100
AcDbEntity
  8
0
  6
Continuous
100
AcDbHatch
 10
0.0
 20
0.0
 30
0.0
210
0.0
220
0.0
230
1.0
  2
Steel_0002
 70
     0
 71
     0
 91
        1
 92
        3
 72
     0
 73
     1
 93
        6
 10
185.2809282017
 20
141.6050496252481
 10
185.39285767038
 20
141.1204325442748
 10
185.4995089502553
 20
141.2035268745666
 10
185.4156737933615
 20
141.566897655571
 10
190.714509771477
 20
145.691552868799
 10
190.7262168711781
 20
145.8424078738736
 97
        0
 75
     0
 76
     2
 52
0.0
 41
1.0
 77
     0
 78
     2
 53
58.66909604624115
 43
123.4347811420589
 44
154.9677208573375
 45
-1.443011320848933
 46
1.859265032713739
 79
     0
 53
58.66909604624115
 43
122.9537773684425
 44
155.5874758682421
 45
-1.443011320848933
 46
1.859265032713739
 79
     0
 98
        0
  0
HATCH
  5
146
330
E3
100
AcDbEntity
  8
0
  6
Continuous
 62
   255
370
     0
100
AcDbHatch
 10
0.0
 20
0.0
 30
0.0
210
0.0
220
0.0
230
1.0
  2
SOLID
 70
     1
 71
     0
 91
        1
 92
        3
 72
     0
 73
     1
 93
        4
 10
122.6941031334093
 20
90.27742828953576
 10
123.4020428773333
 20
88.48602207269175
 10
126.4016686993926
 20
90.84272914114234
 10
125.7087943790863
 20
92.63529985374188
 97
        0
 75
     0
 76
     1
 98
        0
  0
HATCH
  5
147
330
E3
100
AcDbEntity
  8
0
  6
Continuous
 62
   255
370
     0
100
AcDbHatch
 10
0.0
 20
0.0
 30
0.0
210
0.0
220
0.0
230
1.0
  2
SOLID
 70
     1
 71
     0
 91
        1
 92
        3
 72
     0
 73
     1
 93
        4
 10
159.4720542207651
 20
119.0424586000163
 10
160.0035665340021
 20
117.2426319416226
 10
162.6815573797325
 20
119.34664101801
 10
162.1623206860003
 20
121.1465887684412
 97
        0
 75
     0
 76
     1
 98
        0
  0
HATCH
  5
148
330
E3
100
AcDbEntity
  8
0
  6
Continuous
 62
   255
370
     0
100
AcDbHatch
 10
0.0
 20
0.0
 30
0.0
210
0.0
220
0.0
230
1.0
  2
SOLID
 70
     1
 71
     0
 91
        1
 92
        3
 72
     0
 73
     1
 93
       57
 10
52.36482085899497
 20
120.5113994971711
 10
52.48411681697761
 20
119.098429653304
 10
103.5025023303442
 20
75.26715811429865
 10
103.5011810022968
 20
75.31996246745709
 10
102.177107427182
 20
76.45723271835365
 10
101.508195390312
 20
78.93335652060979
 10
100.2835582278668
 20
79.97576014217046
 10
99.73319004356827
 20
78.55636044474831
 10
97.51982840199332
 20
80.45745736857918
 10
96.86380960074206
 20
82.88663135250307
 10
95.68483293306723
 20
83.89017009839792
 10
95.16681975966554
 20
82.47850177027769
 10
93.03503069372637
 20
84.3095355410961
 10
92.39141820270618
 20
86.69350623718647
 10
91.25559577377628
 20
87.66031145375271
 10
90.76794952310775
 20
86.256773026981
 10
88.7133065076442
 20
88.02154455845516
 10
88.08164083388358
 20
90.3619662938118
 10
86.98664469837853
 20
91.29401997312063
 10
86.527532732638
 20
89.89894749479602
 10
84.54592090521857
 20
91.60099023453613
 10
83.92576617810437
 20
93.8994236088368
 10
82.86943527123607
 20
94.79856524679742
 10
82.43715525659537
 20
93.41224980533633
 10
80.52475160521654
 20
95.05484954719515
 10
79.91569481448249
 20
97.31277210085737
 10
78.89601742572886
 20
98.18071698549447
 10
78.4889965703253
 20
96.80339785252723
 10
76.64223564289127
 20
98.3896148349353
 10
76.04388816264107
 20
100.608434003313
 10
75.0589866955148
 20
101.446776262813
 10
74.67576269916206
 20
100.0786553714033
 10
72.89132136325361
 20
101.6113448516812
 10
72.30331437989155
 20
103.7923895829374
 10
71.35144077987086
 20
104.6026181878913
 10
70.99065497595491
 20
103.2438624185712
 10
69.26543260652872
 20
104.7256891511491
 10
68.68741407071343
 20
106.8702251464873
 10
67.76693534702218
 20
107.6537315300062
 10
67.4273227963512
 20
106.3044765208336
 10
65.75841993941614
 20
107.737929235471
 10
65.19005456606061
 20
109.8471581871235
 10
64.29944136149513
 20
110.6052423409311
 10
63.97982780425296
 20
109.2655947735246
 10
62.36452941261579
 20
110.6530044635878
 10
61.80550172893359
 20
112.7280709129199
 10
60.9433245098047
 20
113.4619505314914
 10
60.6426111253198
 20
112.1319927030995
 10
59.07837665243484
 20
113.4755432937235
 10
58.52838413983611
 20
115.5175346312332
 10
57.6933025278073
 20
116.2283512078875
 10
57.41046593455273
 20
114.9081433174237
 10
55.89491104624437
 20
116.2098815716624
 10
55.35366642637045
 20
118.2198371811195
 10
54.54442310236543
 20
118.9086605800888
 10
54.27850545180851
 20
117.5982430141658
 10
52.8093928821325
 20
118.8600914871886
 97
        0
 75
     0
 76
     1
 98
        0
  0
HATCH
  5
149
330
E3
100
AcDbEntity
  8
0
  6
Continuous
100
AcDbHatch
 10
0.0
 20
0.0
 30
0.0
210
0.0
220
0.0
230
1.0
  2
Steel_0002
 70
     0
 71
     0
 91
        1
 92
        3
 72
     0
 73
     1
 93
       57
 10
52.36482085899497
 20
120.5113994971711
 10
52.48411681697761
 20
119.098429653304
 10
103.5025023303442
 20
75.26715811429865
 10
103.5011810022968
 20
75.31996246745709
 10
102.177107427182
 20
76.45723271835365
 10
101.508195390312
 20
78.93335652060979
 10
100.2835582278668
 20
79.97576014217046
 10
99.73319004356827
 20
78.55636044474831
 10
97.51982840199332
 20
80.45745736857918
 10
96.86380960074206
 20
82.88663135250307
 10
95.68483293306723
 20
83.89017009839792
 10
95.16681975966554
 20
82.47850177027769
 10
93.03503069372637
 20
84.3095355410961
 10
92.39141820270618
 20
86.69350623718647
 10
91.25559577377628
 20
87.66031145375271
 10
90.76794952310775
 20
86.256773026981
 10
88.7133065076442
 20
88.02154455845516
 10
88.08164083388358
 20
90.3619662938118
 10
86.98664469837853
 20
91.29401997312063
 10
86.527532732638
 20
89.89894749479602
 10
84.54592090521857
 20
91.60099023453613
 10
83.92576617810437
 20
93.8994236088368
 10
82.86943527123607
 20
94.79856524679742
 10
82.43715525659537
 20
93.41224980533633
 10
80.52475160521654
 20
95.05484954719515
 10
79.91569481448249
 20
97.31277210085737
 10
78.89601742572886
 20
98.18071698549447
 10
78.4889965703253
 20
96.80339785252723
 10
76.64223564289127
 20
98.3896148349353
 10
76.04388816264107
 20
100.608434003313
 10
75.0589866955148
 20
101.446776262813
 10
74.67576269916206
 20
100.0786553714033
 10
72.89132136325361
 20
101.6113448516812
 10
72.30331437989155
 20
103.7923895829374
 10
71.35144077987086
 20
104.6026181878913
 10
70.99065497595491
 20
103.2438624185712
 10
69.26543260652872
 20
104.7256891511491
 10
68.68741407071343
 20
106.8702251464873
 10
67.76693534702218
 20
107.6537315300062
 10
67.4273227963512
 20
106.3044765208336
 10
65.75841993941614
 20
107.737929235471
 10
65.19005456606061
 20
109.8471581871235
 10
64.29944136149513
 20
110.6052423409311
 10
63.97982780425296
 20
109.2655947735246
 10
62.36452941261579
 20
110.6530044635878
 10
61.80550172893359
 20
112.7280709129199
 10
60.9433245098047
 20
113.4619505314914
 10
60.6426111253198
 20
112.1319927030995
 10
59.07837665243484
 20
113.4755432937235
 10
58.52838413983611
 20
115.5175346312332
 10
57.6933025278073
 20
116.2283512078875
 10
57.41046593455273
 20
114.9081433174237
 10
55.89491104624437
 20
116.2098815716624
 10
55.35366642637045
 20
118.2198371811195
 10
54.54442310236543
 20
118.9086605800888
 10
54.27850545180851
 20
117.5982430141658
 10
52.8093928821325
 20
118.8600914871886
 97
        0
 75
     0
 76
     2
 52
0.0
 41
1.0
 77
     0
 78
     2
 53
52.71761416600751
 43
123.4347811420589
 44
154.9677208573375
 45
-1.251617864584168
 46
3.011584428713664
 79
     0
 53
52.71761416600751
 43
123.0175751871975
 44
155.9715823335754
 45
-1.251617864584168
 46
3.011584428713664
 79
     0
 98
        0
  0
HATCH
  5
14A
330
E3
100
AcDbEntity
  8
0
  6
Continuous
 62
   255
370
     0
100
AcDbHatch
 10
0.0
 20
0.0
 30
0.0
210
0.0
220
0.0
230
1.0
  2
SOLID
 70
     1
 71
     0
 91
        1
 92
        3
 72
     0
 73
     1
 93
        4
 10
190.5228196789989
 20
143.3750740459709
 10
103.5011804656525
 20
75.31996366836825
 10
103.502501961879
 20
75.26715699040521
 10
190.5316279247006
 20
143.3349921187182
 97
        0
 75
     0
 76
     1
 98
        0
  0
HATCH
  5
14B
330
E3
100
AcDbEntity
  8
0
  6
Continuous
100
AcDbHatch
 10
0.0
 20
0.0
 30
0.0
210
0.0
220
0.0
230
1.0
  2
Steel_0002
 70
     0
 71
     0
 91
        1
 92
        3
 72
     0
 73
     1
 93
        4
 10
190.5228196789989
 20
143.3750740459709
 10
103.5011804656525
 20
75.31996366836825
 10
103.502501961879
 20
75.26715699040521
 10
190.5316279247006
 20
143.3349921187182
 97
        0
 75
     0
 76
     2
 52
0.0
 41
1.0
 77
     0
 78
     2
 53
58.69251973515034
 43
123.4347811420589
 44
154.9677208573375
 45
-1.394111186840714
 46
1.846374658783894
 79
     0
 53
58.69251973515034
 43
122.970077413112
 44
155.5831790769321
 45
-1.394111186840714
 46
1.846374658783894
 79
     0
 98
        0
  0
LINE
  5
14C
330
E3
100
AcDbEntity
  8
0
  6
Continuous
100
AcDbLine
 10
133.5796243844283
 20
171.2242648063097
 30
0.0
 11
128.805032464756
 21
172.1763816238744
 31
0.0
  0
LINE
  5
14D
330
E3
100
AcDbEntity
  8
0
  6
Continuous
100
AcDbLine
 10
195.5203674305789
 20
144.9342811959186
 30
0.0
 11
190.714507955595
 21
145.691552077376
 31
0.0
  0
LINE
  5
14E
330
E3
100
AcDbEntity
  8
0
  6
Continuous
100
AcDbLine
 10
195.5203674305789
 20
144.9342811959186
 30
0.0
 11
195.3800380166604
 21
144.5049779907969
 31
0.0
  0
LINE
  5
14F
330
E3
100
AcDbEntity
  8
0
  6
Continuous
100
AcDbLine
 10
195.4746104341541
 20
144.4902045237072
 30
0.0
 11
195.3800380166604
 21
144.5049779907969
 31
0.0
  0
LINE
  5
150
330
E3
100
AcDbEntity
  8
0
  6
Continuous
100
AcDbLine
 10
195.661701226211
 20
145.0624798192233
 30
0.0
 11
195.4746104341541
 21
144.4902045237072
 31
0.0
  0
LINE
  5
151
330
E3
100
AcDbEntity
  8
0
  6
Continuous
100
AcDbLine
 10
195.661701226211
 20
145.0624798192233
 30
0.0
 11
190.7262147654036
 21
145.8424069176941
 31
0.0
  0
LINE
  5
152
330
E3
100
AcDbEntity
  8
0
  6
Continuous
100
AcDbLine
 10
133.5796243844283
 20
171.2242648063097
 30
0.0
 11
195.661701226211
 21
145.0624798192233
 31
0.0
  0
LINE
  5
153
330
E3
100
AcDbEntity
  8
0
  6
Continuous
100
AcDbLine
 10
195.3800380166604
 20
144.5049779907969
 30
0.0
 11
193.6818590529086
 21
145.2239794591775
 31
0.0
  0
LINE
  5
154
330
E3
100
AcDbEntity
  8
0
  6
Continuous
100
AcDbLine
 10
191.1273253051319
 20
145.1693312147968
 30
0.0
 11
190.5316281573617
 21
143.3349926677651
 31
0.0
  0
LINE
  5
155
330
E3
100
AcDbEntity
  8
0
  6
Continuous
100
AcDbLine
 10
190.6764937542651
 20
145.3617361740347
 30
0.0
 11
191.1273253051319
 21
145.1693312147968
 31
0.0
  0
LINE
  5
156
330
E3
100
AcDbEntity
  8
0
  6
Continuous
100
AcDbLine
 10
189.3661790173148
 20
143.8944620964336
 30
0.0
 11
190.6764937542651
 21
145.3617361740347
 31
0.0
  0
LINE
  5
157
330
E3
100
AcDbEntity
  8
0
  6
Continuous
100
AcDbLine
 10
188.9467055807665
 20
144.076028789066
 30
0.0
 11
189.3661790173148
 21
143.8944620964336
 31
0.0
  0
LINE
  5
158
330
E3
100
AcDbEntity
  8
0
  6
Continuous
100
AcDbLine
 10
208.804044180453
 20
140.5846662306265
 30
0.0
 11
190.5316281573617
 21
143.3349926677651
 31
0.0
  0
LINE
  5
159
330
E3
100
AcDbEntity
  8
0
  6
Continuous
100
AcDbLine
 10
208.9818897211631
 20
142.3801179168067
 30
0.0
 11
208.804044180453
 21
140.5846662306265
 31
0.0
  0
LINE
  5
15A
330
E3
100
AcDbEntity
  8
0
  6
Continuous
100
AcDbLine
 10
208.9818897211631
 20
142.3801179168067
 30
0.0
 11
195.4746104341541
 21
144.4902045237072
 31
0.0
  0
LINE
  5
15B
330
E3
100
AcDbEntity
  8
0
  6
Continuous
100
AcDbLine
 10
195.3800380166604
 20
144.5049779907969
 30
0.0
 11
191.1273253051319
 21
145.1693312147968
 31
0.0
  0
LINE
  5
15C
330
E3
100
AcDbEntity
  8
0
  6
Continuous
100
AcDbLine
 10
208.9818897211631
 20
142.3801179168067
 30
0.0
 11
208.5321736926093
 21
142.5659079522182
 31
0.0
  0
LINE
  5
15D
330
E3
100
AcDbEntity
  8
0
  6
Continuous
100
AcDbLine
 10
190.6764937542651
 20
145.3617361740347
 30
0.0
 11
194.929317606393
 21
144.695831097961
 31
0.0
  0
LINE
  5
15E
330
E3
100
AcDbEntity
  8
0
  6
Continuous
100
AcDbLine
 10
195.5120071877093
 20
144.6045970147692
 30
0.0
 11
208.5321736926093
 21
142.5659079522182
 31
0.0
  0
LINE
  5
15F
330
E3
100
AcDbEntity
  8
0
  6
Continuous
100
AcDbLine
 10
189.3643390229461
 20
144.6405695221241
 30
0.0
 11
189.9517664868537
 21
144.5501957494984
 31
0.0
  0
LINE
  5
160
330
E3
100
AcDbEntity
  8
0
  6
Continuous
100
AcDbLine
 10
204.7093445871109
 20
143.1644824066186
 30
0.0
 11
204.4074867190086
 21
144.2698950413707
 31
0.0
  0
LINE
  5
161
330
E3
100
AcDbEntity
  8
0
  6
Continuous
100
AcDbLine
 10
204.4074867190086
 20
144.2698950413707
 30
0.0
 11
202.981050637227
 21
144.8591830812394
 31
0.0
  0
LINE
  5
162
330
E3
100
AcDbEntity
  8
0
  6
Continuous
100
AcDbLine
 10
191.9191362151068
 20
146.6396184375385
 30
0.0
 11
202.981050637227
 21
144.8591830812394
 31
0.0
  0
LINE
  5
163
330
E3
100
AcDbEntity
  8
0
  6
Continuous
100
AcDbLine
 10
199.2720048076528
 20
145.4561604040625
 30
0.0
 11
198.9842617956806
 21
146.5103331061504
 31
0.0
  0
LINE
  5
164
330
E3
100
AcDbEntity
  8
0
  6
Continuous
100
AcDbLine
 10
198.9842617956806
 20
146.5103331061504
 30
0.0
 11
197.6017139017257
 21
147.0814887630349
 31
0.0
  0
LINE
  5
165
330
E3
100
AcDbEntity
  8
0
  6
Continuous
100
AcDbLine
 10
186.5368851261088
 20
148.9077346278993
 30
0.0
 11
197.6017139017257
 21
147.0814887630349
 31
0.0
  0
LINE
  5
166
330
E3
100
AcDbEntity
  8
0
  6
Continuous
100
AcDbLine
 10
194.0015940922481
 20
147.6756875708718
 30
0.0
 11
193.7269656710107
 21
148.6822221189813
 31
0.0
  0
LINE
  5
167
330
E3
100
AcDbEntity
  8
0
  6
Continuous
100
AcDbLine
 10
193.7269656710107
 20
148.6822221189813
 30
0.0
 11
192.3863136667295
 21
149.2360686565814
 31
0.0
  0
LINE
  5
168
330
E3
100
AcDbEntity
  8
0
  6
Continuous
100
AcDbLine
 10
181.3240575901739
 20
151.1044532739108
 30
0.0
 11
192.3863136667295
 21
149.2360686565814
 31
0.0
  0
LINE
  5
169
330
E3
100
AcDbEntity
  8
0
  6
Continuous
100
AcDbLine
 10
188.890513716949
 20
149.8265010329925
 30
0.0
 11
188.628102529014
 21
150.788657551374
 31
0.0
  0
LINE
  5
16A
330
E3
100
AcDbEntity
  8
0
  6
Continuous
100
AcDbLine
 10
188.628102529014
 20
150.788657551374
 30
0.0
 11
187.3274652568527
 21
151.3259770702042
 31
0.0
  0
LINE
  5
16B
330
E3
100
AcDbEntity
  8
0
  6
Continuous
100
AcDbLine
 10
176.2727708573781
 20
153.2331003609192
 30
0.0
 11
187.3274652568527
 21
151.3259770702042
 31
0.0
  0
LINE
  5
16C
330
E3
100
AcDbEntity
  8
0
  6
Continuous
100
AcDbLine
 10
183.9316301017985
 20
151.9118156351715
 30
0.0
 11
183.6806087671478
 21
152.8325619894622
 31
0.0
  0
LINE
  5
16D
330
E3
100
AcDbEntity
  8
0
  6
Continuous
100
AcDbLine
 10
183.6806087671478
 20
152.8325619894622
 30
0.0
 11
182.4182285591078
 21
153.3540748452597
 31
0.0
  0
LINE
  5
16E
330
E3
100
AcDbEntity
  8
0
  6
Continuous
100
AcDbLine
 10
171.375632019699
 20
155.2967837093907
 30
0.0
 11
182.4182285591078
 21
153.3540748452597
 31
0.0
  0
LINE
  5
16F
330
E3
100
AcDbEntity
  8
0
  6
Continuous
100
AcDbLine
 10
179.1182254150077
 20
153.9346404062309
 30
0.0
 11
178.877848879993
 21
154.816672785047
 31
0.0
  0
LINE
  5
170
330
E3
100
AcDbEntity
  8
0
  6
Continuous
100
AcDbLine
 10
178.877848879993
 20
154.816672785047
 30
0.0
 11
177.6520586270825
 21
155.3230746356381
 31
0.0
  0
LINE
  5
171
330
E3
100
AcDbEntity
  8
0
  6
Continuous
100
AcDbLine
 10
166.6256968478302
 20
157.2984382544144
 30
0.0
 11
177.6520586270825
 21
155.3230746356381
 31
0.0
  0
LINE
  5
172
330
E3
100
AcDbEntity
  8
0
  6
Continuous
100
AcDbLine
 10
174.4439728750449
 20
155.8977991406604
 30
0.0
 11
174.213561947114
 21
156.7435832187823
 31
0.0
  0
LINE
  5
173
330
E3
100
AcDbEntity
  8
0
  6
Continuous
100
AcDbLine
 10
174.213561947114
 20
156.7435832187823
 30
0.0
 11
173.0227892156669
 21
157.2355120935341
 31
0.0
  0
LINE
  5
174
330
E3
100
AcDbEntity
  8
0
  6
Continuous
100
AcDbLine
 10
162.0164203953599
 20
159.2408178130656
 30
0.0
 11
173.0227892156669
 21
157.2355120935341
 31
0.0
  0
LINE
  5
175
330
E3
100
AcDbEntity
  8
0
  6
Continuous
100
AcDbLine
 10
169.9029120527249
 20
157.8039386312544
 30
0.0
 11
169.6818410514663
 21
158.615721918582
 31
0.0
  0
LINE
  5
176
330
E3
100
AcDbEntity
  8
0
  6
Continuous
100
AcDbLine
 10
169.6818410514663
 20
158.615721918582
 30
0.0
 11
168.52461219946
 21
159.0937952652692
 31
0.0
  0
LINE
  5
177
330
E3
100
AcDbEntity
  8
0
  6
Continuous
100
AcDbLine
 10
157.5416487661332
 20
161.126515665998
 30
0.0
 11
168.52461219946
 21
159.0937952652692
 31
0.0
  0
LINE
  5
178
330
E3
100
AcDbEntity
  8
0
  6
Continuous
100
AcDbLine
 10
165.4894159406608
 20
159.6555451343856
 30
0.0
 11
165.2771168141217
 21
160.4353981391235
 31
0.0
  0
LINE
  5
179
330
E3
100
AcDbEntity
  8
0
  6
Continuous
100
AcDbLine
 10
165.2771168141217
 20
160.4353981391235
 30
0.0
 11
164.1520364095856
 21
160.9001881260173
 31
0.0
  0
LINE
  5
17A
330
E3
100
AcDbEntity
  8
0
  6
Continuous
100
AcDbLine
 10
153.1955738347495
 20
162.9579769063996
 30
0.0
 11
164.1520364095856
 21
160.9001881260173
 31
0.0
  0
LINE
  5
17B
330
E3
100
AcDbEntity
  8
0
  6
Continuous
100
AcDbLine
 10
161.1981786043087
 20
161.4549690679165
 30
0.0
 11
160.9941244637212
 21
162.2047811802553
 31
0.0
  0
LINE
  5
17C
330
E3
100
AcDbEntity
  8
0
  6
Continuous
100
AcDbLine
 10
160.9941244637212
 20
162.2047811802553
 30
0.0
 11
159.8998670520988
 21
162.6568393940345
 31
0.0
  0
LINE
  5
17D
330
E3
100
AcDbEntity
  8
0
  6
Continuous
100
AcDbLine
 10
148.9727291302432
 20
164.7375107889476
 30
0.0
 11
159.8998670520988
 21
162.6568393940345
 31
0.0
  0
LINE
  5
17E
330
E3
100
AcDbEntity
  8
0
  6
Continuous
100
AcDbLine
 10
157.0241781351008
 20
163.2044085459249
 30
0.0
 11
156.8278873712007
 21
163.9259333175449
 31
0.0
  0
LINE
  5
17F
330
E3
100
AcDbEntity
  8
0
  6
Continuous
100
AcDbLine
 10
156.8278873712007
 20
163.9259333175449
 30
0.0
 11
155.7632057079871
 21
164.3657742980217
 31
0.0
  0
LINE
  5
180
330
E3
100
AcDbEntity
  8
0
  6
Continuous
100
AcDbLine
 10
144.8679445565807
 20
166.4672948461277
 30
0.0
 11
155.7632057079871
 21
164.3657742980217
 31
0.0
  0
LINE
  5
181
330
E3
100
AcDbEntity
  8
0
  6
Continuous
100
AcDbLine
 10
152.9626643014903
 20
164.9059546582081
 30
0.0
 11
152.7736964681983
 21
165.6007974533234
 31
0.0
  0
LINE
  5
182
330
E3
100
AcDbEntity
  8
0
  6
Continuous
100
AcDbLine
 10
152.7736964681983
 20
165.6007974533234
 30
0.0
 11
151.7374009373476
 21
166.0289110423992
 31
0.0
  0
LINE
  5
183
330
E3
100
AcDbEntity
  8
0
  6
Continuous
100
AcDbLine
 10
140.8763340437049
 20
168.1493831208704
 30
0.0
 11
151.7374009373476
 21
166.0289110423992
 31
0.0
  0
LINE
  5
184
330
E3
100
AcDbEntity
  8
0
  6
Continuous
100
AcDbLine
 10
149.0091503163143
 20
166.561566772371
 30
0.0
 11
148.8270855491436
 21
167.231217698278
 31
0.0
  0
LINE
  5
185
330
E3
100
AcDbEntity
  8
0
  6
Continuous
100
AcDbLine
 10
148.8270855491436
 20
167.231217698278
 30
0.0
 11
147.8180647446613
 21
167.6480649236245
 31
0.0
  0
LINE
  5
186
330
E3
100
AcDbEntity
  8
0
  6
Continuous
100
AcDbLine
 10
136.9932873148977
 20
169.7857267481438
 30
0.0
 11
147.8180647446613
 21
167.6480649236245
 31
0.0
  0
LINE
  5
187
330
E3
100
AcDbEntity
  8
0
  6
Continuous
100
AcDbLine
 10
195.5203674305789
 20
144.9342811959186
 30
0.0
 11
190.714507955595
 21
145.691552077376
 31
0.0
  0
LINE
  5
188
330
E3
100
AcDbEntity
  8
0
  6
Continuous
100
AcDbLine
 10
195.3800380166604
 20
144.5049779907969
 30
0.0
 11
195.5203674305789
 21
144.9342811959186
 31
0.0
  0
LINE
  5
189
330
E3
100
AcDbEntity
  8
0
  6
Continuous
100
AcDbLine
 10
195.4746104341541
 20
144.4902045237072
 30
0.0
 11
195.661701226211
 21
145.0624798192233
 31
0.0
  0
LINE
  5
18A
330
E3
100
AcDbEntity
  8
0
  6
Continuous
100
AcDbLine
 10
195.661701226211
 20
145.0624798192233
 30
0.0
 11
190.7262147654036
 21
145.8424069176941
 31
0.0
  0
LINE
  5
18B
330
E3
100
AcDbEntity
  8
0
  6
Continuous
100
AcDbLine
 10
190.5316281573617
 20
143.3349926677651
 30
0.0
 11
191.1273253051319
 21
145.1693312147968
 31
0.0
  0
LINE
  5
18C
330
E3
100
AcDbEntity
  8
0
  6
Continuous
100
AcDbLine
 10
208.804044180453
 20
140.5846662306265
 30
0.0
 11
190.5316281573617
 21
143.3349926677651
 31
0.0
  0
LINE
  5
18D
330
E3
100
AcDbEntity
  8
0
  6
Continuous
100
AcDbLine
 10
208.804044180453
 20
140.5846662306265
 30
0.0
 11
208.9818897211631
 21
142.3801179168067
 31
0.0
  0
LINE
  5
18E
330
E3
100
AcDbEntity
  8
0
  6
Continuous
100
AcDbLine
 10
208.9818897211631
 20
142.3801179168067
 30
0.0
 11
195.4746104341541
 21
144.4902045237072
 31
0.0
  0
LINE
  5
18F
330
E3
100
AcDbEntity
  8
0
  6
Continuous
100
AcDbLine
 10
195.3800380166604
 20
144.5049779907969
 30
0.0
 11
191.1273253051319
 21
145.1693312147968
 31
0.0
  0
LINE
  5
190
330
E3
100
AcDbEntity
  8
0
  6
Continuous
100
AcDbLine
 10
125.7087953189485
 20
92.63529799213482
 30
0.0
 11
123.4020433631645
 21
88.48602013182645
 31
0.0
  0
LINE
  5
191
330
E3
100
AcDbEntity
  8
0
  6
Continuous
100
AcDbLine
 10
121.8674592454826
 20
89.63088767938288
 30
0.0
 11
123.4020433631645
 21
88.48602013182645
 31
0.0
  0
LINE
  5
192
330
E3
100
AcDbEntity
  8
0
  6
Continuous
100
AcDbLine
 10
123.4020433631645
 20
88.48602013182645
 30
0.0
 11
122.6941024425883
 21
90.27742959324152
 31
0.0
  0
LINE
  5
193
330
E3
100
AcDbEntity
  8
0
  6
Continuous
100
AcDbLine
 10
126.4016705138217
 20
90.84272772890328
 30
0.0
 11
123.4020433631645
 21
88.48602013182645
 31
0.0
  0
LINE
  5
194
330
E3
100
AcDbEntity
  8
0
  6
Continuous
100
AcDbLine
 10
126.4016705138217
 20
90.84272772890328
 30
0.0
 11
125.7087953189485
 21
92.63529799213482
 31
0.0
  0
LINE
  5
195
330
E3
100
AcDbEntity
  8
0
  6
Continuous
100
AcDbLine
 10
125.7087953189485
 20
92.63529799213482
 30
0.0
 11
122.6941024425883
 21
90.27742959324152
 31
0.0
  0
LINE
  5
196
330
E3
100
AcDbEntity
  8
0
  6
Continuous
100
AcDbLine
 10
126.4016705138217
 20
90.84272772890328
 30
0.0
 11
122.6941024425883
 21
90.27742959324152
 31
0.0
  0
LINE
  5
197
330
E3
100
AcDbEntity
  8
0
  6
Continuous
100
AcDbLine
 10
162.1623191882063
 20
121.1465870189264
 30
0.0
 11
160.0035653477028
 21
117.2426335084675
 31
0.0
  0
LINE
  5
198
330
E3
100
AcDbEntity
  8
0
  6
Continuous
100
AcDbLine
 10
158.355300862059
 20
118.1690151027821
 30
0.0
 11
160.0035653477028
 21
117.2426335084675
 31
0.0
  0
LINE
  5
199
330
E3
100
AcDbEntity
  8
0
  6
Continuous
100
AcDbLine
 10
160.0035653477028
 20
117.2426335084675
 30
0.0
 11
159.4720539542734
 21
119.0424567248927
 31
0.0
  0
LINE
  5
19A
330
E3
100
AcDbEntity
  8
0
  6
Continuous
100
AcDbLine
 10
162.6815557198744
 20
119.3466403129463
 30
0.0
 11
160.0035653477028
 21
117.2426335084675
 31
0.0
  0
LINE
  5
19B
330
E3
100
AcDbEntity
  8
0
  6
Continuous
100
AcDbLine
 10
162.6815557198744
 20
119.3466403129463
 30
0.0
 11
162.1623191882063
 21
121.1465870189264
 31
0.0
  0
LINE
  5
19C
330
E3
100
AcDbEntity
  8
0
  6
Continuous
100
AcDbLine
 10
162.6815557198744
 20
119.3466403129463
 30
0.0
 11
159.4720539542734
 21
119.0424567248927
 31
0.0
  0
LINE
  5
19D
330
E3
100
AcDbEntity
  8
0
  6
Continuous
100
AcDbLine
 10
124.2835570858499
 20
168.4033023437438
 30
0.0
 11
52.36482095345264
 21
120.5113979114855
 31
0.0
  0
LINE
  5
19E
330
E3
100
AcDbEntity
  8
0
  6
Continuous
100
AcDbLine
 10
52.36482095345264
 20
120.5113979114855
 30
0.0
 11
52.8093915838838
 21
118.8600914664716
 31
0.0
  0
LINE
  5
19F
330
E3
100
AcDbEntity
  8
0
  6
Continuous
100
AcDbLine
 10
125.8597324856366
 20
167.6996012312207
 30
0.0
 11
52.8093915838838
 21
118.8600914664716
 31
0.0
  0
LINE
  5
1A0
330
E3
100
AcDbEntity
  8
0
  6
Continuous
100
AcDbLine
 10
52.36482095345264
 20
120.5113979114855
 30
0.0
 11
52.48411597984591
 21
119.0984304238297
 31
0.0
  0
LINE
  5
1A1
330
E3
100
AcDbEntity
  8
0
  6
Continuous
100
AcDbLine
 10
103.5025001499171
 20
75.26715893302335
 30
0.0
 11
52.48411597984591
 21
119.0984304238297
 31
0.0
  0
LINE
  5
1A2
330
E3
100
AcDbEntity
  8
0
  6
Continuous
100
AcDbLine
 10
103.5011788116792
 20
75.3199630667169
 30
0.0
 11
103.5025001499171
 21
75.26715893302335
 31
0.0
  0
LINE
  5
1A3
330
E3
100
AcDbEntity
  8
0
  6
Continuous
100
AcDbLine
 10
103.5011788116792
 20
75.3199630667169
 30
0.0
 11
102.1771073383083
 21
76.45723189032584
 31
0.0
  0
LINE
  5
1A4
330
E3
100
AcDbEntity
  8
0
  6
Continuous
100
AcDbLine
 10
102.1771073383083
 20
76.45723189032584
 30
0.0
 11
101.508197349731
 21
78.9333538870324
 31
0.0
  0
LINE
  5
1A5
330
E3
100
AcDbEntity
  8
0
  6
Continuous
100
AcDbLine
 10
101.508197349731
 20
78.9333538870324
 30
0.0
 11
100.283559666
 21
79.97575803453424
 31
0.0
  0
LINE
  5
1A6
330
E3
100
AcDbEntity
  8
0
  6
Continuous
100
AcDbLine
 10
100.283559666
 20
79.97575803453424
 30
0.0
 11
99.73319141753085
 21
78.55636085738443
 31
0.0
  0
LINE
  5
1A7
330
E3
100
AcDbEntity
  8
0
  6
Continuous
100
AcDbLine
 10
99.73319141753085
 20
78.55636085738443
 30
0.0
 11
97.51982637951315
 21
80.45745785781821
 31
0.0
  0
LINE
  5
1A8
330
E3
100
AcDbEntity
  8
0
  6
Continuous
100
AcDbLine
 10
97.51982637951315
 20
80.45745785781821
 30
0.0
 11
96.86380870047188
 21
82.886633242054
 31
0.0
  0
LINE
  5
1A9
330
E3
100
AcDbEntity
  8
0
  6
Continuous
100
AcDbLine
 10
96.86380870047188
 20
82.886633242054
 30
0.0
 11
95.68483333784025
 21
83.89017111029685
 31
0.0
  0
LINE
  5
1AA
330
E3
100
AcDbEntity
  8
0
  6
Continuous
100
AcDbLine
 10
95.68483333784025
 20
83.89017111029685
 30
0.0
 11
95.1668193527661
 21
82.47850026296797
 31
0.0
  0
LINE
  5
1AB
330
E3
100
AcDbEntity
  8
0
  6
Continuous
100
AcDbLine
 10
95.1668193527661
 20
82.47850026296797
 30
0.0
 11
93.03503151474362
 21
84.30953340624568
 31
0.0
  0
LINE
  5
1AC
330
E3
100
AcDbEntity
  8
0
  6
Continuous
100
AcDbLine
 10
93.03503151474362
 20
84.30953340624568
 30
0.0
 11
92.39142041965562
 21
86.6935074970539
 31
0.0
  0
LINE
  5
1AD
330
E3
100
AcDbEntity
  8
0
  6
Continuous
100
AcDbLine
 10
92.39142041965562
 20
86.6935074970539
 30
0.0
 11
91.2555964238395
 21
87.66031133901974
 31
0.0
  0
LINE
  5
1AE
330
E3
100
AcDbEntity
  8
0
  6
Continuous
100
AcDbLine
 10
91.2555964238395
 20
87.66031133901974
 30
0.0
 11
90.7679485203258
 21
86.2567743370431
 31
0.0
  0
LINE
  5
1AF
330
E3
100
AcDbEntity
  8
0
  6
Continuous
100
AcDbLine
 10
90.7679485203258
 20
86.2567743370431
 30
0.0
 11
88.71330460727611
 21
88.021547101457
 31
0.0
  0
LINE
  5
1B0
330
E3
100
AcDbEntity
  8
0
  6
Continuous
100
AcDbLine
 10
88.71330460727611
 20
88.021547101457
 30
0.0
 11
88.08163906846957
 21
90.36196642623686
 31
0.0
  0
LINE
  5
1B1
330
E3
100
AcDbEntity
  8
0
  6
Continuous
100
AcDbLine
 10
88.08163906846957
 20
90.36196642623686
 30
0.0
 11
86.98664483583606
 21
91.29402030744183
 31
0.0
  0
LINE
  5
1B2
330
E3
100
AcDbEntity
  8
0
  6
Continuous
100
AcDbLine
 10
86.98664483583606
 20
91.29402030744183
 30
0.0
 11
86.52753125215112
 21
89.89894645629725
 31
0.0
  0
LINE
  5
1B3
330
E3
100
AcDbEntity
  8
0
  6
Continuous
100
AcDbLine
 10
86.52753125215112
 20
89.89894645629725
 30
0.0
 11
84.54591906189462
 21
91.6009906431187
 31
0.0
  0
LINE
  5
1B4
330
E3
100
AcDbEntity
  8
0
  6
Continuous
100
AcDbLine
 10
84.54591906189462
 20
91.6009906431187
 30
0.0
 11
83.92576686592726
 21
93.89942351921802
 31
0.0
  0
LINE
  5
1B5
330
E3
100
AcDbEntity
  8
0
  6
Continuous
100
AcDbLine
 10
83.92576686592726
 20
93.89942351921802
 30
0.0
 11
82.86943721294635
 21
94.7985674340307
 31
0.0
  0
LINE
  5
1B6
330
E3
100
AcDbEntity
  8
0
  6
Continuous
100
AcDbLine
 10
82.86943721294635
 20
94.7985674340307
 30
0.0
 11
82.437153793232
 21
93.41224899233158
 31
0.0
  0
LINE
  5
1B7
330
E3
100
AcDbEntity
  8
0
  6
Continuous
100
AcDbLine
 10
82.437153793232
 20
93.41224899233158
 30
0.0
 11
80.52474926588394
 21
95.05484942372206
 31
0.0
  0
LINE
  5
1B8
330
E3
100
AcDbEntity
  8
0
  6
Continuous
100
AcDbLine
 10
80.52474926588394
 20
95.05484942372206
 30
0.0
 11
79.91569466458745
 21
97.31277360948162
 31
0.0
  0
LINE
  5
1B9
330
E3
100
AcDbEntity
  8
0
  6
Continuous
100
AcDbLine
 10
79.91569466458745
 20
97.31277360948162
 30
0.0
 11
78.89601671151355
 21
98.18071583007875
 31
0.0
  0
LINE
  5
1BA
330
E3
100
AcDbEntity
  8
0
  6
Continuous
100
AcDbLine
 10
78.89601671151355
 20
98.18071583007875
 30
0.0
 11
78.48899513842201
 21
96.80339566061646
 31
0.0
  0
LINE
  5
1BB
330
E3
100
AcDbEntity
  8
0
  6
Continuous
100
AcDbLine
 10
78.48899513842201
 20
96.80339566061646
 30
0.0
 11
76.64223354216307
 21
98.38961487753853
 31
0.0
  0
LINE
  5
1BC
330
E3
100
AcDbEntity
  8
0
  6
Continuous
100
AcDbLine
 10
76.64223354216307
 20
98.38961487753853
 30
0.0
 11
76.04388960159861
 21
100.6084340375662
 31
0.0
  0
LINE
  5
1BD
330
E3
100
AcDbEntity
  8
0
  6
Continuous
100
AcDbLine
 10
76.04388960159861
 20
100.6084340375662
 30
0.0
 11
75.05898630719662
 21
101.4467758118436
 31
0.0
  0
LINE
  5
1BE
330
E3
100
AcDbEntity
  8
0
  6
Continuous
100
AcDbLine
 10
75.05898630719662
 20
101.4467758118436
 30
0.0
 11
74.67576117134256
 21
100.0786556142245
 31
0.0
  0
LINE
  5
1BF
330
E3
100
AcDbEntity
  8
0
  6
Continuous
100
AcDbLine
 10
74.67576117134256
 20
100.0786556142245
 30
0.0
 11
72.89132063714476
 21
101.6113462253974
 31
0.0
  0
LINE
  5
1C0
330
E3
100
AcDbEntity
  8
0
  6
Continuous
100
AcDbLine
 10
72.89132063714476
 20
101.6113462253974
 30
0.0
 11
72.30331277232901
 21
103.792389930568
 31
0.0
  0
LINE
  5
1C1
330
E3
100
AcDbEntity
  8
0
  6
Continuous
100
AcDbLine
 10
72.30331277232901
 20
103.792389930568
 30
0.0
 11
71.35144293387424
 21
104.6026172495034
 31
0.0
  0
LINE
  5
1C2
330
E3
100
AcDbEntity
  8
0
  6
Continuous
100
AcDbLine
 10
71.35144293387424
 20
104.6026172495034
 30
0.0
 11
70.99065585015327
 21
103.2438616764675
 31
0.0
  0
LINE
  5
1C3
330
E3
100
AcDbEntity
  8
0
  6
Continuous
100
AcDbLine
 10
70.99065585015327
 20
103.2438616764675
 30
0.0
 11
69.26543267386907
 21
104.7256869399594
 31
0.0
  0
LINE
  5
1C4
330
E3
100
AcDbEntity
  8
0
  6
Continuous
100
AcDbLine
 10
69.26543267386907
 20
104.7256869399594
 30
0.0
 11
68.68741511404819
 21
106.8702230163705
 31
0.0
  0
LINE
  5
1C5
330
E3
100
AcDbEntity
  8
0
  6
Continuous
100
AcDbLine
 10
68.68741511404819
 20
106.8702230163705
 30
0.0
 11
67.76693632045988
 21
107.6537313119347
 31
0.0
  0
LINE
  5
1C6
330
E3
100
AcDbEntity
  8
0
  6
Continuous
100
AcDbLine
 10
67.76693632045988
 20
107.6537313119347
 30
0.0
 11
67.42732357909311
 21
106.3044762019924
 31
0.0
  0
LINE
  5
1C7
330
E3
100
AcDbEntity
  8
0
  6
Continuous
100
AcDbLine
 10
67.42732357909311
 20
106.3044762019924
 30
0.0
 11
65.75841987249983
 21
107.7379306068132
 31
0.0
  0
LINE
  5
1C8
330
E3
100
AcDbEntity
  8
0
  6
Continuous
100
AcDbLine
 10
65.75841987249983
 20
107.7379306068132
 30
0.0
 11
65.190055079557
 21
109.8471569031476
 31
0.0
  0
LINE
  5
1C9
330
E3
100
AcDbEntity
  8
0
  6
Continuous
100
AcDbLine
 10
65.190055079557
 20
109.8471569031476
 30
0.0
 11
64.29944017667236
 21
110.6052428156676
 31
0.0
  0
LINE
  5
1CA
330
E3
100
AcDbEntity
  8
0
  6
Continuous
100
AcDbLine
 10
64.29944017667236
 20
110.6052428156676
 30
0.0
 11
63.97982862688784
 21
109.2655951930999
 31
0.0
  0
LINE
  5
1CB
330
E3
100
AcDbEntity
  8
0
  6
Continuous
100
AcDbLine
 10
63.97982862688784
 20
109.2655951930999
 30
0.0
 11
62.36453173609522
 21
110.653004459201
 31
0.0
  0
LINE
  5
1CC
330
E3
100
AcDbEntity
  8
0
  6
Continuous
100
AcDbLine
 10
62.36453173609522
 20
110.653004459201
 30
0.0
 11
61.80550275350606
 21
112.7280694283198
 31
0.0
  0
LINE
  5
1CD
330
E3
100
AcDbEntity
  8
0
  6
Continuous
100
AcDbLine
 10
61.80550275350606
 20
112.7280694283198
 30
0.0
 11
60.94332337880625
 21
113.461951388071
 31
0.0
  0
LINE
  5
1CE
330
E3
100
AcDbEntity
  8
0
  6
Continuous
100
AcDbLine
 10
60.94332337880625
 20
113.461951388071
 30
0.0
 11
60.64260984724648
 21
112.1319935792477
 31
0.0
  0
LINE
  5
1CF
330
E3
100
AcDbEntity
  8
0
  6
Continuous
100
AcDbLine
 10
60.64260984724648
 20
112.1319935792477
 30
0.0
 11
59.07837588742273
 21
113.4755434717517
 31
0.0
  0
LINE
  5
1D0
330
E3
100
AcDbEntity
  8
0
  6
Continuous
100
AcDbLine
 10
59.07837588742273
 20
113.4755434717517
 30
0.0
 11
58.52838222393688
 21
115.5175338217382
 31
0.0
  0
LINE
  5
1D1
330
E3
100
AcDbEntity
  8
0
  6
Continuous
100
AcDbLine
 10
58.52838222393688
 20
115.5175338217382
 30
0.0
 11
57.69330469022853
 21
116.2283520489446
 31
0.0
  0
LINE
  5
1D2
330
E3
100
AcDbEntity
  8
0
  6
Continuous
100
AcDbLine
 10
57.69330469022853
 20
116.2283520489446
 30
0.0
 11
57.41046421358748
 21
114.9081416823249
 31
0.0
  0
LINE
  5
1D3
330
E3
100
AcDbEntity
  8
0
  6
Continuous
100
AcDbLine
 10
57.41046421358748
 20
114.9081416823249
 30
0.0
 11
55.89490983632219
 21
116.2098821278437
 31
0.0
  0
LINE
  5
1D4
330
E3
100
AcDbEntity
  8
0
  6
Continuous
100
AcDbLine
 10
55.89490983632219
 20
116.2098821278437
 30
0.0
 11
55.35366746596329
 21
118.2198351709595
 31
0.0
  0
LINE
  5
1D5
330
E3
100
AcDbEntity
  8
0
  6
Continuous
100
AcDbLine
 10
55.35366746596329
 20
118.2198351709595
 30
0.0
 11
54.54442394714897
 21
118.9086599084306
 31
0.0
  0
LINE
  5
1D6
330
E3
100
AcDbEntity
  8
0
  6
Continuous
100
AcDbLine
 10
54.54442394714897
 20
118.9086599084306
 30
0.0
 11
54.2785056558536
 21
117.5982422635178
 31
0.0
  0
LINE
  5
1D7
330
E3
100
AcDbEntity
  8
0
  6
Continuous
100
AcDbLine
 10
54.2785056558536
 20
117.5982422635178
 30
0.0
 11
52.8093915838838
 21
118.8600914664716
 31
0.0
  0
LINE
  5
1D8
330
E3
100
AcDbEntity
  8
0
  6
Continuous
100
AcDbLine
 10
188.9614708152192
 20
144.0509809910051
 30
0.0
 11
188.8499473981503
 21
144.240162872859
 31
0.0
  0
LINE
  5
1D9
330
E3
100
AcDbEntity
  8
0
  6
Continuous
100
AcDbLine
 10
190.5228192357758
 20
143.375073260981
 30
0.0
 11
188.9614708152192
 21
144.0509809910051
 31
0.0
  0
LINE
  5
1DA
330
E3
100
AcDbEntity
  8
0
  6
Continuous
100
AcDbLine
 10
190.5316281573617
 20
143.3349926677651
 30
0.0
 11
190.5228192357758
 21
143.375073260981
 31
0.0
  0
LINE
  5
1DB
330
E3
100
AcDbEntity
  8
0
  6
Continuous
100
AcDbLine
 10
190.5316281573617
 20
143.3349926677651
 30
0.0
 11
125.7087953189485
 21
92.63529799213482
 31
0.0
  0
LINE
  5
1DC
330
E3
100
AcDbEntity
  8
0
  6
Continuous
100
AcDbLine
 10
122.6941024425883
 20
90.27742959324152
 30
0.0
 11
103.5025001499171
 21
75.26715893302335
 31
0.0
  0
LINE
  5
1DD
330
E3
100
AcDbEntity
  8
0
  6
Continuous
100
AcDbLine
 10
103.5011788116792
 20
75.3199630667169
 30
0.0
 11
190.5228192357758
 21
143.375073260981
 31
0.0
  0
LINE
  5
1DE
330
E3
100
AcDbEntity
  8
0
  6
Continuous
100
AcDbLine
 10
188.9614708152192
 20
144.0509809910051
 30
0.0
 11
185.4699683019508
 21
141.3315598731502
 31
0.0
  0
LINE
  5
1DF
330
E3
100
AcDbEntity
  8
0
  6
Continuous
100
AcDbLine
 10
185.269573568508
 20
141.1754731920209
 30
0.0
 11
102.1771073383083
 21
76.45723189032584
 31
0.0
  0
LINE
  5
1E0
330
E3
100
AcDbEntity
  8
0
  6
Continuous
100
AcDbLine
 10
181.6782750295718
 20
142.7788451081246
 30
0.0
 11
100.283559666
 21
79.97575803453424
 31
0.0
  0
LINE
  5
1E1
330
E3
100
AcDbEntity
  8
0
  6
Continuous
100
AcDbLine
 10
179.7885925803333
 20
143.6225133985385
 30
0.0
 11
97.51982637951315
 21
80.45745785781821
 31
0.0
  0
LINE
  5
1E2
330
E3
100
AcDbEntity
  8
0
  6
Continuous
100
AcDbLine
 10
176.2668104281929
 20
145.1948482731665
 30
0.0
 11
95.68483333784025
 21
83.89017111029685
 31
0.0
  0
LINE
  5
1E3
330
E3
100
AcDbEntity
  8
0
  6
Continuous
100
AcDbLine
 10
174.4867331916031
 20
145.989581769275
 30
0.0
 11
93.03503151474362
 21
84.30953340624568
 31
0.0
  0
LINE
  5
1E4
330
E3
100
AcDbEntity
  8
0
  6
Continuous
100
AcDbLine
 10
171.0318823782417
 20
147.5320362879253
 30
0.0
 11
91.2555964238395
 21
87.66031133901974
 31
0.0
  0
LINE
  5
1E5
330
E3
100
AcDbEntity
  8
0
  6
Continuous
100
AcDbLine
 10
169.3553593661084
 20
148.2805352946633
 30
0.0
 11
88.71330460727611
 21
88.021547101457
 31
0.0
  0
LINE
  5
1E6
330
E3
100
AcDbEntity
  8
0
  6
Continuous
100
AcDbLine
 10
165.9649865657012
 20
149.7942043980565
 30
0.0
 11
86.98664483583606
 21
91.29402030744183
 31
0.0
  0
LINE
  5
1E7
330
E3
100
AcDbEntity
  8
0
  6
Continuous
100
AcDbLine
 10
164.3863743053636
 20
150.4989922186631
 30
0.0
 11
84.54591906189462
 21
91.6009906431187
 31
0.0
  0
LINE
  5
1E8
330
E3
100
AcDbEntity
  8
0
  6
Continuous
100
AcDbLine
 10
161.0581661469145
 20
151.9849049864236
 30
0.0
 11
82.86943721294635
 21
94.7985674340307
 31
0.0
  0
LINE
  5
1E9
330
E3
100
AcDbEntity
  8
0
  6
Continuous
100
AcDbLine
 10
159.5721916343766
 20
152.6483320387615
 30
0.0
 11
80.52474926588394
 21
95.05484942372206
 31
0.0
  0
LINE
  5
1EA
330
E3
100
AcDbEntity
  8
0
  6
Continuous
100
AcDbLine
 10
156.3039500038078
 20
154.1074722710104
 30
0.0
 11
78.89601671151355
 21
98.18071583007875
 31
0.0
  0
LINE
  5
1EB
330
E3
100
AcDbEntity
  8
0
  6
Continuous
100
AcDbLine
 10
154.9056901221457
 20
154.7317366691574
 30
0.0
 11
76.64223354216307
 21
98.38961487753853
 31
0.0
  0
LINE
  5
1EC
330
E3
100
AcDbEntity
  8
0
  6
Continuous
100
AcDbLine
 10
151.6953280459786
 20
156.1650387701937
 30
0.0
 11
75.05898630719662
 21
101.4467758118436
 31
0.0
  0
LINE
  5
1ED
330
E3
100
AcDbEntity
  8
0
  6
Continuous
100
AcDbLine
 10
150.3801725184745
 20
156.7522027897174
 30
0.0
 11
72.89132063714476
 21
101.6113462253974
 31
0.0
  0
LINE
  5
1EE
330
E3
100
AcDbEntity
  8
0
  6
Continuous
100
AcDbLine
 10
147.2257141638301
 20
158.1605435353813
 30
0.0
 11
71.35144293387424
 21
104.6026172495034
 31
0.0
  0
LINE
  5
1EF
330
E3
100
AcDbEntity
  8
0
  6
Continuous
100
AcDbLine
 10
145.989349088698
 20
158.7125294970202
 30
0.0
 11
69.26543267386907
 21
104.7256869399594
 31
0.0
  0
LINE
  5
1F0
330
E3
100
AcDbEntity
  8
0
  6
Continuous
100
AcDbLine
 10
142.8889132980225
 20
160.0967527326038
 30
0.0
 11
67.76693632045988
 21
107.6537313119347
 31
0.0
  0
LINE
  5
1F1
330
E3
100
AcDbEntity
  8
0
  6
Continuous
100
AcDbLine
 10
141.7272964504974
 20
160.6153677001787
 30
0.0
 11
65.75841987249983
 21
107.7379306068132
 31
0.0
  0
LINE
  5
1F2
330
E3
100
AcDbEntity
  8
0
  6
Continuous
100
AcDbLine
 10
138.6790885089257
 20
161.9762678751521
 30
0.0
 11
64.29944017667236
 21
110.6052428156676
 31
0.0
  0
LINE
  5
1F3
330
E3
100
AcDbEntity
  8
0
  6
Continuous
100
AcDbLine
 10
137.5884246433522
 20
162.4632077718841
 30
0.0
 11
62.36453173609522
 21
110.653004459201
 31
0.0
  0
LINE
  5
1F4
330
E3
100
AcDbEntity
  8
0
  6
Continuous
100
AcDbLine
 10
134.5907486276631
 20
163.801550521488
 30
0.0
 11
60.94332337880625
 21
113.461951388071
 31
0.0
  0
LINE
  5
1F5
330
E3
100
AcDbEntity
  8
0
  6
Continuous
100
AcDbLine
 10
133.5674730122219
 20
164.2584042463174
 30
0.0
 11
59.07837588742273
 21
113.4755434717517
 31
0.0
  0
LINE
  5
1F6
330
E3
100
AcDbEntity
  8
0
  6
Continuous
100
AcDbLine
 10
130.6187070929272
 20
165.5749099262889
 30
0.0
 11
57.69330469022853
 21
116.2283520489446
 31
0.0
  0
LINE
  5
1F7
330
E3
100
AcDbEntity
  8
0
  6
Continuous
100
AcDbLine
 10
129.6594731606793
 20
166.0031675865121
 30
0.0
 11
55.89490983632219
 21
116.2098821278437
 31
0.0
  0
LINE
  5
1F8
330
E3
100
AcDbEntity
  8
0
  6
Continuous
100
AcDbLine
 10
126.7580696020237
 20
167.2985277383588
 30
0.0
 11
54.54442394714897
 21
118.9086599084306
 31
0.0
  0
LINE
  5
1F9
330
E3
100
AcDbEntity
  8
0
  6
Continuous
100
AcDbLine
 10
124.0504664345768
 20
168.5073669916942
 30
0.0
 11
123.9113554509337
 21
168.9232756964231
 31
0.0
  0
LINE
  5
1FA
330
E3
100
AcDbEntity
  8
0
  6
Continuous
100
AcDbLine
 10
185.392857307526
 20
141.1204338973829
 30
0.0
 11
124.0504664345768
 21
168.5073669916942
 31
0.0
  0
LINE
  5
1FB
330
E3
100
AcDbEntity
  8
0
  6
Continuous
100
AcDbLine
 10
185.392857307526
 20
141.1204338973829
 30
0.0
 11
185.2809263749258
 21
141.6050480741636
 31
0.0
  0
LINE
  5
1FC
330
E3
100
AcDbEntity
  8
0
  6
Continuous
100
AcDbLine
 10
185.2809263749258
 20
141.6050480741636
 30
0.0
 11
123.9113554509337
 21
168.9232756964231
 31
0.0
  0
LINE
  5
1FD
330
E3
100
AcDbEntity
  8
0
  6
Continuous
100
AcDbLine
 10
128.805032464756
 20
172.1763816238744
 30
0.0
 11
123.9113554509337
 21
168.9232756964231
 31
0.0
  0
LINE
  5
1FE
330
E3
100
AcDbEntity
  8
0
  6
Continuous
100
AcDbLine
 10
185.4995070034931
 20
141.2035259025855
 30
0.0
 11
185.392857307526
 21
141.1204338973829
 31
0.0
  0
LINE
  5
1FF
330
E3
100
AcDbEntity
  8
0
  6
Continuous
100
AcDbLine
 10
185.4995070034931
 20
141.2035259025855
 30
0.0
 11
185.4156740609609
 21
141.5668980343232
 31
0.0
  0
LINE
  5
200
330
E3
100
AcDbEntity
  8
0
  6
Continuous
100
AcDbLine
 10
190.714507955595
 20
145.691552077376
 30
0.0
 11
185.4156740609609
 21
141.5668980343232
 31
0.0
  0
LINE
  5
201
330
E3
100
AcDbEntity
  8
0
  6
Continuous
100
AcDbLine
 10
190.714507955595
 20
145.691552077376
 30
0.0
 11
190.7262188817221
 21
145.8424069176941
 31
0.0
  0
LINE
  5
202
330
E3
100
AcDbEntity
  8
0
  6
Continuous
100
AcDbLine
 10
190.7262188817221
 20
145.8424069176941
 30
0.0
 11
185.2809263749258
 21
141.6050480741636
 31
0.0
  0
LINE
  5
203
330
E3
100
AcDbEntity
  8
0
  6
Continuous
100
AcDbLine
 10
190.7262188817221
 20
145.8424069176941
 30
0.0
 11
128.805032464756
 21
172.1763816238744
 31
0.0
  0
LINE
  5
204
330
E3
100
AcDbEntity
  8
0
  6
Continuous
100
AcDbLine
 10
185.392857307526
 20
141.1204338973829
 30
0.0
 11
185.2809263749258
 21
141.6050480741636
 31
0.0
  0
LINE
  5
205
330
E3
100
AcDbEntity
  8
0
  6
Continuous
100
AcDbLine
 10
185.392857307526
 20
141.1204338973829
 30
0.0
 11
185.4995070034931
 21
141.2035259025855
 31
0.0
  0
LINE
  5
206
330
E3
100
AcDbEntity
  8
0
  6
Continuous
100
AcDbLine
 10
185.4995070034931
 20
141.2035259025855
 30
0.0
 11
185.4156740609609
 21
141.5668980343232
 31
0.0
  0
LINE
  5
207
330
E3
100
AcDbEntity
  8
0
  6
Continuous
100
AcDbLine
 10
185.4156740609609
 20
141.5668980343232
 30
0.0
 11
190.714507955595
 21
145.691552077376
 31
0.0
  0
LINE
  5
208
330
E3
100
AcDbEntity
  8
0
  6
Continuous
100
AcDbLine
 10
185.2809263749258
 20
141.6050480741636
 30
0.0
 11
190.7262188817221
 21
145.8424069176941
 31
0.0
  0
LINE
  5
209
330
E3
100
AcDbEntity
  8
0
  6
Continuous
100
AcDbLine
 10
52.48411597984591
 20
119.0984304238297
 30
0.0
 11
52.36482095345264
 21
120.5113979114855
 31
0.0
  0
LINE
  5
20A
330
E3
100
AcDbEntity
  8
0
  6
Continuous
100
AcDbLine
 10
103.5025042662356
 20
75.26715893302335
 30
0.0
 11
52.48411597984591
 21
119.0984304238297
 31
0.0
  0
LINE
  5
20B
330
E3
100
AcDbEntity
  8
0
  6
Continuous
100
AcDbLine
 10
103.5011829279977
 20
75.3199630667169
 30
0.0
 11
102.1771073383083
 21
76.45723189032584
 31
0.0
  0
LINE
  5
20C
330
E3
100
AcDbEntity
  8
0
  6
Continuous
100
AcDbLine
 10
102.1771073383083
 20
76.45723189032584
 30
0.0
 11
101.508197349731
 21
78.93335800335089
 31
0.0
  0
LINE
  5
20D
330
E3
100
AcDbEntity
  8
0
  6
Continuous
100
AcDbLine
 10
101.508197349731
 20
78.93335800335089
 30
0.0
 11
100.283559666
 21
79.97576215085274
 31
0.0
  0
LINE
  5
20E
330
E3
100
AcDbEntity
  8
0
  6
Continuous
100
AcDbLine
 10
99.73319141753085
 20
78.55636085738443
 30
0.0
 11
100.283559666
 21
79.97576215085274
 31
0.0
  0
LINE
  5
20F
330
E3
100
AcDbEntity
  8
0
  6
Continuous
100
AcDbLine
 10
99.73319141753085
 20
78.55636085738443
 30
0.0
 11
97.51982637951315
 21
80.45745785781821
 31
0.0
  0
LINE
  5
210
330
E3
100
AcDbEntity
  8
0
  6
Continuous
100
AcDbLine
 10
97.51982637951315
 20
80.45745785781821
 30
0.0
 11
96.86380870047188
 21
82.886633242054
 31
0.0
  0
LINE
  5
211
330
E3
100
AcDbEntity
  8
0
  6
Continuous
100
AcDbLine
 10
96.86380870047188
 20
82.886633242054
 30
0.0
 11
95.68483333784025
 21
83.89017111029685
 31
0.0
  0
LINE
  5
212
330
E3
100
AcDbEntity
  8
0
  6
Continuous
100
AcDbLine
 10
95.1668193527661
 20
82.47850026296797
 30
0.0
 11
95.68483333784025
 21
83.89017111029685
 31
0.0
  0
LINE
  5
213
330
E3
100
AcDbEntity
  8
0
  6
Continuous
100
AcDbLine
 10
95.1668193527661
 20
82.47850026296797
 30
0.0
 11
93.03503151474362
 21
84.30953752256417
 31
0.0
  0
LINE
  5
214
330
E3
100
AcDbEntity
  8
0
  6
Continuous
100
AcDbLine
 10
93.03503151474362
 20
84.30953752256417
 30
0.0
 11
92.39141630333711
 21
86.6935074970539
 31
0.0
  0
LINE
  5
215
330
E3
100
AcDbEntity
  8
0
  6
Continuous
100
AcDbLine
 10
92.39141630333711
 20
86.6935074970539
 30
0.0
 11
91.2555964238395
 21
87.66031133901974
 31
0.0
  0
LINE
  5
216
330
E3
100
AcDbEntity
  8
0
  6
Continuous
100
AcDbLine
 10
90.7679485203258
 20
86.2567743370431
 30
0.0
 11
91.2555964238395
 21
87.66031133901974
 31
0.0
  0
LINE
  5
217
330
E3
100
AcDbEntity
  8
0
  6
Continuous
100
AcDbLine
 10
90.7679485203258
 20
86.2567743370431
 30
0.0
 11
88.71330460727611
 21
88.02154298513851
 31
0.0
  0
LINE
  5
218
330
E3
100
AcDbEntity
  8
0
  6
Continuous
100
AcDbLine
 10
88.71330460727611
 20
88.02154298513851
 30
0.0
 11
88.08163906846957
 21
90.36196642623686
 31
0.0
  0
LINE
  5
219
330
E3
100
AcDbEntity
  8
0
  6
Continuous
100
AcDbLine
 10
88.08163906846957
 20
90.36196642623686
 30
0.0
 11
86.98664483583606
 21
91.29402030744183
 31
0.0
  0
LINE
  5
21A
330
E3
100
AcDbEntity
  8
0
  6
Continuous
100
AcDbLine
 10
86.52753125215112
 20
89.89894645629725
 30
0.0
 11
86.98664483583606
 21
91.29402030744183
 31
0.0
  0
LINE
  5
21B
330
E3
100
AcDbEntity
  8
0
  6
Continuous
100
AcDbLine
 10
86.52753125215112
 20
89.89894645629725
 30
0.0
 11
84.54591906189462
 21
91.6009906431187
 31
0.0
  0
LINE
  5
21C
330
E3
100
AcDbEntity
  8
0
  6
Continuous
100
AcDbLine
 10
84.54591906189462
 20
91.6009906431187
 30
0.0
 11
83.92576686592726
 21
93.89942351921802
 31
0.0
  0
LINE
  5
21D
330
E3
100
AcDbEntity
  8
0
  6
Continuous
100
AcDbLine
 10
83.92576686592726
 20
93.89942351921802
 30
0.0
 11
82.86943721294635
 21
94.79856331771221
 31
0.0
  0
LINE
  5
21E
330
E3
100
AcDbEntity
  8
0
  6
Continuous
100
AcDbLine
 10
82.437153793232
 20
93.41224899233158
 30
0.0
 11
82.86943721294635
 21
94.79856331771221
 31
0.0
  0
LINE
  5
21F
330
E3
100
AcDbEntity
  8
0
  6
Continuous
100
AcDbLine
 10
82.437153793232
 20
93.41224899233158
 30
0.0
 11
80.52475338220245
 21
95.05484942372206
 31
0.0
  0
LINE
  5
220
330
E3
100
AcDbEntity
  8
0
  6
Continuous
100
AcDbLine
 10
80.52475338220245
 20
95.05484942372206
 30
0.0
 11
79.91569466458745
 21
97.31277360948162
 31
0.0
  0
LINE
  5
221
330
E3
100
AcDbEntity
  8
0
  6
Continuous
100
AcDbLine
 10
79.91569466458745
 20
97.31277360948162
 30
0.0
 11
78.89601671151355
 21
98.18071583007875
 31
0.0
  0
LINE
  5
222
330
E3
100
AcDbEntity
  8
0
  6
Continuous
100
AcDbLine
 10
78.48899513842201
 20
96.80339977693495
 30
0.0
 11
78.89601671151355
 21
98.18071583007875
 31
0.0
  0
LINE
  5
223
330
E3
100
AcDbEntity
  8
0
  6
Continuous
100
AcDbLine
 10
78.48899513842201
 20
96.80339977693495
 30
0.0
 11
76.64223765848158
 21
98.38961487753853
 31
0.0
  0
LINE
  5
224
330
E3
100
AcDbEntity
  8
0
  6
Continuous
100
AcDbLine
 10
76.64223765848158
 20
98.38961487753853
 30
0.0
 11
76.04388960159861
 21
100.6084340375662
 31
0.0
  0
LINE
  5
225
330
E3
100
AcDbEntity
  8
0
  6
Continuous
100
AcDbLine
 10
76.04388960159861
 20
100.6084340375662
 30
0.0
 11
75.05898630719662
 21
101.4467758118436
 31
0.0
  0
LINE
  5
226
330
E3
100
AcDbEntity
  8
0
  6
Continuous
100
AcDbLine
 10
74.67576117134256
 20
100.0786556142245
 30
0.0
 11
75.05898630719662
 21
101.4467758118436
 31
0.0
  0
LINE
  5
227
330
E3
100
AcDbEntity
  8
0
  6
Continuous
100
AcDbLine
 10
74.67576117134256
 20
100.0786556142245
 30
0.0
 11
72.89132063714476
 21
101.6113462253974
 31
0.0
  0
LINE
  5
228
330
E3
100
AcDbEntity
  8
0
  6
Continuous
100
AcDbLine
 10
72.89132063714476
 20
101.6113462253974
 30
0.0
 11
72.30331277232901
 21
103.792389930568
 31
0.0
  0
LINE
  5
229
330
E3
100
AcDbEntity
  8
0
  6
Continuous
100
AcDbLine
 10
72.30331277232901
 20
103.792389930568
 30
0.0
 11
71.35143881755573
 21
104.6026172495034
 31
0.0
  0
LINE
  5
22A
330
E3
100
AcDbEntity
  8
0
  6
Continuous
100
AcDbLine
 10
70.99065585015327
 20
103.2438616764675
 30
0.0
 11
71.35143881755573
 21
104.6026172495034
 31
0.0
  0
LINE
  5
22B
330
E3
100
AcDbEntity
  8
0
  6
Continuous
100
AcDbLine
 10
70.99065585015327
 20
103.2438616764675
 30
0.0
 11
69.26543267386907
 21
104.7256910562779
 31
0.0
  0
LINE
  5
22C
330
E3
100
AcDbEntity
  8
0
  6
Continuous
100
AcDbLine
 10
69.26543267386907
 20
104.7256910562779
 30
0.0
 11
68.68741511404819
 21
106.870227132689
 31
0.0
  0
LINE
  5
22D
330
E3
100
AcDbEntity
  8
0
  6
Continuous
100
AcDbLine
 10
68.68741511404819
 20
106.870227132689
 30
0.0
 11
67.76693632045988
 21
107.6537313119347
 31
0.0
  0
LINE
  5
22E
330
E3
100
AcDbEntity
  8
0
  6
Continuous
100
AcDbLine
 10
67.42732357909311
 20
106.3044762019924
 30
0.0
 11
67.76693632045988
 21
107.6537313119347
 31
0.0
  0
LINE
  5
22F
330
E3
100
AcDbEntity
  8
0
  6
Continuous
100
AcDbLine
 10
67.42732357909311
 20
106.3044762019924
 30
0.0
 11
65.75841987249983
 21
107.7379306068132
 31
0.0
  0
LINE
  5
230
330
E3
100
AcDbEntity
  8
0
  6
Continuous
100
AcDbLine
 10
65.75841987249983
 20
107.7379306068132
 30
0.0
 11
65.190055079557
 21
109.8471569031476
 31
0.0
  0
LINE
  5
231
330
E3
100
AcDbEntity
  8
0
  6
Continuous
100
AcDbLine
 10
65.190055079557
 20
109.8471569031476
 30
0.0
 11
64.29944017667236
 21
110.6052428156676
 31
0.0
  0
LINE
  5
232
330
E3
100
AcDbEntity
  8
0
  6
Continuous
100
AcDbLine
 10
63.97982862688784
 20
109.2655951930999
 30
0.0
 11
64.29944017667236
 21
110.6052428156676
 31
0.0
  0
LINE
  5
233
330
E3
100
AcDbEntity
  8
0
  6
Continuous
100
AcDbLine
 10
63.97982862688784
 20
109.2655951930999
 30
0.0
 11
62.36452761977672
 21
110.653004459201
 31
0.0
  0
LINE
  5
234
330
E3
100
AcDbEntity
  8
0
  6
Continuous
100
AcDbLine
 10
62.36452761977672
 20
110.653004459201
 30
0.0
 11
61.80550275350606
 21
112.7280694283198
 31
0.0
  0
LINE
  5
235
330
E3
100
AcDbEntity
  8
0
  6
Continuous
100
AcDbLine
 10
61.80550275350606
 20
112.7280694283198
 30
0.0
 11
60.94332337880625
 21
113.461951388071
 31
0.0
  0
LINE
  5
236
330
E3
100
AcDbEntity
  8
0
  6
Continuous
100
AcDbLine
 10
60.64260984724648
 20
112.1319935792477
 30
0.0
 11
60.94332337880625
 21
113.461951388071
 31
0.0
  0
LINE
  5
237
330
E3
100
AcDbEntity
  8
0
  6
Continuous
100
AcDbLine
 10
60.64260984724648
 20
112.1319935792477
 30
0.0
 11
59.07837588742273
 21
113.4755434717517
 31
0.0
  0
LINE
  5
238
330
E3
100
AcDbEntity
  8
0
  6
Continuous
100
AcDbLine
 10
59.07837588742273
 20
113.4755434717517
 30
0.0
 11
58.52838222393688
 21
115.5175338217382
 31
0.0
  0
LINE
  5
239
330
E3
100
AcDbEntity
  8
0
  6
Continuous
100
AcDbLine
 10
58.52838222393688
 20
115.5175338217382
 30
0.0
 11
57.69330057391003
 21
116.2283520489446
 31
0.0
  0
LINE
  5
23A
330
E3
100
AcDbEntity
  8
0
  6
Continuous
100
AcDbLine
 10
57.41046421358748
 20
114.9081416823249
 30
0.0
 11
57.69330057391003
 21
116.2283520489446
 31
0.0
  0
LINE
  5
23B
330
E3
100
AcDbEntity
  8
0
  6
Continuous
100
AcDbLine
 10
57.41046421358748
 20
114.9081416823249
 30
0.0
 11
55.89490983632219
 21
116.2098821278437
 31
0.0
  0
LINE
  5
23C
330
E3
100
AcDbEntity
  8
0
  6
Continuous
100
AcDbLine
 10
55.89490983632219
 20
116.2098821278437
 30
0.0
 11
55.35366746596329
 21
118.2198351709595
 31
0.0
  0
LINE
  5
23D
330
E3
100
AcDbEntity
  8
0
  6
Continuous
100
AcDbLine
 10
55.35366746596329
 20
118.2198351709595
 30
0.0
 11
54.54442394714897
 21
118.9086599084306
 31
0.0
  0
LINE
  5
23E
330
E3
100
AcDbEntity
  8
0
  6
Continuous
100
AcDbLine
 10
54.2785056558536
 20
117.5982422635178
 30
0.0
 11
54.54442394714897
 21
118.9086599084306
 31
0.0
  0
LINE
  5
23F
330
E3
100
AcDbEntity
  8
0
  6
Continuous
100
AcDbLine
 10
54.2785056558536
 20
117.5982422635178
 30
0.0
 11
52.8093915838838
 21
118.8600914664716
 31
0.0
  0
LINE
  5
240
330
E3
100
AcDbEntity
  8
0
  6
Continuous
100
AcDbLine
 10
52.8093915838838
 20
118.8600914664716
 30
0.0
 11
52.36482095345264
 21
120.5113979114855
 31
0.0
  0
LINE
  5
241
330
E3
100
AcDbEntity
  8
0
  6
Continuous
100
AcDbLine
 10
103.5011788116792
 20
75.3199630667169
 30
0.0
 11
190.5228192357758
 21
143.375073260981
 31
0.0
  0
LINE
  5
242
330
E3
100
AcDbEntity
  8
0
  6
Continuous
100
AcDbLine
 10
103.5025001499171
 20
75.26715893302335
 30
0.0
 11
190.5316281573617
 21
143.3349926677651
 31
0.0
  0
LINE
  5
243
330
E3
100
AcDbEntity
  8
0
  6
Continuous
100
AcDbLine
 10
190.5316281573617
 20
143.3349926677651
 30
0.0
 11
190.5228192357758
 21
143.375073260981
 31
0.0
  0
LINE
  5
244
330
E3
100
AcDbEntity
  8
0
  6
Continuous
100
AcDbLine
 10
123.4020433631645
 20
88.48602013182645
 30
0.0
 11
122.6941024425883
 21
90.27742959324152
 31
0.0
  0
LINE
  5
245
330
E3
100
AcDbEntity
  8
0
  6
Continuous
100
AcDbLine
 10
123.4020433631645
 20
88.48602013182645
 30
0.0
 11
126.4016705138217
 21
90.84272772890328
 31
0.0
  0
LINE
  5
246
330
E3
100
AcDbEntity
  8
0
  6
Continuous
100
AcDbLine
 10
126.4016705138217
 20
90.84272772890328
 30
0.0
 11
125.7087953189485
 21
92.63529799213482
 31
0.0
  0
LINE
  5
247
330
E3
100
AcDbEntity
  8
0
  6
Continuous
100
AcDbLine
 10
122.6941024425883
 20
90.27742959324152
 30
0.0
 11
125.7087953189485
 21
92.63529799213482
 31
0.0
  0
LINE
  5
248
330
E3
100
AcDbEntity
  8
0
  6
Continuous
100
AcDbLine
 10
160.0035653477028
 20
117.2426335084675
 30
0.0
 11
159.4720539542734
 21
119.0424567248927
 31
0.0
  0
LINE
  5
249
330
E3
100
AcDbEntity
  8
0
  6
Continuous
100
AcDbLine
 10
160.0035653477028
 20
117.2426335084675
 30
0.0
 11
162.6815557198744
 21
119.3466403129463
 31
0.0
  0
LINE
  5
24A
330
E3
100
AcDbEntity
  8
0
  6
Continuous
100
AcDbLine
 10
162.6815557198744
 20
119.3466403129463
 30
0.0
 11
162.1623191882063
 21
121.1465870189264
 31
0.0
  0
LINE
  5
24B
330
E3
100
AcDbEntity
  8
0
  6
Continuous
100
AcDbLine
 10
159.4720539542734
 20
119.0424567248927
 30
0.0
 11
162.1623191882063
 21
121.1465870189264
 31
0.0
  0
HATCH
  5
24C
330
E3
100
AcDbEntity
  8
0
  6
Continuous
 62
   255
370
    18
100
AcDbHatch
 10
0.0
 20
0.0
 30
0.0
210
0.0
220
0.0
230
1.0
  2
SOLID
 70
     1
 71
     0
 91
        1
 92
        3
 72
     0
 73
     1
 93
        8
 10
137.9352853694146
 20
118.310664760425
 10
140.4640798241506
 20
116.2586869030669
 10
177.5228511789068
 20
144.6340769621396
 10
147.0532185894565
 20
158.2375542373244
 10
114.8207180504855
 20
135.4580070895716
 10
116.2951646680682
 20
135.899154992323
 10
130.3021649356469
 20
124.4672599909159
 10
135.0697555615965
 20
120.6253772059599
 97
        0
 75
     0
 76
     1
 98
        0
  0
LINE
  5
24D
330
E3
100
AcDbEntity
  8
0
  6
Continuous
100
AcDbLine
 10
140.4640806298022
 20
116.2586851999571
 30
0.0
 11
137.9352862215941
 21
118.3106658549385
 31
0.0
  0
LINE
  5
24E
330
E3
100
AcDbEntity
  8
0
  6
Continuous
100
AcDbLine
 10
177.5228515057458
 20
144.6340780878526
 30
0.0
 11
140.4640806298022
 21
116.2586851999571
 31
0.0
  0
LINE
  5
24F
330
E3
100
AcDbEntity
  8
0
  6
Continuous
100
AcDbLine
 10
147.0532198371674
 20
158.2375557381621
 30
0.0
 11
177.5228515057458
 21
144.6340780878526
 31
0.0
  0
LINE
  5
250
330
E3
100
AcDbEntity
  8
0
  6
Continuous
100
AcDbLine
 10
114.8207171433212
 20
135.4580055898122
 30
0.0
 11
147.0532198371674
 21
158.2375557381621
 31
0.0
  0
LINE
  5
251
330
E3
100
AcDbEntity
  8
0
  6
Continuous
100
AcDbLine
 10
116.2951659640646
 20
135.8991555595714
 30
0.0
 11
114.8207171433212
 21
135.4580055898122
 31
0.0
  0
LINE
  5
252
330
E3
100
AcDbEntity
  8
0
  6
Continuous
100
AcDbLine
 10
130.3021663167422
 20
124.4672581982054
 30
0.0
 11
116.2951659640646
 21
135.8991555595714
 31
0.0
  0
LINE
  5
253
330
E3
100
AcDbEntity
  8
0
  6
Continuous
100
AcDbLine
 10
135.0697563786493
 20
120.6253787706978
 30
0.0
 11
130.3021663167422
 21
124.4672581982054
 31
0.0
  0
LINE
  5
254
330
E3
100
AcDbEntity
  8
0
  6
Continuous
100
AcDbLine
 10
137.9352862215941
 20
118.3106658549385
 30
0.0
 11
135.0697563786493
 21
120.6253787706978
 31
0.0
  0
LINE
  5
256
330
E3
100
AcDbEntity
  8
0
  6
Contour Line
100
AcDbLine
 10
178.1655611270828
 20
143.1865664553608
 30
0.0
 11
181.298729882455
 21
145.7476122190015
 31
0.0
  0
LINE
  5
257
330
E3
100
AcDbEntity
  8
0
  6
Contour Line
100
AcDbLine
 10
180.6956768735288
 20
147.2415847383813
 30
0.0
 11
150.3980743876228
 21
160.4393168743337
 31
0.0
  0
LINE
  5
258
330
E3
100
AcDbEntity
  8
0
  6
Contour Line
100
AcDbLine
 10
147.0532198371674
 20
158.2375557381621
 30
0.0
 11
150.3980743876228
 21
160.4393168743337
 31
0.0
  0
LINE
  5
259
330
E3
100
AcDbEntity
  8
0
  6
Contour Line
100
AcDbLine
 10
180.6540567771945
 20
147.3446902841216
 30
0.0
 11
181.298729882455
 21
145.7476122190015
 31
0.0
  0
LINE
  5
25A
330
E3
100
AcDbEntity
  8
0
  6
Contour Line
100
AcDbLine
 10
180.1115877439232
 20
146.8750883209035
 30
0.0
 11
149.9531456374822
 21
160.1464408131943
 31
0.0
  0
LINE
  5
25B
330
E3
100
AcDbEntity
  8
0
  6
Contour Line
100
AcDbLine
 10
178.0584586360808
 20
145.0977402034779
 30
0.0
 11
147.6259520440367
 21
158.6145570004471
 31
0.0
  0
ELLIPSE
  5
25C
330
E3
100
AcDbEntity
  8
0
  6
Continuous
100
AcDbEllipse
 10
127.774494425796
 20
167.7929468895466
 30
0.0
 11
0.299541041128192
 21
0.0
 31
0.0
210
0.0
220
0.0
230
1.0
 40
0.5714285714285678
 41
0.0
 42
6.283185307179586
  0
ELLIPSE
  5
25D
330
E3
100
AcDbEntity
  8
0
  6
Continuous
100
AcDbEllipse
 10
127.774494425796
 20
167.9199797131415
 30
0.0
 11
0.1809583230519508
 21
0.0
 31
0.0
210
0.0
220
0.0
230
1.0
 40
0.7020004465807893
 41
0.0
 42
6.283185307179586
  0
ELLIPSE
  5
25E
330
E3
100
AcDbEntity
  8
0
  6
Continuous
100
AcDbEllipse
 10
131.643801626176
 20
166.1133018047961
 30
0.0
 11
0.299541041128192
 21
0.0
 31
0.0
210
0.0
220
0.0
230
1.0
 40
0.5714285714285678
 41
0.0
 42
6.283185307179586
  0
ELLIPSE
  5
25F
330
E3
100
AcDbEntity
  8
0
  6
Continuous
100
AcDbEllipse
 10
131.643801626176
 20
166.2403346283911
 30
0.0
 11
0.1809583230519508
 21
0.0
 31
0.0
210
0.0
220
0.0
230
1.0
 40
0.7020004465807893
 41
0.0
 42
6.283185307179586
  0
ELLIPSE
  5
260
330
E3
100
AcDbEntity
  8
0
  6
Continuous
100
AcDbEllipse
 10
139.8971658847658
 20
162.3643988509407
 30
0.0
 11
0.299541041128192
 21
0.0
 31
0.0
210
0.0
220
0.0
230
1.0
 40
0.5714285714285678
 41
0.0
 42
6.283185307179586
  0
ELLIPSE
  5
261
330
E3
100
AcDbEntity
  8
0
  6
Continuous
100
AcDbEllipse
 10
139.8971658847658
 20
162.4914316745357
 30
0.0
 11
0.1809583230519508
 21
0.0
 31
0.0
210
0.0
220
0.0
230
1.0
 40
0.7020004465807893
 41
0.0
 42
6.283185307179586
  0
ELLIPSE
  5
262
330
E3
100
AcDbEntity
  8
0
  6
Continuous
100
AcDbEllipse
 10
148.8048543276354
 20
158.6917913258857
 30
0.0
 11
0.299541041128192
 21
0.0
 31
0.0
210
0.0
220
0.0
230
1.0
 40
0.5714285714285678
 41
0.0
 42
6.283185307179586
  0
ELLIPSE
  5
263
330
E3
100
AcDbEntity
  8
0
  6
Continuous
100
AcDbEllipse
 10
148.8048543276354
 20
158.8188241494807
 30
0.0
 11
0.1809583230519508
 21
0.0
 31
0.0
210
0.0
220
0.0
230
1.0
 40
0.7020004465807893
 41
0.0
 42
6.283185307179586
  0
ELLIPSE
  5
264
330
E3
100
AcDbEntity
  8
0
  6
Continuous
100
AcDbEllipse
 10
157.40478138457
 20
154.9146560497243
 30
0.0
 11
0.299541041128192
 21
0.0
 31
0.0
210
0.0
220
0.0
230
1.0
 40
0.5714285714285678
 41
0.0
 42
6.283185307179586
  0
ELLIPSE
  5
265
330
E3
100
AcDbEntity
  8
0
  6
Continuous
100
AcDbEllipse
 10
157.40478138457
 20
155.0416888733193
 30
0.0
 11
0.1809583230519508
 21
0.0
 31
0.0
210
0.0
220
0.0
230
1.0
 40
0.7020004465807893
 41
0.0
 42
6.283185307179586
  0
ELLIPSE
  5
266
330
E3
100
AcDbEntity
  8
0
  6
Continuous
100
AcDbEllipse
 10
168.7387000794193
 20
149.7663371025073
 30
0.0
 11
0.299541041128192
 21
0.0
 31
0.0
210
0.0
220
0.0
230
1.0
 40
0.5714285714285678
 41
0.0
 42
6.283185307179586
  0
ELLIPSE
  5
267
330
E3
100
AcDbEntity
  8
0
  6
Continuous
100
AcDbEllipse
 10
168.7387000794193
 20
149.8933699261023
 30
0.0
 11
0.1809583230519508
 21
0.0
 31
0.0
210
0.0
220
0.0
230
1.0
 40
0.7020004465807893
 41
0.0
 42
6.283185307179586
  0
ELLIPSE
  5
268
330
E3
100
AcDbEntity
  8
0
  6
Continuous
100
AcDbEllipse
 10
178.0147366297903
 20
145.6797666856925
 30
0.0
 11
0.299541041128192
 21
0.0
 31
0.0
210
0.0
220
0.0
230
1.0
 40
0.5714285714285678
 41
0.0
 42
6.283185307179586
  0
ELLIPSE
  5
269
330
E3
100
AcDbEntity
  8
0
  6
Continuous
100
AcDbEllipse
 10
178.0147366297903
 20
145.8067995092875
 30
0.0
 11
0.1809583230519508
 21
0.0
 31
0.0
210
0.0
220
0.0
230
1.0
 40
0.7020004465807893
 41
0.0
 42
6.283185307179586
  0
MTEXT
  5
26A
330
E3
100
AcDbEntity
  8
Doc_ Floor
  6
Continuous
100
AcDbMText
 10
85.03412636806995
 20
183.057648830706
 30
0.0
 40
2.5
 41
0.0
 71
     6
 72
     1
  1
{TRS PROFILED METAL ROOFING}
  7
GENERATED_STYLE_1
 73
     1
 44
1.0
  0
LINE
  5
26B
330
E3
100
AcDbEntity
  8
Doc_ Floor
  6
Continuous
100
AcDbLine
 10
117.1075214196634
 20
163.6246599666694
 30
0.0
 11
113.8368923243657
 21
165.681641948626
 31
0.0
  0
LINE
  5
26C
330
E3
100
AcDbEntity
  8
Doc_ Floor
  6
Continuous
100
AcDbLine
 10
117.1075214196634
 20
163.6246599666694
 30
0.0
 11
115.3035654194662
 21
167.0413730891459
 31
0.0
  0
LINE
  5
26D
330
E3
100
AcDbEntity
  8
Doc_ Floor
  6
Continuous
100
AcDbLine
 10
113.8368923243657
 20
165.681641948626
 30
0.0
 11
115.3035654194662
 21
167.0413730891459
 31
0.0
  0
LWPOLYLINE
  5
26E
330
E3
100
AcDbEntity
  8
Doc_ Floor
  6
Continuous
100
AcDbPolyline
 90
       14
 70
   128
 43
0.0
 10
114.5702304304889
 20
166.3615082671386
 10
110.3458255561211
 20
170.6590652849517
 10
106.4579050168276
 20
174.2326519303217
 10
102.8321397688663
 20
177.1287978241601
 10
101.0943375529658
 20
178.3373709957897
 10
99.39420076849514
 20
179.3940325873782
 10
97.72243828498647
 20
180.3045988015395
 10
96.06975897197205
 20
181.0748858408874
 10
94.4268716989841
 20
181.7107099080359
 10
92.78448533555489
 20
182.217887205599
 10
91.13330875121663
 20
182.6022339361905
 10
89.46405081550157
 20
182.8695663024243
 10
87.76742039794192
 20
183.0257005069143
 10
86.03412636806995
 20
183.0764527522746
  0
MTEXT
  5
26F
330
E3
100
AcDbEntity
  8
Doc_ Floor
  6
Continuous
100
AcDbMText
 10
85.03412636806995
 20
169.0165574377345
 30
0.0
 40
2.5
 41
56.68353220040037
 71
     6
 72
     1
  1
{SOAKER FLASHING TO BE FULLY SUPPORTED BY ROOFING UNDER}
  7
GENERATED_STYLE_1
 73
     1
 44
1.070162922071087
  0
LINE
  5
270
330
E3
100
AcDbEntity
  8
Doc_ Floor
  6
Continuous
100
AcDbLine
 10
128.3483639742589
 20
135.6130302607689
 30
0.0
 11
125.141986494398
 21
137.7687997703613
 31
0.0
  0
LINE
  5
271
330
E3
100
AcDbEntity
  8
Doc_ Floor
  6
Continuous
100
AcDbLine
 10
128.3483639742589
 20
135.6130302607689
 30
0.0
 11
126.6494440731775
 21
139.0831690810322
 31
0.0
  0
LINE
  5
272
330
E3
100
AcDbEntity
  8
Doc_ Floor
  6
Continuous
100
AcDbLine
 10
125.141986494398
 20
137.7687997703613
 30
0.0
 11
126.6494440731775
 21
139.0831690810322
 31
0.0
  0
LWPOLYLINE
  5
273
330
E3
100
AcDbEntity
  8
Doc_ Floor
  6
Continuous
100
AcDbPolyline
 90
       15
 70
   128
 43
0.0
 10
125.8957156655533
 20
138.4259855128981
 10
118.8122752950213
 20
146.3111199799089
 10
112.5495147860079
 20
152.8624114203107
 10
109.6914413631881
 20
155.665075186602
 10
106.997200166089
 20
158.1669292135236
 10
104.4530119481575
 20
160.378857173503
 10
102.0450974628406
 20
162.3117427389678
 10
99.75967746358525
 20
163.9764695823454
 10
97.58297270383851
 20
165.3839213760634
 10
95.50120393704736
 20
166.5449817925492
 10
93.50059191665878
 20
167.4705345042305
 10
91.56735739611975
 20
168.1714631835347
 10
89.68772112887727
 20
168.6586515028893
 10
87.84790386837835
 20
168.9429831347219
 10
86.03412636806995
 20
169.03534175146
  0
LINE
  5
274
330
E3
100
AcDbEntity
  8
0
  6
Contour Line
100
AcDbLine
 10
134.3963225560426
 20
122.3363224381121
 30
0.0
 11
133.4574438187678
 21
122.3460328334491
 31
0.0
  0
MTEXT
  5
275
330
E3
100
AcDbEntity
  8
0
  6
Continuous
100
AcDbMText
 10
144.0352643592119
 20
76.2134562371308
 30
0.0
 40
2.5
 41
110.5833249280459
 71
     7
 72
     1
  1
{NOTE:\P(1) SUITABLE FOR PIPES FROM 86mm TO 500mm DIAMETER\P(2) SUITABLE ONLY FOR ROOF PITCHES OF 10° OR MORE}
  7
GENERATED_STYLE_1
 73
     1
 44
1.054457242623121
  0
HATCH
  5
276
330
E3
100
AcDbEntity
  8
0
  6
Continuous
 62
   255
370
    18
100
AcDbHatch
 10
0.0
 20
0.0
 30
0.0
210
0.0
220
0.0
230
1.0
  2
SOLID
 70
     1
 71
     0
 91
        1
 92
        3
 72
     0
 73
     1
 93
        4
 10
140.4640798241506
 20
116.2586869030669
 10
140.743704836273
 20
114.4851317101632
 10
178.1655619869355
 20
143.1865680819319
 10
177.5228511789068
 20
144.6340769621396
 97
        0
 75
     0
 76
     1
 98
        0
  0
LINE
  5
277
330
E3
100
AcDbEntity
  8
0
  6
Continuous
100
AcDbLine
 10
140.4640806298022
 20
116.2586851999571
 30
0.0
 11
140.7437062616962
 21
114.4851323281867
 31
0.0
  0
LINE
  5
278
330
E3
100
AcDbEntity
  8
0
  6
Continuous
100
AcDbLine
 10
140.7437062616962
 20
114.4851323281867
 30
0.0
 11
178.1655611270828
 21
143.1865664553608
 31
0.0
  0
LINE
  5
279
330
E3
100
AcDbEntity
  8
0
  6
Continuous
100
AcDbLine
 10
178.1655611270828
 20
143.1865664553608
 30
0.0
 11
177.5228515057458
 21
144.6340780878526
 31
0.0
  0
LINE
  5
27A
330
E3
100
AcDbEntity
  8
0
  6
Continuous
100
AcDbLine
 10
177.5228515057458
 20
144.6340780878526
 30
0.0
 11
140.4640806298022
 21
116.2586851999571
 31
0.0
  0
HATCH
  5
27B
330
E3
100
AcDbEntity
  8
0
  6
Continuous
 62
   255
370
    18
100
AcDbHatch
 10
0.0
 20
0.0
 30
0.0
210
0.0
220
0.0
230
1.0
  2
SOLID
 70
     1
 71
     0
 91
        1
 92
        3
 72
     0
 73
     1
 93
        5
 10
189.9140239646422
 20
144.6961780454017
 10
190.584990919828
 20
145.2902253816853
 10
191.0917782688437
 20
145.1357381631467
 10
191.0688245233856
 20
146.4910172013999
 10
189.9140239646422
 20
146.0336736489549
 97
        0
 75
     0
 76
     1
 98
        0
  0
LINE
  5
27C
330
E3
100
AcDbEntity
  8
0
  6
Continuous
 62
   255
370
    18
100
AcDbLine
 10
190.584992110371
 20
145.2902233727673
 30
0.0
 11
189.9140239625446
 21
144.6961768687149
 31
0.0
  0
LINE
  5
27D
330
E3
100
AcDbEntity
  8
0
  6
Continuous
 62
   255
370
    18
100
AcDbLine
 10
191.0917767785824
 20
145.1357379395338
 30
0.0
 11
190.584992110371
 21
145.2902233727673
 31
0.0
  0
LINE
  5
27E
330
E3
100
AcDbEntity
  8
0
  6
Continuous
 62
   255
370
    18
100
AcDbLine
 10
191.068824186637
 20
146.4910152234388
 30
0.0
 11
191.0917767785824
 21
145.1357379395338
 31
0.0
  0
LINE
  5
27F
330
E3
100
AcDbEntity
  8
0
  6
Continuous
 62
   255
370
    18
100
AcDbLine
 10
189.9140239625446
 20
146.0336716567081
 30
0.0
 11
191.068824186637
 21
146.4910152234388
 31
0.0
  0
LINE
  5
280
330
E3
100
AcDbEntity
  8
0
  6
Continuous
 62
   255
370
    18
100
AcDbLine
 10
189.9140239625446
 20
144.6961768687149
 30
0.0
 11
189.9140239625446
 21
146.0336716567081
 31
0.0
  0
HATCH
  5
281
330
E3
100
AcDbEntity
  8
0
  6
Continuous
 62
   255
370
    18
100
AcDbHatch
 10
0.0
 20
0.0
 30
0.0
210
0.0
220
0.0
230
1.0
  2
SOLID
 70
     1
 71
     0
 91
        1
 92
        3
 72
     0
 73
     1
 93
        4
 10
189.9140239646422
 20
144.6961780454017
 10
189.9140239646422
 20
146.0336736489549
 10
128.0540629388403
 20
172.4769598698931
 10
128.1200146582993
 20
171.4452539896942
 97
        0
 75
     0
 76
     1
 98
        0
  0
LINE
  5
282
330
E3
100
AcDbEntity
  8
0
  6
Continuous
100
AcDbLine
 10
189.9140239625446
 20
146.0336716567081
 30
0.0
 11
189.9140239625446
 21
144.6961768687149
 31
0.0
  0
LINE
  5
283
330
E3
100
AcDbEntity
  8
0
  6
Continuous
100
AcDbLine
 10
128.0540636669191
 20
172.4769593169237
 30
0.0
 11
189.9140239625446
 21
146.0336716567081
 31
0.0
  0
LINE
  5
284
330
E3
100
AcDbEntity
  8
0
  6
Continuous
100
AcDbLine
 10
128.1200153218956
 20
171.4452534811984
 30
0.0
 11
128.0540636669191
 21
172.4769593169237
 31
0.0
  0
LINE
  5
285
330
E3
100
AcDbEntity
  8
0
  6
Continuous
100
AcDbLine
 10
189.9140239625446
 20
144.6961768687149
 30
0.0
 11
128.1200153218956
 21
171.4452534811984
 31
0.0
  0
HATCH
  5
286
330
E3
100
AcDbEntity
  8
0
  6
Continuous
 62
   255
370
    18
100
AcDbHatch
 10
0.0
 20
0.0
 30
0.0
210
0.0
220
0.0
230
1.0
  2
SOLID
 70
     1
 71
     0
 91
        1
 92
        3
 72
     0
 73
     1
 93
        4
 10
128.0540629388403
 20
172.4769598698931
 10
189.9140239646422
 20
146.0336736489549
 10
191.0688245233856
 20
146.4910172013999
 10
129.1030525062823
 20
172.7598701108833
 97
        0
 75
     0
 76
     1
 98
        0
  0
LINE
  5
287
330
E3
100
AcDbEntity
  8
0
  6
Continuous
100
AcDbLine
 10
128.0540636669191
 20
172.4769593169237
 30
0.0
 11
189.9140239625446
 21
146.0336716567081
 31
0.0
  0
LINE
  5
288
330
E3
100
AcDbEntity
  8
0
  6
Continuous
100
AcDbLine
 10
189.9140239625446
 20
146.0336716567081
 30
0.0
 11
191.068824186637
 21
146.4910152234388
 31
0.0
  0
LINE
  5
289
330
E3
100
AcDbEntity
  8
0
  6
Continuous
100
AcDbLine
 10
191.068824186637
 20
146.4910152234388
 30
0.0
 11
129.1030539240179
 21
172.7598697709792
 31
0.0
  0
LINE
  5
28A
330
E3
100
AcDbEntity
  8
0
  6
Continuous
100
AcDbLine
 10
129.1030539240179
 20
172.7598697709792
 30
0.0
 11
128.0540636669191
 21
172.4769593169237
 31
0.0
  0
HATCH
  5
28B
330
E3
100
AcDbEntity
  8
0
  6
Continuous
 62
   255
370
    18
100
AcDbHatch
 10
0.0
 20
0.0
 30
0.0
210
0.0
220
0.0
230
1.0
  2
SOLID
 70
     1
 71
     0
 91
        1
 92
        3
 72
     0
 73
     1
 93
        5
 10
190.5847816897146
 20
143.140199297689
 10
103.5556546450102
 20
75.07236492607514
 10
105.1134509694199
 20
67.75065749856357
 10
136.7975535313527
 20
92.9213034362663
 10
196.1914461387389
 20
138.4051022359741
 97
        0
 75
     0
 76
     1
 98
        0
  0
LINE
  5
28C
330
E3
100
AcDbEntity
  8
0
  6
Continuous
 62
   255
370
    18
100
AcDbLine
 10
190.5847821781276
 20
143.1402002437983
 30
0.0
 11
103.555654170683
 21
75.07236650905655
 31
0.0
  0
LINE
  5
28D
330
E3
100
AcDbEntity
  8
0
  6
Continuous
 62
   255
370
    18
100
AcDbLine
 10
103.555654170683
 20
75.07236650905655
 30
0.0
 11
105.1134502083758
 21
67.75065844754103
 31
0.0
  0
LINE
  5
28E
330
E3
100
AcDbEntity
  8
0
  6
Continuous
 62
   255
370
    18
100
AcDbLine
 10
105.1134502083758
 20
67.75065844754103
 30
0.0
 11
136.7975522539948
 21
92.9213039177009
 31
0.0
  0
LINE
  5
28F
330
E3
100
AcDbEntity
  8
0
  6
Continuous
 62
   255
370
    18
100
AcDbLine
 10
136.7975522539948
 20
92.9213039177009
 30
0.0
 11
196.1914467190047
 21
138.4051002837967
 31
0.0
  0
LINE
  5
290
330
E3
100
AcDbEntity
  8
0
  6
Continuous
 62
   255
370
    18
100
AcDbLine
 10
196.1914467190047
 20
138.4051002837967
 30
0.0
 11
190.5847821781276
 21
143.1402002437983
 31
0.0
  0
HATCH
  5
291
330
E3
100
AcDbEntity
  8
0
  6
Continuous
 62
   255
370
    18
100
AcDbHatch
 10
0.0
 20
0.0
 30
0.0
210
0.0
220
0.0
230
1.0
  2
SOLID
 70
     1
 71
     0
 91
        1
 92
        3
 72
     0
 73
     1
 93
       29
 10
115.7336359838961
 20
135.731148095089
 10
116.5639806861795
 20
134.9796585582205
 10
117.3730704649923
 20
133.264435603947
 10
118.5726592216615
 20
132.5154887189612
 10
119.2150995424761
 20
132.974190381491
 10
120.1294741092586
 20
132.1771175586955
 10
120.8209850771795
 20
130.1940451966838
 10
121.9562885115613
 20
129.2914977547819
 10
122.9884237242682
 20
129.9806579382805
 10
123.8587240851392
 20
129.1846376205673
 10
124.6076069575812
 20
127.1733479176416
 10
125.9289419893105
 20
126.2917930868444
 10
126.7725603634932
 20
126.908805854749
 10
127.7533019622326
 20
126.0965015442371
 10
128.521062342436
 20
124.041286099043
 10
129.8135093347973
 20
123.016379645468
 10
130.6966787781258
 20
123.6705536059637
 10
131.7980488798291
 20
122.7861313665899
 10
132.3563457691347
 20
120.6333837925993
 10
133.6948987927617
 20
119.5108084207906
 10
134.7903694747857
 20
120.332953994614
 10
135.8149309712149
 20
119.5402997476463
 10
136.4712577945185
 20
117.1931664939837
 10
137.8353148702375
 20
115.9571639661495
 10
139.1811624179121
 20
116.8411982478928
 10
140.2376356594778
 20
115.9062436454579
 10
140.8474126599623
 20
114.1939058604454
 10
140.6752050623819
 20
116.0974174245314
 10
116.2951646680682
 20
135.899154992323
 97
        0
 75
     0
 76
     1
 98
        0
  0
LINE
  5
292
330
E3
100
AcDbEntity
  8
0
  6
Continuous
100
AcDbLine
 10
115.7336342598285
 20
135.7311480200717
 30
0.0
 11
116.5639821435826
 21
134.9796605661042
 31
0.0
  0
LINE
  5
293
330
E3
100
AcDbEntity
  8
0
  6
Continuous
100
AcDbLine
 10
116.5639821435826
 20
134.9796605661042
 30
0.0
 11
117.373069242294
 21
133.2644359274518
 31
0.0
  0
LINE
  5
294
330
E3
100
AcDbEntity
  8
0
  6
Continuous
100
AcDbLine
 10
117.373069242294
 20
133.2644359274518
 30
0.0
 11
118.5726591279641
 21
132.5154882419976
 31
0.0
  0
LINE
  5
295
330
E3
100
AcDbEntity
  8
0
  6
Continuous
100
AcDbLine
 10
118.5726591279641
 20
132.5154882419976
 30
0.0
 11
119.2151011885986
 21
132.9741901938327
 31
0.0
  0
LINE
  5
296
330
E3
100
AcDbEntity
  8
0
  6
Continuous
100
AcDbLine
 10
119.2151011885986
 20
132.9741901938327
 30
0.0
 11
120.1294754818543
 21
132.1771186288173
 31
0.0
  0
LINE
  5
297
330
E3
100
AcDbEntity
  8
0
  6
Continuous
100
AcDbLine
 10
120.1294754818543
 20
132.1771186288173
 30
0.0
 11
120.8209840589861
 21
130.1940451454939
 31
0.0
  0
LINE
  5
298
330
E3
100
AcDbEntity
  8
0
  6
Continuous
100
AcDbLine
 10
120.8209840589861
 20
130.1940451454939
 30
0.0
 11
121.9562893986714
 21
129.2914970352833
 31
0.0
  0
LINE
  5
299
330
E3
100
AcDbEntity
  8
0
  6
Continuous
100
AcDbLine
 10
121.9562893986714
 20
129.2914970352833
 30
0.0
 11
122.9884233315206
 21
129.9806593108712
 31
0.0
  0
LINE
  5
29A
330
E3
100
AcDbEntity
  8
0
  6
Continuous
100
AcDbLine
 10
122.9884233315206
 20
129.9806593108712
 30
0.0
 11
123.8587242026171
 21
129.1846374070728
 31
0.0
  0
LINE
  5
29B
330
E3
100
AcDbEntity
  8
0
  6
Continuous
100
AcDbLine
 10
123.8587242026171
 20
129.1846374070728
 30
0.0
 11
124.6076060269753
 21
127.173346560445
 31
0.0
  0
LINE
  5
29C
330
E3
100
AcDbEntity
  8
0
  6
Continuous
100
AcDbLine
 10
124.6076060269753
 20
127.173346560445
 30
0.0
 11
125.9289401485451
 21
126.2917916745747
 31
0.0
  0
LINE
  5
29D
330
E3
100
AcDbEntity
  8
0
  6
Continuous
100
AcDbLine
 10
125.9289401485451
 20
126.2917916745747
 30
0.0
 11
126.772559043137
 21
126.9088072358465
 31
0.0
  0
LINE
  5
29E
330
E3
100
AcDbEntity
  8
0
  6
Continuous
100
AcDbLine
 10
126.772559043137
 20
126.9088072358465
 30
0.0
 11
127.7533007395374
 21
126.0965011760696
 31
0.0
  0
LINE
  5
29F
330
E3
100
AcDbEntity
  8
0
  6
Continuous
100
AcDbLine
 10
127.7533007395374
 20
126.0965011760696
 30
0.0
 11
128.5210641168464
 21
124.0412850947487
 31
0.0
  0
LINE
  5
2A0
330
E3
100
AcDbEntity
  8
0
  6
Continuous
100
AcDbLine
 10
128.5210641168464
 20
124.0412850947487
 30
0.0
 11
129.8135099151965
 21
123.0163794171822
 31
0.0
  0
LINE
  5
2A1
330
E3
100
AcDbEntity
  8
0
  6
Continuous
100
AcDbLine
 10
129.8135099151965
 20
123.0163794171822
 30
0.0
 11
130.6966783979181
 21
123.6705529855363
 31
0.0
  0
LINE
  5
2A2
330
E3
100
AcDbEntity
  8
0
  6
Continuous
100
AcDbLine
 10
130.6966783979181
 20
123.6705529855363
 30
0.0
 11
131.7980488079051
 21
122.7861331419913
 31
0.0
  0
LINE
  5
2A3
330
E3
100
AcDbEntity
  8
0
  6
Continuous
100
AcDbLine
 10
131.7980488079051
 20
122.7861331419913
 30
0.0
 11
132.3563450858016
 21
120.6333850101766
 31
0.0
  0
LINE
  5
2A4
330
E3
100
AcDbEntity
  8
0
  6
Continuous
100
AcDbLine
 10
132.3563450858016
 20
120.6333850101766
 30
0.0
 11
133.6948977676489
 21
119.5108073272873
 31
0.0
  0
LINE
  5
2A5
330
E3
100
AcDbEntity
  8
0
  6
Continuous
100
AcDbLine
 10
133.6948977676489
 20
119.5108073272873
 30
0.0
 11
134.7903694932282
 21
120.3329555045931
 31
0.0
  0
LINE
  5
2A6
330
E3
100
AcDbEntity
  8
0
  6
Continuous
100
AcDbLine
 10
134.7903694932282
 20
120.3329555045931
 30
0.0
 11
135.8149294000408
 21
119.5403007493262
 31
0.0
  0
LINE
  5
2A7
330
E3
100
AcDbEntity
  8
0
  6
Continuous
100
AcDbLine
 10
135.8149294000408
 20
119.5403007493262
 30
0.0
 11
136.4712558029694
 21
117.1931677090759
 31
0.0
  0
LINE
  5
2A8
330
E3
100
AcDbEntity
  8
0
  6
Continuous
100
AcDbLine
 10
136.4712558029694
 20
117.1931677090759
 30
0.0
 11
137.8353131942309
 21
115.9571648699717
 31
0.0
  0
LINE
  5
2A9
330
E3
100
AcDbEntity
  8
0
  6
Continuous
100
AcDbLine
 10
137.8353131942309
 20
115.9571648699717
 30
0.0
 11
139.1811641087752
 21
116.8411977795779
 31
0.0
  0
LINE
  5
2AA
330
E3
100
AcDbEntity
  8
0
  6
Continuous
100
AcDbLine
 10
139.1811641087752
 20
116.8411977795779
 30
0.0
 11
140.2376337165851
 21
115.9062418938317
 31
0.0
  0
LINE
  5
2AB
330
E3
100
AcDbEntity
  8
0
  6
Continuous
100
AcDbLine
 10
140.2376337165851
 20
115.9062418938317
 30
0.0
 11
140.8474127899372
 21
114.1939069107651
 31
0.0
  0
LINE
  5
2AC
330
E3
100
AcDbEntity
  8
0
  6
Continuous
100
AcDbLine
 10
140.8474127899372
 20
114.1939069107651
 30
0.0
 11
140.6752066055695
 21
116.0974160738387
 31
0.0
  0
LINE
  5
2AD
330
E3
100
AcDbEntity
  8
0
  6
Continuous
100
AcDbLine
 10
140.6752066055695
 20
116.0974160738387
 30
0.0
 11
116.2951659640646
 21
135.8991555595714
 31
0.0
  0
LINE
  5
2AE
330
E3
100
AcDbEntity
  8
0
  6
Continuous
100
AcDbLine
 10
116.2951659640646
 20
135.8991555595714
 30
0.0
 11
115.7336342598285
 21
135.7311480200717
 31
0.0
  0
HATCH
  5
2AF
330
E3
100
AcDbEntity
  8
0
  6
Continuous
 62
   255
370
    18
100
AcDbHatch
 10
0.0
 20
0.0
 30
0.0
210
0.0
220
0.0
230
1.0
  2
SOLID
 70
     1
 71
     0
 91
        1
 92
        3
 72
     0
 73
     1
 93
       24
 10
124.0560999532445
 20
168.5048516799183
 10
124.588065728429
 20
166.9344191360599
 10
125.4032979623859
 20
166.3907058080952
 10
126.3803768684275
 20
167.0454396727149
 10
127.3475241495508
 20
166.5939782664716
 10
128.3799360049652
 20
165.2296994230595
 10
129.3062526891189
 20
164.6868090052074
 10
130.1725986564517
 20
165.27304081707
 10
131.2749596802675
 20
164.8428612281425
 10
132.2560178881816
 20
163.3396358577954
 10
133.2602105057405
 20
162.8920994605789
 10
134.0399367277751
 20
163.4250591267633
 10
135.1021840025041
 20
162.8738348676976
 10
136.0507894216886
 20
161.4041680653571
 10
137.1988283320417
 20
160.9539128334488
 10
138.150854501399
 20
161.6114389675807
 10
139.2623897816487
 20
161.0590039291115
 10
140.2886253748972
 20
159.6139942859385
 10
141.4582547967315
 20
159.0980018510563
 10
142.3541961138151
 20
159.7234628608535
 10
143.4243381583752
 20
159.1743313267309
 10
144.3623482112888
 20
157.5676869243597
 10
145.4619424501372
 20
157.1129579685089
 10
147.020188472089
 20
158.2142109936017
 97
        0
 75
     0
 76
     1
 98
        0
  0
LINE
  5
2B0
330
E3
100
AcDbEntity
  8
0
  6
Continuous
100
AcDbLine
 10
124.0561016746007
 20
168.5048519210918
 30
0.0
 11
124.5880658630649
 21
166.9344187856099
 31
0.0
  0
LINE
  5
2B1
330
E3
100
AcDbEntity
  8
0
  6
Continuous
100
AcDbLine
 10
124.5880658630649
 20
166.9344187856099
 30
0.0
 11
125.4032986252939
 21
166.3907066241522
 31
0.0
  0
LINE
  5
2B2
330
E3
100
AcDbEntity
  8
0
  6
Continuous
100
AcDbLine
 10
125.4032986252939
 20
166.3907066241522
 30
0.0
 11
126.3803767982311
 21
167.045440011822
 31
0.0
  0
LINE
  5
2B3
330
E3
100
AcDbEntity
  8
0
  6
Continuous
100
AcDbLine
 10
126.3803767982311
 20
167.045440011822
 30
0.0
 11
127.3475222946323
 21
166.593978664225
 31
0.0
  0
LINE
  5
2B4
330
E3
100
AcDbEntity
  8
0
  6
Continuous
100
AcDbLine
 10
127.3475222946323
 20
166.593978664225
 30
0.0
 11
128.3799361371393
 21
165.2296989917647
 31
0.0
  0
LINE
  5
2B5
330
E3
100
AcDbEntity
  8
0
  6
Continuous
100
AcDbLine
 10
128.3799361371393
 20
165.2296989917647
 30
0.0
 11
129.3062518703579
 21
164.6868100940066
 31
0.0
  0
LINE
  5
2B6
330
E3
100
AcDbEntity
  8
0
  6
Continuous
100
AcDbLine
 10
129.3062518703579
 20
164.6868100940066
 30
0.0
 11
130.1725969593777
 21
165.2730397092312
 31
0.0
  0
LINE
  5
2B7
330
E3
100
AcDbEntity
  8
0
  6
Continuous
100
AcDbLine
 10
130.1725969593777
 20
165.2730397092312
 30
0.0
 11
131.2749594021228
 21
164.8428597282693
 31
0.0
  0
LINE
  5
2B8
330
E3
100
AcDbEntity
  8
0
  6
Continuous
100
AcDbLine
 10
131.2749594021228
 20
164.8428597282693
 30
0.0
 11
132.2560180550476
 21
163.3396378412243
 31
0.0
  0
LINE
  5
2B9
330
E3
100
AcDbEntity
  8
0
  6
Continuous
100
AcDbLine
 10
132.2560180550476
 20
163.3396378412243
 30
0.0
 11
133.2602104179317
 21
162.8920993451561
 31
0.0
  0
LINE
  5
2BA
330
E3
100
AcDbEntity
  8
0
  6
Continuous
100
AcDbLine
 10
133.2602104179317
 20
162.8920993451561
 30
0.0
 11
134.0399358167961
 21
163.4250596826968
 31
0.0
  0
LINE
  5
2BB
330
E3
100
AcDbEntity
  8
0
  6
Continuous
100
AcDbLine
 10
134.0399358167961
 20
163.4250596826968
 30
0.0
 11
135.1021847357773
 21
162.87383523998
 31
0.0
  0
LINE
  5
2BC
330
E3
100
AcDbEntity
  8
0
  6
Continuous
100
AcDbLine
 10
135.1021847357773
 20
162.87383523998
 30
0.0
 11
136.0507903336631
 21
161.4041695813315
 31
0.0
  0
LINE
  5
2BD
330
E3
100
AcDbEntity
  8
0
  6
Continuous
100
AcDbLine
 10
136.0507903336631
 20
161.4041695813315
 30
0.0
 11
137.198827446463
 21
160.9539143150544
 31
0.0
  0
LINE
  5
2BE
330
E3
100
AcDbEntity
  8
0
  6
Continuous
100
AcDbLine
 10
137.198827446463
 20
160.9539143150544
 30
0.0
 11
138.1508537050208
 21
161.611438566666
 31
0.0
  0
LINE
  5
2BF
330
E3
100
AcDbEntity
  8
0
  6
Continuous
100
AcDbLine
 10
138.1508537050208
 20
161.611438566666
 30
0.0
 11
139.2623914216981
 21
161.0590039263108
 31
0.0
  0
LINE
  5
2C0
330
E3
100
AcDbEntity
  8
0
  6
Continuous
100
AcDbLine
 10
139.2623914216981
 20
161.0590039263108
 30
0.0
 11
140.2886266701395
 21
159.6139950154658
 31
0.0
  0
LINE
  5
2C1
330
E3
100
AcDbEntity
  8
0
  6
Continuous
100
AcDbLine
 10
140.2886266701395
 20
159.6139950154658
 30
0.0
 11
141.4582538734619
 21
159.0980021427742
 31
0.0
  0
LINE
  5
2C2
330
E3
100
AcDbEntity
  8
0
  6
Continuous
100
AcDbLine
 10
141.4582538734619
 20
159.0980021427742
 30
0.0
 11
142.3541952924831
 21
159.7234643896042
 31
0.0
  0
LINE
  5
2C3
330
E3
100
AcDbEntity
  8
0
  6
Continuous
100
AcDbLine
 10
142.3541952924831
 20
159.7234643896042
 30
0.0
 11
143.4243393103436
 21
159.1743310366844
 31
0.0
  0
LINE
  5
2C4
330
E3
100
AcDbEntity
  8
0
  6
Continuous
100
AcDbLine
 10
143.4243393103436
 20
159.1743310366844
 30
0.0
 11
144.3623495044153
 21
157.5676866473748
 31
0.0
  0
LINE
  5
2C5
330
E3
100
AcDbEntity
  8
0
  6
Continuous
100
AcDbLine
 10
144.3623495044153
 20
157.5676866473748
 30
0.0
 11
145.4619416648112
 21
157.1129569428903
 31
0.0
  0
LINE
  5
2C6
330
E3
100
AcDbEntity
  8
0
  6
Continuous
100
AcDbLine
 10
145.4619416648112
 20
157.1129569428903
 30
0.0
 11
147.0201904975387
 21
158.2142120959594
 31
0.0
  0
LINE
  5
2C7
330
E3
100
AcDbEntity
  8
0
  6
Continuous
100
AcDbLine
 10
147.0201904975387
 20
158.2142120959594
 30
0.0
 11
124.0561016746007
 21
168.5048519210918
 31
0.0
  0
HATCH
  5
2C8
330
E3
100
AcDbEntity
  8
0
  6
Continuous
 62
   255
370
    18
100
AcDbHatch
 10
0.0
 20
0.0
 30
0.0
210
0.0
220
0.0
230
1.0
  2
SOLID
 70
     1
 71
     0
 91
        1
 92
        3
 72
     0
 73
     1
 93
        9
 10
177.5228511789068
 20
144.6340769621396
 10
178.1655619869355
 20
143.1865680819319
 10
178.3931818499808
 20
142.478628769391
 10
180.1580620481622
 20
141.6058719475131
 10
180.9911557909729
 20
142.2486760771391
 10
182.4659411814048
 20
141.6879455657353
 10
183.546643566545
 20
139.8335363105097
 10
184.9919167248657
 20
139.2328483329471
 10
185.3729770384433
 20
141.0825974265816
 97
        0
 75
     0
 76
     1
 98
        0
  0
LINE
  5
2C9
330
E3
100
AcDbEntity
  8
0
  6
Continuous
100
AcDbLine
 10
177.5228515057458
 20
144.6340780878526
 30
0.0
 11
178.1655611270828
 21
143.1865664553608
 31
0.0
  0
LINE
  5
2CA
330
E3
100
AcDbEntity
  8
0
  6
Continuous
100
AcDbLine
 10
178.1655611270828
 20
143.1865664553608
 30
0.0
 11
178.3931811910718
 21
142.4786296511031
 31
0.0
  0
LINE
  5
2CB
330
E3
100
AcDbEntity
  8
0
  6
Continuous
100
AcDbLine
 10
178.3931811910718
 20
142.4786296511031
 30
0.0
 11
180.1580609797667
 21
141.6058713378632
 31
0.0
  0
LINE
  5
2CC
330
E3
100
AcDbEntity
  8
0
  6
Continuous
100
AcDbLine
 10
180.1580609797667
 20
141.6058713378632
 30
0.0
 11
180.991154447959
 21
142.2486756345255
 31
0.0
  0
LINE
  5
2CD
330
E3
100
AcDbEntity
  8
0
  6
Continuous
100
AcDbLine
 10
180.991154447959
 20
142.2486756345255
 30
0.0
 11
182.4659408068192
 21
141.6879466123967
 31
0.0
  0
LINE
  5
2CE
330
E3
100
AcDbEntity
  8
0
  6
Continuous
100
AcDbLine
 10
182.4659408068192
 20
141.6879466123967
 30
0.0
 11
183.5466431816273
 21
139.8335368963683
 31
0.0
  0
LINE
  5
2CF
330
E3
100
AcDbEntity
  8
0
  6
Continuous
100
AcDbLine
 10
183.5466431816273
 20
139.8335368963683
 30
0.0
 11
184.9919155368561
 21
139.2328466542599
 31
0.0
  0
LINE
  5
2D0
330
E3
100
AcDbEntity
  8
0
  6
Continuous
100
AcDbLine
 10
184.9919155368561
 20
139.2328466542599
 30
0.0
 11
185.3729754891802
 21
141.0825966977485
 31
0.0
  0
LINE
  5
2D1
330
E3
100
AcDbEntity
  8
0
  6
Continuous
100
AcDbLine
 10
185.3729754891802
 20
141.0825966977485
 30
0.0
 11
177.5228515057458
 21
144.6340780878526
 31
0.0
  0
HATCH
  5
2D2
330
E3
100
AcDbEntity
  8
0
  6
Continuous
 62
   255
370
    18
100
AcDbHatch
 10
0.0
 20
0.0
 30
0.0
210
0.0
220
0.0
230
1.0
  2
SOLID
 70
     1
 71
     0
 91
        1
 92
        3
 72
     0
 73
     1
 93
       11
 10
139.1861092578902
 20
151.6550778180624
 10
147.2681314527113
 20
153.0040234404014
 10
147.2681314527113
 20
160.4203549414687
 10
146.8617260375487
 20
160.6310891047929
 10
145.503230099987
 20
160.9535134502595
 10
144.407998883304
 20
160.9789768743271
 10
143.1630674795411
 20
160.7583363217103
 10
141.8921919693159
 20
160.2239678051938
 10
140.3607670483312
 20
158.9844589924103
 10
139.6635405012294
 20
158.0151941540012
 10
139.1861092578902
 20
157.0475805888173
 97
        0
 75
     0
 76
     1
 98
        0
  0
HATCH
  5
2D3
330
E3
100
AcDbEntity
  8
0
  6
Continuous
 62
   255
370
    18
100
AcDbHatch
 10
0.0
 20
0.0
 30
0.0
210
0.0
220
0.0
230
1.0
  2
SOLID
 70
     1
 71
     0
 91
        1
 92
        3
 72
     0
 73
     1
 93
        5
 10
79.5794486559596
 20
145.2524224464168
 10
45.19283084572112
 20
143.7106512926264
 10
45.19283084572112
 20
71.62824213658716
 10
138.22055352647
 20
71.62824213658716
 10
138.2205535264699
 20
97.0692937632178
 97
        0
 75
     0
 76
     1
 98
        0
  0
LINE
  5
2D4
330
E3
100
AcDbEntity
  8
0
  6
Continuous
 62
   255
370
    18
100
AcDbLine
 10
45.19283162834981
 20
143.7106520102197
 30
0.0
 11
79.57944907175212
 21
145.2524232199993
 31
0.0
  0
LINE
  5
2D5
330
E3
100
AcDbEntity
  8
0
  6
Continuous
 62
   255
370
    18
100
AcDbLine
 10
45.19283162834981
 20
71.62824282170119
 30
0.0
 11
45.19283162834981
 21
143.7106520102197
 31
0.0
  0
LINE
  5
2D6
330
E3
100
AcDbEntity
  8
0
  6
Continuous
 62
   255
370
    18
100
AcDbLine
 10
138.220555326149
 20
71.62824282170119
 30
0.0
 11
45.19283162834981
 21
71.62824282170119
 31
0.0
  0
LINE
  5
2D7
330
E3
100
AcDbEntity
  8
0
  6
Continuous
 62
   255
370
    18
100
AcDbLine
 10
138.220555326149
 20
97.06929337031936
 30
0.0
 11
138.220555326149
 21
71.62824282170119
 31
0.0
  0
LINE
  5
2D8
330
E3
100
AcDbEntity
  8
0
  6
Continuous
 62
   255
370
    18
100
AcDbLine
 10
79.57944907175212
 20
145.2524232199993
 30
0.0
 11
138.220555326149
 21
97.06929337031936
 31
0.0
  0
LINE
  5
2D9
330
E3
100
AcDbEntity
  8
0
  6
Contour Line
100
AcDbLine
 10
108.6485568834945
 20
113.6805608308677
 30
0.0
 11
108.6598685267272
 21
113.0416670367786
 31
0.0
  0
LINE
  5
2DA
330
E3
100
AcDbEntity
  8
0
  6
Contour Line
100
AcDbLine
 10
92.32064443939939
 20
124.7363501710629
 30
0.0
 11
91.44679118543898
 21
124.9267216689627
 31
0.0
  0
LINE
  5
2DB
330
E3
100
AcDbEntity
  8
0
  6
Contour Line
100
AcDbLine
 10
191.068824186637
 20
146.4910152234388
 30
0.0
 11
191.0917767785824
 21
145.1357379395338
 31
0.0
  0
LINE
  5
2DC
330
E3
100
AcDbEntity
  8
0
  6
Continuous
100
AcDbLine
 10
161.9033163119877
 20
113.5124462670871
 30
0.0
 11
165.8318771744283
 21
113.5124462670871
 31
0.0
  0
LINE
  5
2DD
330
E3
100
AcDbEntity
  8
0
  6
Continuous
100
AcDbLine
 10
151.4505429338525
 20
121.9314495832765
 30
0.0
 11
165.5714088888244
 21
112.357226178508
 31
0.0
  0
LINE
  5
2DE
330
E3
100
AcDbEntity
  8
0
  6
Continuous
100
AcDbLine
 10
140.8474127899372
 20
114.1939069107651
 30
0.0
 11
154.6849854732334
 21
103.3107600846985
 31
0.0
  0
LINE
  5
2DF
330
E3
100
AcDbEntity
  8
0
  6
Continuous
100
AcDbLine
 10
151.4650529565582
 20
103.2340936526715
 30
0.0
 11
165.3414178253804
 21
114.7338402918416
 31
0.0
  0
LINE
  5
2E0
330
E3
100
AcDbEntity
  8
0
  6
Continuous
100
AcDbLine
 10
151.1161044048378
 20
104.5727657077552
 30
0.0
 11
155.0446652672783
 21
104.5727657077552
 31
0.0
  0
LINE
  5
2E1
330
E3
100
AcDbEntity
  8
0
  6
Continuous
100
AcDbLine
 10
34.34937846156038
 20
83.51462290844174
 30
0.0
 11
134.7424637785474
 21
83.51462290844174
 31
0.0
  0
LINE
  5
2E2
330
E3
100
AcDbEntity
  8
0
  6
Continuous
100
AcDbLine
 10
134.7424637785474
 20
91.6009906431187
 30
0.0
 11
134.7424637785474
 21
61.99343955759615
 31
0.0
  0
LINE
  5
2E3
330
E3
100
AcDbEntity
  8
0
  6
Continuous
100
AcDbLine
 10
34.34937846156038
 20
61.99343955759615
 30
0.0
 11
34.34937846156038
 21
83.51462290844174
 31
0.0
  0
LINE
  5
2E4
330
E3
100
AcDbEntity
  8
0
  6
Continuous
100
AcDbLine
 10
110.7724455063191
 20
91.6009906431187
 30
0.0
 11
110.7724455063191
 21
61.99343955759615
 31
0.0
  0
LINE
  5
2E5
330
E3
100
AcDbEntity
  8
0
  6
Continuous
100
AcDbLine
 10
34.34937846156038
 20
72.75403123301894
 30
0.0
 11
134.7424637785474
 21
72.75403123301894
 31
0.0
  0
LINE
  5
2E6
330
E3
100
AcDbEntity
  8
0
  6
Continuous
100
AcDbLine
 10
34.34937846156038
 20
61.99343955759615
 30
0.0
 11
134.7424637785474
 21
61.99343955759615
 31
0.0
  0
LINE
  5
2E7
330
E3
100
AcDbEntity
  8
0
  6
Continuous
100
AcDbLine
 10
110.7724455063191
 20
91.6009906431187
 30
0.0
 11
134.7424637785474
 21
91.6009906431187
 31
0.0
  0
LINE
  5
2E8
330
E3
100
AcDbEntity
  8
0
  6
Contour Line
100
AcDbLine
 10
177.5228515057458
 20
144.6340780878526
 30
0.0
 11
180.6540567771945
 21
147.3446902841216
 31
0.0
  0
LINE
  5
2E9
330
E3
100
AcDbEntity
  8
0
  6
Continuous
100
AcDbLine
 10
108.0655462293354
 20
115.021262230971
 30
0.0
 11
106.9927883492286
 21
111.2420043567748
 31
0.0
  0
LINE
  5
2EA
330
E3
100
AcDbEntity
  8
0
  6
Continuous
100
AcDbLine
 10
114.5412438152116
 20
119.0186191244702
 30
0.0
 11
105.2269782725532
 21
111.1988282920483
 31
0.0
  0
LINE
  5
2EB
330
E3
100
AcDbEntity
  8
0
  6
Continuous
100
AcDbLine
 10
109.9931235066674
 20
131.3316473909012
 30
0.0
 11
95.74501391428238
 21
120.9917928618056
 31
0.0
  0
LINE
  5
2EC
330
E3
100
AcDbEntity
  8
0
  6
Continuous
100
AcDbLine
 10
96.55051569958194
 20
124.1102828254137
 30
0.0
 11
108.3121548705562
 21
112.3486477707579
 31
0.0
  0
LINE
  5
2ED
330
E3
100
AcDbEntity
  8
0
  6
Continuous
100
AcDbLine
 10
98.43665811491215
 20
124.1137611145446
 30
0.0
 11
97.36389611848684
 21
120.3345073566669
 31
0.0
  0
LINE
  5
2EE
330
E3
100
AcDbEntity
  8
0
  6
Continuous
100
AcDbLine
 10
120.7717199592009
 20
102.0881393970316
 30
0.0
 11
119.6989620790941
 21
98.30888152283542
 31
0.0
  0
LINE
  5
2EF
330
E3
100
AcDbEntity
  8
0
  6
Continuous
100
AcDbLine
 10
127.2474134287586
 20
106.0854962905308
 30
0.0
 11
117.9331478861002
 21
98.26570545810891
 31
0.0
  0
LINE
  5
2F0
330
E3
100
AcDbEntity
  8
0
  6
Continuous
100
AcDbLine
 10
122.6992972365329
 20
118.3985245569618
 30
0.0
 11
108.4511835278294
 21
108.0586700278662
 31
0.0
  0
LINE
  5
2F1
330
E3
100
AcDbEntity
  8
0
  6
Continuous
100
AcDbLine
 10
109.2566894294474
 20
111.1771641077928
 30
0.0
 11
121.0183244841032
 21
99.41552493681853
 31
0.0
  0
LINE
  5
2F2
330
E3
100
AcDbEntity
  8
0
  6
Continuous
100
AcDbLine
 10
111.1428277284591
 20
111.1806382806052
 30
0.0
 11
110.0700698483523
 21
107.4013845227275
 31
0.0
  0
LWPOLYLINE
  5
2F3
330
E3
100
AcDbEntity
  8
0
  6
Continuous
100
AcDbPolyline
 90
        2
 70
   128
 43
0.0
 10
136.8953571000605
 20
139.5474079624302
 10
136.6409058053625
 20
140.7564831782136
  0
LWPOLYLINE
  5
2F4
330
E3
100
AcDbEntity
  8
0
  6
Continuous
100
AcDbPolyline
 90
        2
 70
   128
 43
0.0
 10
149.4953571000604
 20
142.7292575308634
 10
149.3044323158433
 20
143.5564831782135
  0
LWPOLYLINE
  5
2F5
330
E3
100
AcDbEntity
  8
0
  6
Continuous
100
AcDbPolyline
 90
        2
 70
   128
 43
0.0
 10
136.1316579631923
 20
136.4929566677328
 10
135.6224101210222
 20
139.7383327466468
  0
LWPOLYLINE
  5
2F6
330
E3
100
AcDbEntity
  8
0
  6
Continuous
100
AcDbPolyline
 90
        2
 70
   128
 43
0.0
 10
150.3225827474092
 20
140.5655583939954
 10
149.6862818842773
 20
142.7292575308634
  0
LWPOLYLINE
  5
2F7
330
E3
100
AcDbEntity
  8
0
  6
Continuous
100
AcDbPolyline
 90
        2
 70
   128
 43
0.0
 10
137.5316579631923
 20
141.2657310203826
 10
137.2772066684943
 20
142.5383327466467
  0
LWPOLYLINE
  5
2F8
330
E3
100
AcDbEntity
  8
0
  6
Continuous
100
AcDbPolyline
 90
        2
 70
   128
 43
0.0
 10
148.9225827474092
 20
143.4292575308634
 10
148.7955297264476
 20
144.3838814519494
  0
LWPOLYLINE
  5
2F9
330
E3
100
AcDbEntity
  8
0
  6
Continuous
100
AcDbPolyline
 90
        2
 70
   128
 43
0.0
 10
138.1044323158433
 20
142.8566558046007
 10
137.9770340421072
 20
144.1929566677328
  0
LWPOLYLINE
  5
2FA
330
E3
100
AcDbEntity
  8
0
  6
Continuous
100
AcDbPolyline
 90
        2
 70
   128
 43
0.0
 10
148.3498083947582
 20
144.2566558046007
 10
148.2227553737966
 20
145.274806236166
  0
LWPOLYLINE
  5
2FB
330
E3
100
AcDbEntity
  8
0
  6
Continuous
100
AcDbPolyline
 90
        2
 70
   128
 43
0.0
 10
138.6133349052392
 20
144.3838814519494
 10
138.5498083947583
 20
145.7838814519494
  0
LWPOLYLINE
  5
2FC
330
E3
100
AcDbEntity
  8
0
  6
Continuous
100
AcDbPolyline
 90
        2
 70
   128
 43
0.0
 10
147.7773792948815
 20
145.1474079624302
 10
147.7135075316262
 20
146.2292575308634
  0
LWPOLYLINE
  5
2FD
330
E3
100
AcDbEntity
  8
0
  6
Continuous
100
AcDbPolyline
 90
        2
 70
   128
 43
0.0
 10
147.2681314527113
 20
160.1022045099019
 10
147.2681314527113
 20
146.1657310203827
  0
LWPOLYLINE
  5
2FE
330
E3
100
AcDbEntity
  8
0
  6
Continuous
100
AcDbPolyline
 90
        2
 70
   128
 43
0.0
 10
139.1861092578902
 20
157.0475805888173
 10
139.1861092578902
 20
145.9111070992981
  0
LWPOLYLINE
  5
2FF
330
E3
100
AcDbEntity
  8
0
  6
Continuous
100
AcDbPolyline
 90
        2
 70
   128
 43
0.0
 10
138.6772066684943
 20
132.5474079624301
 10
138.6772066684943
 20
132.6109344729109
  0
LWPOLYLINE
  5
300
330
E3
100
AcDbEntity
  8
0
  6
Continuous
100
AcDbPolyline
 90
        2
 70
   128
 43
0.0
 10
146.9498083947583
 20
133.6927840413455
 10
136.6409058053625
 20
132.8655583939954
  0
LWPOLYLINE
  5
301
330
E3
100
AcDbEntity
  8
0
  6
Continuous
100
AcDbPolyline
 90
        3
 70
   128
 43
0.0
 10
149.0499810211455
 20
144.3201823150814
 10
151.0862818842774
 20
144.5111070992981
 10
150.8318305895795
 20
142.0292575308634
  0
LWPOLYLINE
  5
302
330
E3
100
AcDbEntity
  8
0
  6
Continuous
100
AcDbPolyline
 90
        2
 70
   128
 43
0.0
 10
135.4314853368051
 20
133.0564831782135
 10
135.3679588263242
 20
137.4156447071891
  0
LWPOLYLINE
  5
303
330
E3
100
AcDbEntity
  8
0
  6
Continuous
100
AcDbPolyline
 90
       16
 70
   128
 43
0.0
 10
151.6590562369283
 20
144.9566558046007
 10
151.6590562369283
 20
144.8929566677328
 10
151.6590562369283
 20
144.8292575308634
 10
151.5955297264474
 20
144.8292575308634
 10
151.5316579631923
 20
144.8292575308634
 10
151.4681314527113
 20
144.8929566677328
 10
151.5316579631923
 20
144.8929566677328
 10
151.5316579631923
 20
144.8292575308634
 10
151.5955297264474
 20
144.8292575308634
 10
151.6590562369283
 20
144.8292575308634
 10
151.6590562369283
 20
144.8929566677328
 10
151.6590562369283
 20
144.9566558046007
 10
151.5955297264474
 20
144.9566558046007
 10
151.5316579631923
 20
144.9566558046007
 10
151.5316579631923
 20
144.8929566677328
 10
151.4681314527113
 20
144.8929566677328
  0
LWPOLYLINE
  5
304
330
E3
100
AcDbEntity
  8
0
  6
Continuous
100
AcDbPolyline
 90
       17
 70
   128
 43
0.0
 10
151.4046049422305
 20
142.0929566677328
 10
151.4046049422305
 20
142.0292575308634
 10
151.3407331789752
 20
142.0292575308634
 10
151.3407331789752
 20
141.9655583939955
 10
151.2772066684944
 20
141.9655583939955
 10
151.2136801580136
 20
142.0292575308634
 10
151.2772066684944
 20
142.0292575308634
 10
151.2772066684944
 20
141.9655583939955
 10
151.3407331789752
 20
141.9655583939955
 10
151.3407331789752
 20
142.0292575308634
 10
151.4046049422305
 20
142.0292575308634
 10
151.4046049422305
 20
142.0929566677328
 10
151.3407331789752
 20
142.0929566677328
 10
151.3407331789752
 20
142.1564831782135
 10
151.2772066684944
 20
142.0929566677328
 10
151.2136801580136
 20
142.0929566677328
 10
151.2136801580136
 20
142.0292575308634
  0
LWPOLYLINE
  5
305
330
E3
100
AcDbEntity
  8
0
  6
Continuous
100
AcDbPolyline
 90
       10
 70
   129
 43
0.0
 10
138.6772066684943
 20
132.6109344729109
 10
138.6772066684943
 20
132.5474079624301
 10
138.7407331789753
 20
132.5474079624301
 10
138.8042596894563
 20
132.5474079624301
 10
138.8681314527114
 20
132.5474079624301
 10
138.8681314527114
 20
132.6109344729109
 10
138.8681314527114
 20
132.6746336097788
 10
138.8042596894563
 20
132.6746336097788
 10
138.7407331789753
 20
132.6746336097788
 10
138.6772066684943
 20
132.6746336097788
  0
LWPOLYLINE
  5
306
330
E3
100
AcDbEntity
  8
0
  6
Continuous
100
AcDbPolyline
 90
        5
 70
   128
 43
0.0
 10
138.6772066684943
 20
132.5474079624301
 10
138.7407331789753
 20
132.5474079624301
 10
138.8042596894563
 20
132.5474079624301
 10
138.8681314527114
 20
132.5474079624301
 10
138.8681314527114
 20
132.6109344729109
  0
LWPOLYLINE
  5
307
330
E3
100
AcDbEntity
  8
0
  6
Continuous
100
AcDbPolyline
 90
       18
 70
   128
 43
0.0
 10
139.1861092578902
 20
145.9111070992981
 10
139.2499810211454
 20
145.4657310203826
 10
139.4409058053625
 20
145.0201823150815
 10
139.8227553737964
 20
144.6383327466467
 10
140.2681314527113
 20
144.3201823150814
 10
140.7770340421072
 20
144.0020318835147
 10
141.4136801580135
 20
143.8111070992981
 10
142.1135075316263
 20
143.6838814519494
 10
142.8772066684944
 20
143.6201823150815
 10
143.5770340421071
 20
143.6201823150815
 10
144.3407331789752
 20
143.7474079624301
 10
144.9770340421072
 20
143.9383327466468
 10
145.6136801580135
 20
144.1929566677328
 10
146.1864545106646
 20
144.5111070992981
 10
146.6318305895795
 20
144.8929566677328
 10
146.9498083947583
 20
145.274806236166
 10
147.1407331789752
 20
145.7201823150814
 10
147.2681314527113
 20
146.1657310203827
  0
LWPOLYLINE
  5
308
330
E3
100
AcDbEntity
  8
0
  6
Continuous
100
AcDbPolyline
 90
       23
 70
   128
 43
0.0
 10
139.1861092578902
 20
147.2475805888173
 10
138.8042596894563
 20
146.8020318835147
 10
138.6133349052392
 20
146.2929566677328
 10
138.5498083947583
 20
145.7838814519494
 10
138.6772066684943
 20
145.274806236166
 10
138.9316579631922
 20
144.7657310203826
 10
139.3135075316264
 20
144.3201823150814
 10
139.8862818842774
 20
143.9383327466468
 10
140.5225827474092
 20
143.6838814519494
 10
141.2862818842774
 20
143.4292575308634
 10
142.1135075316263
 20
143.3020318835147
 10
142.9407331789753
 20
143.2383327466468
 10
143.7679588263242
 20
143.3020318835147
 10
144.5955297264474
 20
143.4292575308634
 10
145.4227553737965
 20
143.6838814519494
 10
146.1225827474094
 20
144.0020318835147
 10
146.6953571000603
 20
144.3838814519494
 10
147.2046049422305
 20
144.8292575308634
 10
147.5225827474093
 20
145.3383327466468
 10
147.7135075316262
 20
145.8475805888173
 10
147.7135075316262
 20
146.4201823150815
 10
147.5861092578901
 20
146.9292575308634
 10
147.2046049422305
 20
147.374806236166
  0
LWPOLYLINE
  5
309
330
E3
100
AcDbEntity
  8
0
  6
Continuous
100
AcDbPolyline
 90
       18
 70
   128
 43
0.0
 10
138.6133349052392
 20
144.3838814519494
 10
138.7407331789753
 20
143.9383327466468
 10
138.9316579631922
 20
143.4929566677328
 10
139.2499810211454
 20
143.1111070992981
 10
139.6953571000603
 20
142.7292575308634
 10
140.3316579631923
 20
142.3474079624301
 10
141.0318305895794
 20
142.0929566677328
 10
141.8590562369284
 20
141.9655583939955
 10
142.6862818842773
 20
141.9020318835147
 10
143.5770340421071
 20
141.9655583939955
 10
144.4681314527113
 20
142.0929566677328
 10
145.2318305895796
 20
142.3474079624301
 10
145.9951844736732
 20
142.6657310203827
 10
146.6318305895795
 20
143.1111070992981
 10
147.1407331789752
 20
143.5564831782135
 10
147.5225827474093
 20
144.0657310203826
 10
147.7135075316262
 20
144.6383327466467
 10
147.7773792948815
 20
145.1474079624302
  0
LWPOLYLINE
  5
30A
330
E3
100
AcDbEntity
  8
0
  6
Continuous
100
AcDbPolyline
 90
       23
 70
   128
 43
0.0
 10
138.5498083947583
 20
145.974806236166
 10
138.2318305895795
 20
145.4020318835147
 10
137.9770340421072
 20
144.8292575308634
 10
137.9770340421072
 20
144.1929566677328
 10
138.1044323158433
 20
143.6201823150815
 10
138.422410121022
 20
143.1111070992981
 10
138.8681314527114
 20
142.6020318835147
 10
139.5044323158434
 20
142.1564831782135
 10
140.2042596894562
 20
141.8383327466468
 10
141.0953571000604
 20
141.6474079624302
 10
141.9861092578902
 20
141.5201823150815
 10
142.8772066684944
 20
141.4564831782135
 10
143.8318305895795
 20
141.5838814519494
 10
144.7861092578903
 20
141.774806236166
 10
145.6136801580135
 20
142.0929566677328
 10
146.4409058053624
 20
142.474806236166
 10
147.0772066684944
 20
142.9201823150814
 10
147.6499810211454
 20
143.4929566677328
 10
147.9679588263242
 20
144.0657310203826
 10
148.2227553737966
 20
144.6383327466467
 10
148.2227553737966
 20
145.274806236166
 10
148.0318305895795
 20
145.8475805888173
 10
147.7135075316262
 20
146.4201823150815
  0
LWPOLYLINE
  5
30B
330
E3
100
AcDbEntity
  8
0
  6
Continuous
100
AcDbPolyline
 90
       18
 70
   128
 43
0.0
 10
138.1044323158433
 20
142.8566558046007
 10
138.2318305895795
 20
142.3474079624301
 10
138.4862818842773
 20
141.8383327466468
 10
138.8042596894563
 20
141.3929566677328
 10
139.3135075316264
 20
141.0111070992981
 10
140.0133349052391
 20
140.6292575308634
 10
140.8409058053625
 20
140.3746336097788
 10
141.7316579631922
 20
140.1838814519494
 10
142.7498083947583
 20
140.1838814519494
 10
143.7044323158434
 20
140.2474079624301
 10
144.6590562369282
 20
140.4383327466468
 10
145.6136801580135
 20
140.8201823150814
 10
146.4409058053624
 20
141.2020318835146
 10
147.1407331789752
 20
141.711107099298
 10
147.7135075316262
 20
142.3474079624301
 10
148.0953571000605
 20
142.9838814519494
 10
148.2862818842774
 20
143.6201823150815
 10
148.3498083947582
 20
144.2566558046007
  0
LWPOLYLINE
  5
30C
330
E3
100
AcDbEntity
  8
0
  6
Continuous
100
AcDbPolyline
 90
       23
 70
   128
 43
0.0
 10
137.9770340421072
 20
144.8292575308634
 10
137.5951844736731
 20
144.1292575308634
 10
137.3407331789753
 20
143.4292575308634
 10
137.2772066684943
 20
142.7292575308634
 10
137.4042596894562
 20
142.0292575308634
 10
137.7861092578902
 20
141.3929566677328
 10
138.2953571000604
 20
140.8838814519494
 10
138.9951844736732
 20
140.3746336097788
 10
139.8227553737964
 20
139.9929566677328
 10
140.7135075316264
 20
139.7383327466468
 10
141.7316579631922
 20
139.6111070992981
 10
142.8133349052391
 20
139.6111070992981
 10
143.8953571000605
 20
139.7383327466468
 10
144.9135075316262
 20
140.0564831782135
 10
145.8681314527114
 20
140.4383327466468
 10
146.7588836105412
 20
140.8838814519494
 10
147.5225827474093
 20
141.5201823150815
 10
148.1588836105411
 20
142.1564831782135
 10
148.5407331789753
 20
142.8566558046007
 10
148.7955297264476
 20
143.6201823150815
 10
148.7955297264476
 20
144.3838814519494
 10
148.5407331789753
 20
145.0838814519494
 10
148.1588836105411
 20
145.7201823150814
  0
LWPOLYLINE
  5
30D
330
E3
100
AcDbEntity
  8
0
  6
Continuous
100
AcDbPolyline
 90
       18
 70
   128
 43
0.0
 10
137.5316579631923
 20
141.2657310203826
 10
137.6590562369284
 20
140.6929566677328
 10
137.9135075316264
 20
140.1201823150815
 10
138.3588836105412
 20
139.674806236166
 10
138.8681314527114
 20
139.2292575308634
 10
139.631485336805
 20
138.8474079624301
 10
140.5861092578901
 20
138.5292575308634
 10
141.6681314527113
 20
138.3383327466468
 10
142.7498083947583
 20
138.3383327466468
 10
143.8953571000605
 20
138.5292575308634
 10
144.9770340421072
 20
138.7837088255621
 10
145.9951844736732
 20
139.2292575308634
 10
146.8862818842775
 20
139.7383327466468
 10
147.7135075316262
 20
140.4383327466468
 10
148.2862818842774
 20
141.1383327466467
 10
148.7316579631923
 20
141.9020318835147
 10
148.9225827474092
 20
142.6657310203827
 10
148.9225827474092
 20
143.4292575308634
  0
LWPOLYLINE
  5
30E
330
E3
100
AcDbEntity
  8
0
  6
Continuous
100
AcDbPolyline
 90
       24
 70
   128
 43
0.0
 10
137.0862818842774
 20
143.3020318835147
 10
136.3861092578901
 20
142.4111070992981
 10
135.9407331789752
 20
141.5201823150815
 10
135.6862818842773
 20
140.6292575308634
 10
135.6862818842773
 20
139.674806236166
 10
135.8772066684944
 20
138.7837088255621
 10
136.3861092578901
 20
137.9564831782135
 10
137.0224101210221
 20
137.1927840413456
 10
137.9135075316264
 20
136.6201823150815
 10
138.9316579631922
 20
136.111107099298
 10
140.0772066684944
 20
135.7927840413456
 10
141.3498083947582
 20
135.6655583939954
 10
142.6227553737965
 20
135.7292575308634
 10
143.9588836105413
 20
135.9201823150815
 10
145.1679588263241
 20
136.2383327466468
 10
146.3135075316263
 20
136.7474079624301
 10
147.3316579631922
 20
137.4474079624301
 10
148.2227553737966
 20
138.2111070992981
 10
148.9225827474092
 20
139.1020318835147
 10
149.4318305895794
 20
139.9929566677328
 10
149.7498083947584
 20
140.9474079624301
 10
149.8136801580134
 20
141.8383327466468
 10
149.6862818842773
 20
142.7292575308634
 10
149.3683040790986
 20
143.5564831782135
  0
LWPOLYLINE
  5
30F
330
E3
100
AcDbEntity
  8
0
  6
Continuous
100
AcDbPolyline
 90
       18
 70
   128
 43
0.0
 10
136.8953571000605
 20
139.5474079624302
 10
137.2133349052392
 20
138.7201823150814
 10
137.7225827474092
 20
138.0201823150815
 10
138.3588836105412
 20
137.4474079624301
 10
139.2499810211454
 20
137.0020318835147
 10
140.2042596894562
 20
136.6837088255621
 10
141.2862818842774
 20
136.4929566677328
 10
142.4318305895795
 20
136.4929566677328
 10
143.6409058053625
 20
136.6201823150815
 10
144.7861092578903
 20
136.9383327466468
 10
145.8681314527114
 20
137.3837088255622
 10
146.8862818842775
 20
137.9564831782135
 10
147.7773792948815
 20
138.5929566677328
 10
148.5407331789753
 20
139.3564831782135
 10
149.1135075316263
 20
140.1838814519494
 10
149.4318305895794
 20
141.0748062361661
 10
149.5588836105412
 20
141.9020318835147
 10
149.4953571000604
 20
142.7292575308634
  0
LWPOLYLINE
  5
310
330
E3
100
AcDbEntity
  8
0
  6
Continuous
100
AcDbPolyline
 90
       18
 70
   128
 43
0.0
 10
136.1316579631923
 20
136.4929566677328
 10
136.5135075316264
 20
135.7927840413456
 10
137.2133349052392
 20
135.2201823150814
 10
138.0405605525882
 20
134.7111070992981
 10
139.0590562369283
 20
134.3292575308633
 10
140.2042596894562
 20
134.1383327466468
 10
141.4772066684943
 20
134.0746336097788
 10
142.8133349052391
 20
134.1383327466468
 10
144.1498083947583
 20
134.3292575308633
 10
145.4227553737965
 20
134.7111070992981
 10
146.6953571000603
 20
135.1564831782135
 10
147.7773792948815
 20
135.7927840413456
 10
148.7955297264476
 20
136.4929566677328
 10
149.6227553737965
 20
137.2564831782135
 10
150.1955297264475
 20
138.0838814519494
 10
150.5135075316263
 20
138.9111070992981
 10
150.5773792948816
 20
139.7383327466468
 10
150.3225827474092
 20
140.5655583939954
  0
LWPOLYLINE
  5
311
330
E3
100
AcDbEntity
  8
0
  6
Continuous
100
AcDbPolyline
 90
       24
 70
   128
 43
0.0
 10
137.4042596894562
 20
143.6838814519494
 10
136.8953571000605
 20
142.8566558046007
 10
136.6409058053625
 20
142.0292575308634
 10
136.5770340421072
 20
141.2020318835146
 10
136.7044323158433
 20
140.4383327466468
 10
137.0862818842774
 20
139.674806236166
 10
137.7225827474092
 20
139.0383327466467
 10
138.4862818842773
 20
138.5292575308634
 10
139.3770340421071
 20
138.0838814519494
 10
140.4590562369285
 20
137.8292575308634
 10
141.5407331789753
 20
137.7020318835147
 10
142.7498083947583
 20
137.7655583939954
 10
143.9588836105413
 20
137.9564831782135
 10
145.1044323158433
 20
138.2746336097788
 10
146.1864545106646
 20
138.7201823150814
 10
147.1407331789752
 20
139.2929566677328
 10
147.9044323158434
 20
139.9292575308634
 10
148.5407331789753
 20
140.6292575308634
 10
149.0499810211455
 20
141.3929566677328
 10
149.3044323158433
 20
142.1564831782135
 10
149.4318305895794
 20
142.9201823150814
 10
149.3044323158433
 20
143.6838814519494
 10
149.0499810211455
 20
144.3838814519494
 10
148.6046049422305
 20
145.0201823150815
  0
LWPOLYLINE
  5
312
330
E3
100
AcDbEntity
  8
0
  6
Continuous
100
AcDbPolyline
 90
        2
 70
   128
 43
0.0
 10
148.6046049422305
 20
144.9566558046007
 10
152.1044323158433
 20
145.274806236166
  0
LWPOLYLINE
  5
313
330
E3
100
AcDbEntity
  8
0
  6
Continuous
100
AcDbPolyline
 90
        2
 70
   128
 43
0.0
 10
136.5135075316264
 20
132.1655583939954
 10
136.5135075316264
 20
132.1018592571275
  0
LWPOLYLINE
  5
314
330
E3
100
AcDbEntity
  8
0
  6
Continuous
100
AcDbPolyline
 90
        2
 70
   128
 43
0.0
 10
134.4133349052392
 20
132.4837088255622
 10
134.384143041776
 20
136.7272671632119
  0
LWPOLYLINE
  5
315
330
E3
100
AcDbEntity
  8
0
  6
Continuous
100
AcDbPolyline
 90
        2
 70
   128
 43
0.0
 10
145.4227553737965
 20
132.8655583939954
 10
145.4227553737965
 20
132.8018592571275
  0
LWPOLYLINE
  5
316
330
E3
100
AcDbEntity
  8
0
  6
Continuous
100
AcDbPolyline
 90
       18
 70
   128
 43
0.0
 10
139.1861092578902
 20
157.0475805888173
 10
139.3135075316264
 20
156.6022045099019
 10
139.631485336805
 20
156.2203549414687
 10
140.0133349052391
 20
155.9657310203827
 10
140.5225827474092
 20
155.774806236166
 10
141.1588836105413
 20
155.7112797256853
 10
141.7951844736733
 20
155.7112797256853
 10
142.4953571000604
 20
155.8385053730339
 10
143.2590562369283
 20
156.09312929412
 10
144.0227553737964
 20
156.3475805888174
 10
144.7225827474092
 20
156.7294301572506
 10
145.3588836105413
 20
157.238505373034
 10
145.9951844736732
 20
157.7475805888174
 10
146.4409058053624
 20
158.2566558046007
 10
146.8862818842775
 20
158.8294301572506
 10
147.1407331789752
 20
159.4022045099019
 10
147.2681314527113
 20
159.9112797256853
 10
147.2681314527113
 20
160.4203549414686
  0
LWPOLYLINE
  5
317
330
E3
100
AcDbEntity
  8
0
  6
Continuous
100
AcDbPolyline
 90
        2
 70
   128
 43
0.0
 10
150.7044323158434
 20
135.8564831782135
 10
150.5135075316263
 20
133.6927840413455
  0
LWPOLYLINE
  5
318
330
E3
100
AcDbEntity
  8
0
  6
Continuous
100
AcDbPolyline
 90
        3
 70
   128
 43
0.0
 10
151.4046049422305
 20
132.8018592571275
 10
151.7225827474093
 20
136.4929566677328
 10
151.4046049422305
 20
132.8655583939954
  0
LWPOLYLINE
  5
319
330
E3
100
AcDbEntity
  8
0
  6
Continuous
100
AcDbPolyline
 90
        2
 70
   128
 43
0.0
 10
150.7044323158434
 20
135.8564831782135
 10
150.8318305895795
 20
142.0292575308634
  0
LWPOLYLINE
  5
31A
330
E3
100
AcDbEntity
  8
0
  6
Continuous
100
AcDbPolyline
 90
        2
 70
   128
 43
0.0
 10
145.4227553737965
 20
132.8655583939954
 10
151.4046049422305
 20
132.8655583939954
  0
LWPOLYLINE
  5
31B
330
E3
100
AcDbEntity
  8
0
  6
Continuous
100
AcDbPolyline
 90
        2
 70
   128
 43
0.0
 10
146.9498083947583
 20
133.6927840413455
 10
150.5135075316263
 20
133.6927840413455
  0
LWPOLYLINE
  5
31C
330
E3
100
AcDbEntity
  8
0
  6
Continuous
100
AcDbPolyline
 90
        3
 70
   128
 43
0.0
 10
145.4227553737965
 20
132.8018592571275
 10
151.4046049422305
 20
132.8018592571275
 10
151.4046049422305
 20
132.8655583939954
  0
LWPOLYLINE
  5
31D
330
E3
100
AcDbEntity
  8
0
  6
Continuous
100
AcDbPolyline
 90
        2
 70
   128
 43
0.0
 10
135.4314853368051
 20
133.0564831782135
 10
136.6409058053625
 20
132.8655583939954
  0
LWPOLYLINE
  5
31E
330
E3
100
AcDbEntity
  8
0
  6
Continuous
100
AcDbPolyline
 90
        3
 70
   128
 43
0.0
 10
134.4133349052392
 20
132.4837088255622
 10
136.5135075316264
 20
132.1655583939954
 10
145.4227553737965
 20
132.8655583939954
  0
LWPOLYLINE
  5
31F
330
E3
100
AcDbEntity
  8
0
  6
Continuous
100
AcDbPolyline
 90
        3
 70
   128
 43
0.0
 10
145.4227553737965
 20
132.8018592571275
 10
136.5135075316264
 20
132.1018592571275
 10
134.4133349052392
 20
132.4200096886942
  0
LWPOLYLINE
  5
320
330
E3
100
AcDbEntity
  8
0
  6
Continuous
100
AcDbPolyline
 90
        3
 70
   128
 43
0.0
 10
134.384143041776
 20
136.7272671632119
 10
134.6628633012868
 20
144.6675825790229
 10
137.9770340421072
 20
144.8292575308634
  0
LWPOLYLINE
  5
321
330
E3
100
AcDbEntity
  8
0
  6
Continuous
100
AcDbPolyline
 90
        3
 70
   128
 43
0.0
 10
135.3679588263242
 20
137.4156447071891
 10
135.6299916139116
 20
143.7135727496883
 10
137.4768317197397
 20
143.8036670171589
  0
LWPOLYLINE
  5
322
330
E3
100
AcDbEntity
  8
0
  6
Continuous
100
AcDbPolyline
 90
       15
 70
   128
 43
0.0
 10
151.3407331789752
 20
139.2292575308634
 10
151.3407331789752
 20
139.1655583939955
 10
151.2772066684974
 20
139.1655583939956
 10
151.2136801580262
 20
139.1655583939943
 10
151.1498083947503
 20
139.1655583940039
 10
151.2136801580791
 20
139.1655583939785
 10
151.2772066681647
 20
139.1655583940377
 10
151.3407331796458
 20
139.1655583939504
 10
151.3407331793514
 20
139.229257530874
 10
151.3407331796362
 20
139.2929566677028
 10
151.277206668501
 20
139.292956667641
 10
151.2136801578631
 20
139.2929566677618
 10
151.2136801602919
 20
139.2292575308342
 10
151.1498083941509
 20
139.229257530874
 10
151.1498083976253
 20
139.1655583938515
  0
LWPOLYLINE
  5
323
330
E3
100
AcDbEntity
  8
0
  6
Continuous
100
AcDbPolyline
 90
       16
 70
   128
 43
0.0
 10
151.2772066684944
 20
135.9201823150815
 10
151.2772066684944
 20
135.8564831782136
 10
151.213680158007
 20
135.8564831782141
 10
151.1498083947311
 20
135.856483178206
 10
151.086281884351
 20
135.8564831782185
 10
151.0862818842602
 20
135.9201823150772
 10
151.0862818840112
 20
135.856483178234
 10
151.1498083941358
 20
135.8564831782464
 10
151.2136801573817
 20
135.8564831781872
 10
151.2772066680709
 20
135.8564831782837
 10
151.2772066683212
 20
135.9201823151809
 10
151.2772066697483
 20
135.9837088256029
 10
151.2136801585411
 20
135.9837088255441
 10
151.1498083941509
 20
135.9837088256076
 10
151.1498083976253
 20
135.9201823146366
 10
151.0862818950644
 20
135.9201823146757
  0
LWPOLYLINE
  5
324
330
E3
100
AcDbEntity
  8
0
  6
Continuous
100
AcDbPolyline
 90
       15
 70
   128
 43
0.0
 10
135.0499810211741
 20
134.8383327466392
 10
134.9864545106932
 20
134.7746336097713
 10
134.9229280002049
 20
134.7746336097719
 10
134.8594014897641
 20
134.7746336097637
 10
134.8594014897902
 20
134.8383327466462
 10
134.8594014896166
 20
134.7746336097725
 10
134.9229280001753
 20
134.7746336097782
 10
134.9864545105085
 20
134.7746336097933
 10
134.9864545103966
 20
134.8383327466
 10
135.0499810214465
 20
134.8383327465596
 10
135.0499810206804
 20
134.9018592572881
 10
134.9864545111576
 20
134.9018592569933
 10
134.922928001162
 20
134.9018592573406
 10
134.859401490813
 20
134.9018592569996
 10
134.859401489631
 20
134.8383327467634
  0
LWPOLYLINE
  5
325
330
E3
100
AcDbEntity
  8
0
  6
Continuous
100
AcDbPolyline
 90
       14
 70
   128
 43
0.0
 10
135.9407331789752
 20
132.6109344729109
 10
135.9407331789752
 20
132.5474079624301
 10
135.8772066684841
 20
132.5474079624299
 10
135.8133349052535
 20
132.5474079624313
 10
135.7498083947732
 20
132.5474079624217
 10
135.8133349053272
 20
132.547407962447
 10
135.8772066686456
 20
132.5474079623878
 10
135.9407331789123
 20
132.5474079624695
 10
135.9407331793069
 20
132.6109344729298
 10
135.9407331790339
 20
132.6746336097542
 10
135.8772066691542
 20
132.6746336098007
 10
135.8133349032551
 20
132.6746336094752
 10
135.7498083964904
 20
132.61093447292
 10
135.749808394133
 20
132.5474079624204
  0
LWPOLYLINE
  5
326
330
E3
100
AcDbEntity
  8
0
  6
Continuous
100
AcDbPolyline
 90
       18
 70
   128
 43
0.0
 10
146.6953571000603
 20
133.1837088255622
 10
146.6953571000603
 20
133.1201823150815
 10
146.6318305895722
 20
133.1201823150826
 10
146.6318305896429
 20
133.0564831782143
 10
146.5679588263008
 20
133.0564831782079
 10
146.5044323158024
 20
133.0564831782184
 10
146.5044323160031
 20
133.1201823150361
 10
146.5044323160033
 20
133.0564831782849
 10
146.5679588259189
 20
133.0564831781852
 10
146.6318305891988
 20
133.120182315055
 10
146.6953571007436
 20
133.1201823149907
 10
146.6953570986265
 20
133.1837088256343
 10
146.6318305918932
 20
133.1837088257852
 10
146.6318305872203
 20
133.2474079625072
 10
146.5679588300272
 20
133.2474079627567
 10
146.5679588256436
 20
133.1837088257396
 10
146.5044323134343
 20
133.1837088250802
 10
146.5044323241775
 20
133.1201823151114
  0
LWPOLYLINE
  5
327
330
E3
100
AcDbEntity
  8
0
  6
Continuous
100
AcDbPolyline
 90
       17
 70
   128
 43
0.0
 10
142.7498083947583
 20
132.9927840413456
 10
142.7498083947582
 20
132.9292575308633
 10
142.6862818842715
 20
132.9292575308627
 10
142.6862818842556
 20
132.8655583939927
 10
142.6227553738262
 20
132.8655583939911
 10
142.6227553737748
 20
132.9292575308714
 10
142.5588836105108
 20
132.9292575308619
 10
142.6227553736016
 20
132.9292575309006
 10
142.6862818843734
 20
132.9292575307444
 10
142.7498083960549
 20
132.929257530888
 10
142.7498083946125
 20
132.9927840412767
 10
142.7498083943823
 20
133.0564831783613
 10
142.6862818827361
 20
133.0564831779195
 10
142.6227553730637
 20
133.0564831779531
 10
142.622755375958
 20
132.9927840410223
 10
142.5588836149746
 20
132.9927840409329
 10
142.5588836076191
 20
132.92925753104
  0
LWPOLYLINE
  5
328
330
E3
100
AcDbEntity
  8
0
  6
Continuous
100
AcDbPolyline
 90
        2
 70
   129
 43
0.0
 10
151.8499810211454
 20
142.6657310203827
 10
152.1044323158437
 20
145.274806236166
  0
LWPOLYLINE
  5
329
330
E3
100
AcDbEntity
  8
0
  6
Continuous
100
AcDbPolyline
 90
        9
 70
   128
 43
0.0
 10
147.2957516746595
 20
160.4526360758699
 10
146.1297251641787
 20
160.8467205394949
 10
144.9203262739197
 20
160.9922230055862
 10
143.7066548805781
 20
160.8884313902967
 10
142.5278108608493
 20
160.5346336097794
 10
141.4469905564782
 20
159.9459479628478
 10
140.5192395312465
 20
159.1567178025053
 10
139.7715694852413
 20
158.1951261869835
 10
139.2309921185499
 20
157.0893561745138
  0
LWPOLYLINE
  5
32A
330
E3
100
AcDbEntity
  8
0
  6
Continuous
100
AcDbPolyline
 90
       14
 70
   128
 43
0.0
 10
150.9592288633156
 20
133.3746336097788
 10
150.9592288633156
 20
133.311107099298
 10
150.9592288633081
 20
133.2474079624292
 10
150.8953571000758
 20
133.2474079624312
 10
150.8318305894919
 20
133.2474079624357
 10
150.8318305895994
 20
133.3111070992965
 10
150.8318305900358
 20
133.247407962388
 10
150.895357099964
 20
133.2474079623958
 10
150.959228864069
 20
133.2474079623831
 10
150.9592288643422
 20
133.3111070993686
 10
150.9592288628643
 20
133.3746336098301
 10
150.8953570986053
 20
133.374633610063
 10
150.8318305895768
 20
133.3746336098368
 10
150.8318305896099
 20
133.3111070992583
  0
LWPOLYLINE
  5
32B
330
E3
100
AcDbEntity
  8
0
  6
Continuous
100
AcDbPolyline
 90
        2
 70
   129
 43
0.0
 10
151.8499810211454
 20
142.6657310203827
 10
151.7225827474089
 20
136.4929566677328
  0
LWPOLYLINE
  5
32C
330
E3
100
AcDbEntity
  8
0
  6
Continuous
100
AcDbPolyline
 90
       15
 70
   128
 43
0.0
 10
135.0943366691388
 20
140.496582997727
 10
135.0943366691388
 20
140.4328838608591
 10
135.0308101586677
 20
140.4328838608591
 10
134.9672836481595
 20
140.4328838608591
 10
134.9034118849424
 20
140.4328838608635
 10
134.9672836484023
 20
140.4328838608535
 10
135.0308101582704
 20
140.4328838608544
 10
135.0943366691894
 20
140.4328838608595
 10
135.0943366694015
 20
140.4965829976699
 10
135.0943366692649
 20
140.5602821345783
 10
135.0308101596516
 20
140.5602821345222
 10
134.9672836462256
 20
140.5602821344832
 10
134.967283649932
 20
140.4965829980237
 10
134.9034118867904
 20
140.4965829976659
 10
134.9034118869373
 20
140.4328838609816
  0
LWPOLYLINE
  5
32D
330
E3
100
AcDbEntity
  8
0
  6
Continuous
100
AcDbPolyline
 90
       15
 70
   128
 43
0.0
 10
135.1533805167611
 20
144.3347828593294
 10
135.1533805167611
 20
144.2710837224615
 10
135.0898540062918
 20
144.2710837224621
 10
135.0263274958328
 20
144.2710837224624
 10
134.9624557325607
 20
144.271083722457
 10
135.0263274959854
 20
144.2710837224506
 10
135.0898540059365
 20
144.2710837224932
 10
135.1533805161204
 20
144.2710837224804
 10
135.1533805170156
 20
144.3347828592858
 10
135.1533805165149
 20
144.3984819961732
 10
135.0898540081641
 20
144.3984819962012
 10
135.0263274947722
 20
144.3984819959249
 10
135.0263274973639
 20
144.3347828593839
 10
134.962455731484
 20
144.3347828592882
 10
134.9624557309704
 20
144.2710837223362
  0
LWPOLYLINE
  5
32E
330
E3
100
AcDbEntity
  8
0
  6
Continuous
100
AcDbPolyline
 90
       15
 70
   128
 43
0.0
 10
137.2467681086954
 20
144.4470085775577
 10
137.2467681086954
 20
144.3833094406897
 10
137.1832415982164
 20
144.3833094406898
 10
137.1197150877198
 20
144.3833094406921
 10
137.0558433244229
 20
144.3833094406872
 10
137.1197150876759
 20
144.3833094406772
 10
137.1832415980821
 20
144.383309440685
 10
137.2467681090811
 20
144.3833094407064
 10
137.2467681089738
 20
144.4470085776881
 10
137.2467681086043
 20
144.5107077143504
 10
137.183241596661
 20
144.5107077146612
 10
137.1197150888325
 20
144.5107077143265
 10
137.1197150895613
 20
144.4470085773456
 10
137.0558433231377
 20
144.4470085774122
 10
137.0558433212663
 20
144.3833094405843
  0
MTEXT
  5
32F
330
E3
100
AcDbEntity
  8
Doc_ Floor
  6
Continuous
100
AcDbMText
 10
201.4958265074818
 20
168.1707903594915
 30
0.0
 40
2.5
 41
0.0
 71
     4
 72
     1
  1
{ROOF FIXING}
  7
GENERATED_STYLE_1
 73
     1
 44
1.0
  0
LINE
  5
330
330
E3
100
AcDbEntity
  8
Doc_ Floor
  6
Continuous
100
AcDbLine
 10
178.8046648534153
 20
144.799595254661
 30
0.0
 11
179.8640940942253
 21
148.5152148448766
 31
0.0
  0
LINE
  5
331
330
E3
100
AcDbEntity
  8
Doc_ Floor
  6
Continuous
100
AcDbLine
 10
178.8046648534153
 20
144.799595254661
 30
0.0
 11
181.5799649948819
 21
147.4876994213824
 31
0.0
  0
LINE
  5
332
330
E3
100
AcDbEntity
  8
Doc_ Floor
  6
Continuous
100
AcDbLine
 10
179.8640940942253
 20
148.5152148448766
 30
0.0
 11
181.5799649948819
 21
147.4876994213824
 31
0.0
  0
LWPOLYLINE
  5
333
330
E3
100
AcDbEntity
  8
Doc_ Floor
  6
Continuous
100
AcDbPolyline
 90
       13
 70
   128
 43
0.0
 10
180.7220284174964
 20
148.0014575100799
 10
183.9708533068722
 20
153.192694335834
 10
186.8932598633865
 20
157.5091600707308
 10
189.5414429494519
 20
161.0071374417158
 10
191.9675974274807
 20
163.7429091757347
 10
193.1137248329853
 20
164.8425562810523
 10
194.2239181598856
 20
165.772757999733
 10
195.3047017659829
 20
166.5405496726449
 10
196.362600009079
 20
167.1529666406562
 10
197.4041372469754
 20
167.6170442446353
 10
198.4358378374736
 20
167.9398178254501
 10
199.4642261383752
 20
168.128322723969
 10
200.4958265074818
 20
168.1895942810602
  0
MTEXT
  5
334
330
E3
100
AcDbEntity
  8
Doc_ Floor
  6
Continuous
100
AcDbMText
 10
163.7772026986528
 20
189.7706019405515
 30
0.0
 40
2.5
 41
0.0
 71
     4
 72
     1
  1
{TOP RIDGE}
  7
GENERATED_STYLE_1
 73
     1
 44
1.0
  0
LINE
  5
335
330
E3
100
AcDbEntity
  8
Doc_ Floor
  6
Continuous
100
AcDbLine
 10
142.1712907963388
 20
165.9390312279933
 30
0.0
 11
143.0699201713392
 21
169.6967772217184
 31
0.0
  0
LINE
  5
336
330
E3
100
AcDbEntity
  8
Doc_ Floor
  6
Continuous
100
AcDbLine
 10
142.1712907963388
 20
165.9390312279933
 30
0.0
 11
144.828403201088
 21
168.7440182584681
 31
0.0
  0
LINE
  5
337
330
E3
100
AcDbEntity
  8
Doc_ Floor
  6
Continuous
100
AcDbLine
 10
143.0699201713392
 20
169.6967772217184
 30
0.0
 11
144.828403201088
 21
168.7440182584681
 31
0.0
  0
LWPOLYLINE
  5
338
330
E3
100
AcDbEntity
  8
Doc_ Floor
  6
Continuous
100
AcDbPolyline
 90
       13
 70
   128
 43
0.0
 10
143.9491614718831
 20
169.2203975225122
 10
146.9552119981905
 20
174.5094450304775
 10
149.67576051761
 20
178.9072857086951
 10
152.1603372660196
 20
182.4712484769654
 10
154.4584724792974
 20
185.2586622550888
 10
155.5531027089738
 20
186.3790785602829
 10
156.6196963933216
 20
187.3268559628656
 10
157.6644448118254
 20
188.1091605778116
 10
158.6935392439702
 20
188.7331585200961
 10
159.7131709692405
 20
189.2060159046942
 10
160.7295312671212
 20
189.5348988465809
 10
161.7488114170971
 20
189.7269734607312
 10
162.7772026986528
 20
189.7894058621202
  0
MTEXT
  5
339
330
E3
100
AcDbEntity
  8
Doc_ Floor
  6
Continuous
100
AcDbMText
 10
84.77388071279033
 20
147.6920788385025
 30
0.0
 40
2.5
 41
60.53494806844278
 71
     6
 72
     1
  1
{NOTCHED TURN-DOWN OVER TRS 9.\P5mm MAX. GAP BETWEEN PAN AND EDGE OF FLASHING}
  7
GENERATED_STYLE_1
 73
     1
 44
1.065340909090909
  0
LINE
  5
33A
330
E3
100
AcDbEntity
  8
Doc_ Floor
  6
Continuous
100
AcDbLine
 10
114.3409561060499
 20
136.4431147001391
 30
0.0
 11
110.7325295658431
 21
137.8242136499826
 31
0.0
  0
LINE
  5
33B
330
E3
100
AcDbEntity
  8
Doc_ Floor
  6
Continuous
100
AcDbLine
 10
114.3409561060499
 20
136.4431147001391
 30
0.0
 11
111.906515950455
 21
139.4433963454374
 31
0.0
  0
LINE
  5
33C
330
E3
100
AcDbEntity
  8
Doc_ Floor
  6
Continuous
100
AcDbLine
 10
110.7325295658431
 20
137.8242136499826
 30
0.0
 11
111.906515950455
 21
139.4433963454374
 31
0.0
  0
LWPOLYLINE
  5
33D
330
E3
100
AcDbEntity
  8
Doc_ Floor
  6
Continuous
100
AcDbPolyline
 90
        9
 70
   128
 43
0.0
 10
111.3195221170556
 20
138.6338056324637
 10
107.8327350070158
 20
140.9630803796906
 10
104.5551513179911
 20
142.9015968013102
 10
101.4241096158321
 20
144.4740704875208
 10
98.37694846638917
 20
145.705217028521
 10
95.35100643551301
 20
146.619752014509
 10
92.28362208905413
 20
147.2423910356834
 10
89.11213399286305
 20
147.5978496822425
 10
85.77388071279034
 20
147.7108435443848
  0
MTEXT
  5
33E
330
E3
100
AcDbEntity
  8
Doc_ Floor
  6
Continuous
100
AcDbMText
 10
174.5585461850172
 20
182.6675990594376
 30
0.0
 40
2.5
 41
0.0
 71
     4
 72
     1
  1
{HEM TO EDGE}
  7
GENERATED_STYLE_1
 73
     1
 44
1.0
  0
LINE
  5
33F
330
E3
100
AcDbEntity
  8
Doc_ Floor
  6
Continuous
100
AcDbLine
 10
152.9526328333104
 20
158.8360272846
 30
0.0
 11
153.8512663246294
 21
162.5937732783252
 31
0.0
  0
LINE
  5
340
330
E3
100
AcDbEntity
  8
Doc_ Floor
  6
Continuous
100
AcDbLine
 10
152.9526328333104
 20
158.8360272846
 30
0.0
 11
155.6097452380597
 21
161.6410143150748
 31
0.0
  0
LINE
  5
341
330
E3
100
AcDbEntity
  8
Doc_ Floor
  6
Continuous
100
AcDbLine
 10
153.8512663246294
 20
162.5937732783252
 30
0.0
 11
155.6097452380597
 21
161.6410143150748
 31
0.0
  0
LWPOLYLINE
  5
342
330
E3
100
AcDbEntity
  8
Doc_ Floor
  6
Continuous
100
AcDbPolyline
 90
       13
 70
   128
 43
0.0
 10
154.7305049582475
 20
162.1173946413984
 10
157.7365554845549
 20
167.4064421493636
 10
160.4571040039744
 20
171.8042828275812
 10
162.941680752384
 20
175.3682455958515
 10
165.2398159656618
 20
178.1556593739749
 10
166.3344461953382
 20
179.276075679169
 10
167.401039879686
 20
180.2238530817517
 10
168.4457882981898
 20
181.0061576966977
 10
169.4748827303345
 20
181.6301556389822
 10
170.4945144556049
 20
182.1030130235803
 10
171.5108747534856
 20
182.431895965467
 10
172.5301549034615
 20
182.6239705796173
 10
173.5585461850172
 20
182.6864029810063
  0
MTEXT
  5
343
330
E3
100
AcDbEntity
  8
Doc_ Floor
  6
Continuous
100
AcDbMText
 10
181.4214923939649
 20
176.2694927080004
 30
0.0
 40
2.5
 41
0.0
 71
     4
 72
     1
  1
{SEAL AND FASTEN}
  7
GENERATED_STYLE_1
 73
     1
 44
1.0
  0
LINE
  5
344
330
E3
100
AcDbEntity
  8
Doc_ Floor
  6
Continuous
100
AcDbLine
 10
159.8155813145319
 20
152.4379223024129
 30
0.0
 11
160.7142106895323
 21
156.1956682961381
 31
0.0
  0
LINE
  5
345
330
E3
100
AcDbEntity
  8
Doc_ Floor
  6
Continuous
100
AcDbLine
 10
159.8155813145319
 20
152.4379223024129
 30
0.0
 11
162.4726896029626
 21
155.2429093328876
 31
0.0
  0
LINE
  5
346
330
E3
100
AcDbEntity
  8
Doc_ Floor
  6
Continuous
100
AcDbLine
 10
160.7142106895323
 20
156.1956682961381
 30
0.0
 11
162.4726896029626
 21
155.2429093328876
 31
0.0
  0
LWPOLYLINE
  5
347
330
E3
100
AcDbEntity
  8
Doc_ Floor
  6
Continuous
100
AcDbPolyline
 90
       13
 70
   128
 43
0.0
 10
161.5934511671951
 20
155.7192882899611
 10
164.5995016935026
 20
161.0083357979263
 10
167.3200502129221
 20
165.4061764761439
 10
169.8046269613317
 20
168.9701392444142
 10
172.1027621746095
 20
171.7575530225376
 10
173.1973924042859
 20
172.8779693277318
 10
174.2639860886337
 20
173.8257467303144
 10
175.3087345071375
 20
174.6080513452604
 10
176.3378289392822
 20
175.232049287545
 10
177.3574606645525
 20
175.7049066721431
 10
178.3738209624333
 20
176.0337896140297
 10
179.3931011124092
 20
176.22586422818
 10
180.4214923939649
 20
176.288296629569
  0
MTEXT
  5
348
330
E3
100
AcDbEntity
  8
Doc_ Floor
  6
Continuous
100
AcDbMText
 10
187.1787432219973
 20
124.6979867368612
 30
0.0
 40
2.5
 41
66.98233423560002
 71
     4
 72
     1
  1
{EPDM FLEXIBLE BOOT FLASHING SCREW FIXED AND SALED TO METAL SOAKER FLASHING.\PFIT NEOPRENE WASHERS UNDER SCREWS}
  7
GENERATED_STYLE_1
 73
     1
 44
1.418324284734413
  0
LINE
  5
349
330
E3
100
AcDbEntity
  8
Doc_ Floor
  6
Continuous
100
AcDbLine
 10
149.0443201415621
 20
127.5487465748342
 30
0.0
 11
152.8549896422172
 21
128.1867224298983
 31
0.0
  0
LINE
  5
34A
330
E3
100
AcDbEntity
  8
Doc_ Floor
  6
Continuous
100
AcDbLine
 10
149.0443201415621
 20
127.5487465748342
 30
0.0
 11
152.6634449935453
 21
126.1959143841171
 31
0.0
  0
LINE
  5
34B
330
E3
100
AcDbEntity
  8
Doc_ Floor
  6
Continuous
100
AcDbLine
 10
152.8549896422172
 20
128.1867224298983
 30
0.0
 11
152.6634449935453
 21
126.1959143841171
 31
0.0
  0
LWPOLYLINE
  5
34C
330
E3
100
AcDbEntity
  8
Doc_ Floor
  6
Continuous
100
AcDbPolyline
 90
        5
 70
   128
 43
0.0
 10
152.7592166840587
 20
127.1913184518904
 10
165.3470903352959
 20
126.025543260457
 10
174.6284851425976
 20
125.261466033871
 10
181.3301273551145
 20
124.8436634600864
 10
186.1787432219973
 20
124.7167122270573
  0
MTEXT
  5
34D
330
E3
100
AcDbEntity
  8
0
  6
Continuous
100
AcDbMText
 10
159.4965906835452
 20
105.0606898623435
 30
0.0
 40
2.5
 41
0.0
 71
     7
 72
     1
  1
{X}
  7
GENERATED_STYLE_1
 73
     1
 44
1.0
  0
MTEXT
  5
34E
330
E3
100
AcDbEntity
  8
0
  6
Continuous
100
AcDbMText
 10
36.67603963111148
 20
76.40594421618847
 30
0.0
 40
2.5
 41
0.0
 71
     7
 72
     1
  1
{LOW, MEDIUM OR HIGH WIND ZONE.}
  7
GENERATED_STYLE_1
 73
     1
 44
1.0
  0
MTEXT
  5
34F
330
E3
100
AcDbEntity
  8
0
  6
Continuous
100
AcDbMText
 10
36.67603963111148
 20
65.87829202718353
 30
0.0
 40
2.5
 41
0.0
 71
     7
 72
     1
  1
{VERY HIGH OR EXTRA WIND ZONE.}
  7
GENERATED_STYLE_1
 73
     1
 44
1.0
  0
MTEXT
  5
350
330
E3
100
AcDbEntity
  8
0
  6
Continuous
100
AcDbMText
 10
123.0021730970473
 20
76.83460009796084
 30
0.0
 40
2.499999999999999
 41
0.0
 71
     8
 72
     1
  1
{130mm}
  7
GENERATED_STYLE_1
 73
     1
 44
1.0
  0
MTEXT
  5
351
330
E3
100
AcDbEntity
  8
0
  6
Continuous
100
AcDbMText
 10
123.0021730970473
 20
65.55948960457998
 30
0.0
 40
2.499999999999999
 41
0.0
 71
     8
 72
     1
  1
{200mm}
  7
GENERATED_STYLE_1
 73
     1
 44
1.0
  0
MTEXT
  5
352
330
E3
100
AcDbEntity
  8
0
  6
Continuous
100
AcDbMText
 10
122.8355203297386
 20
85.82571044201435
 30
0.0
 40
2.499999999999999
 41
0.0
 71
     8
 72
     1
  1
{X}
  7
GENERATED_STYLE_1
 73
     1
 44
1.0
  0
MTEXT
  5
353
330
E3
100
AcDbEntity
  8
0
  6
Continuous
100
AcDbMText
 10
106.62688171065
 20
110.8790848836601
 30
0.0
 40
2.0
 41
0.0
 71
     7
 72
     1
  1
{2 CRESTS}
  7
GENERATED_STYLE_1
 11
0.7150385033109309
 21
-0.6990850726362736
 31
0.0
 73
     1
 44
1.0
  0
MTEXT
  5
354
330
E3
100
AcDbEntity
  8
0
  6
Continuous
100
AcDbMText
 10
119.2549018709574
 20
98.49438703675932
 30
0.0
 40
2.0
 41
0.0
 71
     7
 72
     1
  1
{2 CRESTS}
  7
GENERATED_STYLE_1
 11
0.7150385033109309
 21
-0.6990850726362736
 31
0.0
 73
     1
 44
1.0
  0
ENDBLK
  5
E5
330
E3
100
AcDbEntity
  8
0
100
AcDbBlockEnd
  0
BLOCK
  5
35F
330
35E
100
AcDbEntity
  8
0
100
AcDbBlockBegin
  2
C-TRS9-11 PIPE PENETRATION DETA_STORY_MARKER
 70
     0
 10
0.0
 20
0.0
 30
0.0
  3
C-TRS9-11 PIPE PENETRATION DETA_STORY_MARKER
  1

  0
ENDBLK
  5
360
330
35E
100
AcDbEntity
  8
0
100
AcDbBlockEnd
  0
ENDSEC
  0
SECTION
  2
ENTITIES
  0
HATCH
  5
3F
330
1F
100
AcDbEntity
  8
Doc_ Finishes
  6
Continuous
100
AcDbHatch
 10
0.0
 20
0.0
 30
0.0
210
0.0
220
0.0
230
1.0
  2
SOLID
 70
     1
 71
     0
 91
        1
 92
        3
 72
     0
 73
     1
 93
       54
 10
25.4117749414874
 20
16.87044408857867
 10
24.89356552397386
 20
16.5825499677378
 10
24.5480925789648
 20
16.29465584689693
 10
24.12584786839818
 20
16.02595466744544
 10
23.76118198199976
 20
15.60370995687884
 10
23.39651609560134
 20
15.33500877742737
 10
23.07023609198168
 20
14.89357112547136
 10
22.49444785029994
 20
14.45213347351537
 10
21.93785255000758
 20
14.02988876294876
 10
21.43883607388343
 20
13.81876640766546
 10
20.74789018386533
 20
13.39652169709885
 10
20.09533017662603
 20
12.99346992792163
 10
19.63469958328064
 20
12.55203227596564
 10
18.90536781048376
 20
12.12978756539902
 10
18.59828074825351
 20
11.7459287376112
 10
18.04168544796116
 20
11.28529814426581
 10
17.36993249933246
 20
10.8630534336992
 10
16.73656543348255
 20
10.42161578174319
 10
16.04561954346446
 20
10.15291460229172
 10
15.1051654153843
 20
9.692284008946325
 10
14.39502658397681
 20
9.020531060317637
 10
13.83843128368446
 20
8.598286349751023
 10
13.12829245227699
 20
8.137655756405634
 10
12.84039833143612
 20
7.98411222529051
 10
12.37976773809073
 20
7.81137575278599
 10
12.07268067586046
 20
7.523481631945121
 10
12.0151018516923
 20
7.216394569714853
 10
12.14945244141803
 20
6.890114566095209
 10
12.4373465622589
 20
6.563834562475543
 10
12.8787842142149
 20
6.659799269422514
 10
13.51215128006482
 20
7.06285103859973
 10
14.01116775618899
 20
7.389131042219374
 10
14.33744775980864
 20
7.696218104449641
 10
14.51018423231316
 20
7.907340459732938
 10
15.01303929671522
 20
8.421711288968723
 10
15.33548071205699
 20
8.652026585641417
 10
15.75004824606785
 20
8.99749953065046
 10
16.14158425041142
 20
9.204783297655894
 10
17.24709767444037
 20
9.75754000967037
 10
18.23745345013295
 20
10.47151742935572
 10
19.4120614631637
 20
11.1624633193738
 10
19.84966052684182
 20
11.64612544238645
 10
20.49454335752537
 20
12.06069297639732
 10
21.78430901889248
 20
12.9819541630881
 10
22.36009726057419
 20
13.25833251909534
 10
23.6498629219413
 20
14.24868829478776
 10
23.85714668894673
 20
14.64022429913134
 10
24.68628175696843
 20
15.23904407048036
 10
25.28510152831745
 20
15.72270619349301
 10
25.81482671066464
 20
16.1142421978366
 10
26.27545730401003
 20
16.52880973184745
 10
26.22939424467549
 20
16.7821565581874
 10
26.09120506667188
 20
16.89731420652375
 10
25.56147988432467
 20
16.89731420652375
 97
        0
 75
     0
 76
     1
 98
        0
  0
LINE
  5
41
330
1F
100
AcDbEntity
  8
Doc_ Finishes
  6
Continuous
100
AcDbLine
 10
25.41177616050354
 20
16.87044600708104
 30
0.0
 11
24.89356363099921
 21
16.58254868214004
 31
0.0
  0
LINE
  5
42
330
1F
100
AcDbEntity
  8
Doc_ Finishes
  6
Continuous
100
AcDbLine
 10
24.89356363099921
 20
16.58254868214004
 30
0.0
 11
24.54809303697876
 21
16.29465578284815
 31
0.0
  0
LINE
  5
43
330
1F
100
AcDbEntity
  8
Doc_ Finishes
  6
Continuous
100
AcDbLine
 10
24.54809303697876
 20
16.29465578284815
 30
0.0
 11
24.12584628245476
 21
16.02595249803305
 31
0.0
  0
LINE
  5
44
330
1F
100
AcDbEntity
  8
Doc_ Finishes
  6
Continuous
100
AcDbLine
 10
24.12584628245476
 20
16.02595249803305
 30
0.0
 11
23.76118164830842
 21
15.60371016915814
 31
0.0
  0
LINE
  5
45
330
1F
100
AcDbEntity
  8
Doc_ Finishes
  6
Continuous
100
AcDbLine
 10
23.76118164830842
 20
15.60371016915814
 30
0.0
 11
23.39651701416208
 21
15.33500688434304
 31
0.0
  0
LINE
  5
46
330
1F
100
AcDbEntity
  8
Doc_ Finishes
  6
Continuous
100
AcDbLine
 10
23.39651701416208
 20
15.33500688434304
 30
0.0
 11
23.07023603461841
 21
14.89357051534225
 31
0.0
  0
LINE
  5
47
330
1F
100
AcDbEntity
  8
Doc_ Finishes
  6
Continuous
100
AcDbLine
 10
23.07023603461841
 20
14.89357051534225
 30
0.0
 11
22.49444581038552
 21
14.45213414634146
 31
0.0
  0
LINE
  5
48
330
1F
100
AcDbEntity
  8
Doc_ Finishes
  6
Continuous
100
AcDbLine
 10
22.49444581038552
 20
14.45213414634146
 30
0.0
 11
21.93785405192762
 21
14.02988739181747
 31
0.0
  0
LINE
  5
49
330
1F
100
AcDbEntity
  8
Doc_ Finishes
  6
Continuous
100
AcDbLine
 10
21.93785405192762
 20
14.02988739181747
 30
0.0
 11
21.43883556254917
 21
13.81876622738001
 31
0.0
  0
LINE
  5
4A
330
1F
100
AcDbEntity
  8
Doc_ Finishes
  6
Continuous
100
AcDbLine
 10
21.43883556254917
 20
13.81876622738001
 30
0.0
 11
20.74788994885916
 21
13.39652389850511
 31
0.0
  0
LINE
  5
4B
330
1F
100
AcDbEntity
  8
Doc_ Finishes
  6
Continuous
100
AcDbLine
 10
20.74788994885916
 20
13.39652389850511
 30
0.0
 11
20.09532798977183
 21
12.993471184107
 31
0.0
  0
LINE
  5
4C
330
1F
100
AcDbEntity
  8
Doc_ Finishes
  6
Continuous
100
AcDbLine
 10
20.09532798977183
 20
12.993471184107
 30
0.0
 11
19.63469758064516
 21
12.55203038945712
 31
0.0
  0
LINE
  5
4D
330
1F
100
AcDbEntity
  8
Doc_ Finishes
  6
Continuous
100
AcDbLine
 10
19.63469758064516
 20
12.55203038945712
 30
0.0
 11
18.90536831235248
 21
12.12978806058222
 31
0.0
  0
LINE
  5
4E
330
1F
100
AcDbEntity
  8
Doc_ Finishes
  6
Continuous
100
AcDbLine
 10
18.90536831235248
 20
12.12978806058222
 30
0.0
 11
18.5982813729347
 21
11.74592938630999
 31
0.0
  0
LINE
  5
4F
330
1F
100
AcDbEntity
  8
Doc_ Finishes
  6
Continuous
100
AcDbLine
 10
18.5982813729347
 20
11.74592938630999
 30
0.0
 11
18.0416851888277
 21
11.28529897718332
 31
0.0
  0
LINE
  5
50
330
1F
100
AcDbEntity
  8
Doc_ Finishes
  6
Continuous
100
AcDbLine
 10
18.0416851888277
 20
11.28529897718332
 30
0.0
 11
17.36993361526357
 21
10.86305222265932
 31
0.0
  0
LINE
  5
51
330
1F
100
AcDbEntity
  8
Doc_ Finishes
  6
Continuous
100
AcDbLine
 10
17.36993361526357
 20
10.86305222265932
 30
0.0
 11
16.73656569630212
 21
10.42161585365854
 31
0.0
  0
LINE
  5
52
330
1F
100
AcDbEntity
  8
Doc_ Finishes
  6
Continuous
100
AcDbLine
 10
16.73656569630212
 20
10.42161585365854
 30
0.0
 11
16.04562008261211
 21
10.15291256884343
 31
0.0
  0
LINE
  5
53
330
1F
100
AcDbEntity
  8
Doc_ Finishes
  6
Continuous
100
AcDbLine
 10
16.04562008261211
 20
10.15291256884343
 30
0.0
 11
15.10516522423289
 21
9.692282159716758
 31
0.0
  0
LINE
  5
54
330
1F
100
AcDbEntity
  8
Doc_ Finishes
  6
Continuous
100
AcDbLine
 10
15.10516522423289
 20
9.692282159716758
 30
0.0
 11
14.39502557041699
 21
9.020530586152635
 31
0.0
  0
LINE
  5
55
330
1F
100
AcDbEntity
  8
Doc_ Finishes
  6
Continuous
100
AcDbLine
 10
14.39502557041699
 20
9.020530586152635
 30
0.0
 11
13.83842938630999
 21
8.598288257277733
 31
0.0
  0
LINE
  5
56
330
1F
100
AcDbEntity
  8
Doc_ Finishes
  6
Continuous
100
AcDbLine
 10
13.83842938630999
 20
8.598288257277733
 30
0.0
 11
13.12829415814319
 21
8.137657848151063
 31
0.0
  0
LINE
  5
57
330
1F
100
AcDbEntity
  8
Doc_ Finishes
  6
Continuous
100
AcDbLine
 10
13.12829415814319
 20
8.137657848151063
 30
0.0
 11
12.8403968332022
 21
7.984114378442171
 31
0.0
  0
LINE
  5
58
330
1F
100
AcDbEntity
  8
Doc_ Finishes
  6
Continuous
100
AcDbLine
 10
12.8403968332022
 20
7.984114378442171
 30
0.0
 11
12.37976642407553
 21
7.811376868607396
 31
0.0
  0
LINE
  5
59
330
1F
100
AcDbEntity
  8
Doc_ Finishes
  6
Continuous
100
AcDbLine
 10
12.37976642407553
 20
7.811376868607396
 30
0.0
 11
12.07267948465775
 21
7.523479543666405
 31
0.0
  0
LINE
  5
5A
330
1F
100
AcDbEntity
  8
Doc_ Finishes
  6
Continuous
100
AcDbLine
 10
12.07267948465775
 20
7.523479543666405
 30
0.0
 11
12.01510178992919
 21
7.216392604248622
 31
0.0
  0
LINE
  5
5B
330
1F
100
AcDbEntity
  8
Doc_ Finishes
  6
Continuous
100
AcDbLine
 10
12.01510178992919
 20
7.216392604248622
 30
0.0
 11
12.1494512195122
 21
6.890116050354051
 31
0.0
  0
LINE
  5
5C
330
1F
100
AcDbEntity
  8
Doc_ Finishes
  6
Continuous
100
AcDbLine
 10
12.1494512195122
 20
6.890116050354051
 30
0.0
 11
12.43734854445319
 21
6.563835070810386
 31
0.0
  0
LINE
  5
5D
330
1F
100
AcDbEntity
  8
Doc_ Finishes
  6
Continuous
100
AcDbLine
 10
12.43734854445319
 20
6.563835070810386
 30
0.0
 11
12.87878491345397
 21
6.659800845790715
 31
0.0
  0
LINE
  5
5E
330
1F
100
AcDbEntity
  8
Doc_ Finishes
  6
Continuous
100
AcDbLine
 10
12.87878491345397
 20
6.659800845790715
 30
0.0
 11
13.51215283241542
 21
7.062849134539732
 31
0.0
  0
LINE
  5
5F
330
1F
100
AcDbEntity
  8
Doc_ Finishes
  6
Continuous
100
AcDbLine
 10
13.51215283241542
 20
7.062849134539732
 30
0.0
 11
14.01116689614477
 21
7.389130114083398
 31
0.0
  0
LINE
  5
60
330
1F
100
AcDbEntity
  8
Doc_ Finishes
  6
Continuous
100
AcDbLine
 10
14.01116689614477
 20
7.389130114083398
 30
0.0
 11
14.33744787568843
 21
7.69621705350118
 31
0.0
  0
LINE
  5
61
330
1F
100
AcDbEntity
  8
Doc_ Finishes
  6
Continuous
100
AcDbLine
 10
14.33744787568843
 20
7.69621705350118
 30
0.0
 11
14.51018538552321
 21
7.907342643587726
 31
0.0
  0
LINE
  5
62
330
1F
100
AcDbEntity
  8
Doc_ Finishes
  6
Continuous
100
AcDbLine
 10
14.51018538552321
 20
7.907342643587726
 30
0.0
 11
15.01304091266719
 21
8.421709284028323
 31
0.0
  0
LINE
  5
63
330
1F
100
AcDbEntity
  8
Doc_ Finishes
  6
Continuous
100
AcDbLine
 10
15.01304091266719
 20
8.421709284028323
 30
0.0
 11
15.33548042879622
 21
8.65202448859166
 31
0.0
  0
LINE
  5
64
330
1F
100
AcDbEntity
  8
Doc_ Finishes
  6
Continuous
100
AcDbLine
 10
15.33548042879622
 20
8.65202448859166
 30
0.0
 11
15.75004868214005
 21
8.997499508261212
 31
0.0
  0
LINE
  5
65
330
1F
100
AcDbEntity
  8
Doc_ Finishes
  6
Continuous
100
AcDbLine
 10
15.75004868214005
 20
8.997499508261212
 30
0.0
 11
16.14158585759245
 21
9.204783634933122
 31
0.0
  0
LINE
  5
66
330
1F
100
AcDbEntity
  8
Doc_ Finishes
  6
Continuous
100
AcDbLine
 10
16.14158585759245
 20
9.204783634933122
 30
0.0
 11
17.24709972462628
 21
9.75753835562549
 31
0.0
  0
LINE
  5
67
330
1F
100
AcDbEntity
  8
Doc_ Finishes
  6
Continuous
100
AcDbLine
 10
17.24709972462628
 20
9.75753835562549
 30
0.0
 11
18.2374537765539
 21
10.47151947285602
 31
0.0
  0
LINE
  5
68
330
1F
100
AcDbEntity
  8
Doc_ Finishes
  6
Continuous
100
AcDbLine
 10
18.2374537765539
 20
10.47151947285602
 30
0.0
 11
19.41206087726199
 21
11.16246508654602
 31
0.0
  0
LINE
  5
69
330
1F
100
AcDbEntity
  8
Doc_ Finishes
  6
Continuous
100
AcDbLine
 10
19.41206087726199
 20
11.16246508654602
 30
0.0
 11
19.84966020849724
 21
11.64612657356412
 31
0.0
  0
LINE
  5
6A
330
1F
100
AcDbEntity
  8
Doc_ Finishes
  6
Continuous
100
AcDbLine
 10
19.84966020849724
 20
11.64612657356412
 30
0.0
 11
20.4945436664044
 21
12.06069482690795
 31
0.0
  0
LINE
  5
6B
330
1F
100
AcDbEntity
  8
Doc_ Finishes
  6
Continuous
100
AcDbLine
 10
20.4945436664044
 20
12.06069482690795
 30
0.0
 11
21.78431058221873
 21
12.98195564516129
 31
0.0
  0
LINE
  5
6C
330
1F
100
AcDbEntity
  8
Doc_ Finishes
  6
Continuous
100
AcDbLine
 10
21.78431058221873
 20
12.98195564516129
 30
0.0
 11
22.36009638080252
 21
13.25833300550747
 31
0.0
  0
LINE
  5
6D
330
1F
100
AcDbEntity
  8
Doc_ Finishes
  6
Continuous
100
AcDbLine
 10
22.36009638080252
 20
13.25833300550747
 30
0.0
 11
23.64986329661684
 21
14.24868705743509
 31
0.0
  0
LINE
  5
6E
330
1F
100
AcDbEntity
  8
Doc_ Finishes
  6
Continuous
100
AcDbLine
 10
23.64986329661684
 20
14.24868705743509
 30
0.0
 11
23.85714742328875
 21
14.64022423288749
 31
0.0
  0
LINE
  5
6F
330
1F
100
AcDbEntity
  8
Doc_ Finishes
  6
Continuous
100
AcDbLine
 10
23.85714742328875
 20
14.64022423288749
 30
0.0
 11
24.68628392997639
 21
15.2390455350118
 31
0.0
  0
LINE
  5
70
330
1F
100
AcDbEntity
  8
Doc_ Finishes
  6
Continuous
100
AcDbLine
 10
24.68628392997639
 20
15.2390455350118
 30
0.0
 11
25.28510080645161
 21
15.7227070220299
 31
0.0
  0
LINE
  5
71
330
1F
100
AcDbEntity
  8
Doc_ Finishes
  6
Continuous
100
AcDbLine
 10
25.28510080645161
 20
15.7227070220299
 30
0.0
 11
25.81482887490165
 21
16.1142441974823
 31
0.0
  0
LINE
  5
72
330
1F
100
AcDbEntity
  8
Doc_ Finishes
  6
Continuous
100
AcDbLine
 10
25.81482887490165
 20
16.1142441974823
 30
0.0
 11
26.27545928402832
 21
16.52880802517702
 31
0.0
  0
LINE
  5
73
330
1F
100
AcDbEntity
  8
Doc_ Finishes
  6
Continuous
100
AcDbLine
 10
26.27545928402832
 20
16.52880802517702
 30
0.0
 11
26.22939270259638
 21
16.78215873328088
 31
0.0
  0
LINE
  5
74
330
1F
100
AcDbEntity
  8
Doc_ Finishes
  6
Continuous
100
AcDbLine
 10
26.22939270259638
 20
16.78215873328088
 30
0.0
 11
26.09120623524784
 21
16.897314122738
 31
0.0
  0
LINE
  5
75
330
1F
100
AcDbEntity
  8
Doc_ Finishes
  6
Continuous
100
AcDbLine
 10
26.09120623524784
 20
16.897314122738
 30
0.0
 11
25.56147816679779
 21
16.897314122738
 31
0.0
  0
LINE
  5
76
330
1F
100
AcDbEntity
  8
Doc_ Finishes
  6
Continuous
100
AcDbLine
 10
25.56147816679779
 20
16.897314122738
 30
0.0
 11
25.41177616050354
 21
16.87044600708104
 31
0.0
  0
HATCH
  5
77
330
1F
100
AcDbEntity
  8
Doc_ Finishes
  6
Continuous
100
AcDbHatch
 10
0.0
 20
0.0
 30
0.0
210
0.0
220
0.0
230
1.0
  2
SOLID
 70
     1
 71
     0
 91
        1
 92
        3
 72
     0
 73
     1
 93
       39
 10
25.65360600299377
 20
13.12014334109181
 10
25.21600693931564
 20
12.77467039608275
 10
24.54809257896482
 20
12.24494521373555
 10
23.92624127794851
 20
11.85340920939199
 10
23.32742150659951
 20
11.32368402704478
 10
22.72860173525051
 20
11.04730567103754
 10
22.08371890456697
 20
10.56364354802488
 10
21.62308831122158
 20
10.33332825135219
 10
21.231552306878
 20
10.03391836567767
 10
20.81698477286715
 20
9.619350831666825
 10
20.4024172388563
 20
9.38903553499415
 10
19.91875511584363
 20
9.043562589985086
 10
19.66540828950367
 20
8.859310352646935
 10
19.25084075549282
 20
8.582931996639696
 10
18.09926427212933
 20
7.753796928618002
 10
17.75379132712029
 20
7.477418572610764
 10
17.2931607337749
 20
7.316197864939873
 10
17.22406614477309
 20
6.993756449598113
 10
17.3622553227767
 20
6.717378093590874
 10
17.63863367878394
 20
6.602220445254527
 10
18.00713815346025
 20
6.8325357419272
 10
18.26048497980021
 20
7.131945627601722
 10
18.55989486547472
 20
7.362260924274415
 10
19.31993534449462
 20
7.707733869283458
 10
19.84966052684182
 20
8.122301403294307
 10
20.88607936186895
 20
8.882341882314256
 10
21.20852077721072
 20
9.342972475659646
 10
22.01462431556515
 20
9.734508480003234
 10
22.5673810275796
 20
10.05694989534501
 10
23.46561068460312
 20
10.60970660735953
 10
23.88017821861399
 20
11.07033720070492
 10
24.31777728229212
 20
11.34671555671216
 10
24.70931328663568
 20
11.30065249737762
 10
25.21600693931562
 20
11.55399932371759
 10
26.0681735370046
 20
12.17585062473387
 10
26.41364648201364
 20
12.49829204007566
 10
26.39061495234636
 20
12.77467039608289
 10
26.22939424467547
 20
13.00498569275559
 10
26.04514200733731
 20
13.05104875209013
 97
        0
 75
     0
 76
     1
 98
        0
  0
LINE
  5
78
330
1F
100
AcDbEntity
  8
Doc_ Finishes
  6
Continuous
100
AcDbLine
 10
25.65360690401259
 20
13.12014211250983
 30
0.0
 11
25.21600757277734
 21
12.77467151848938
 31
0.0
  0
LINE
  5
79
330
1F
100
AcDbEntity
  8
Doc_ Finishes
  6
Continuous
100
AcDbLine
 10
25.21600757277734
 20
12.77467151848938
 30
0.0
 11
24.54809303697876
 21
12.24494345003934
 31
0.0
  0
LINE
  5
7A
330
1F
100
AcDbEntity
  8
Doc_ Finishes
  6
Continuous
100
AcDbLine
 10
24.54809303697876
 20
12.24494345003934
 30
0.0
 11
23.92624065696302
 21
11.85341070023603
 31
0.0
  0
LINE
  5
7B
330
1F
100
AcDbEntity
  8
Doc_ Finishes
  6
Continuous
100
AcDbLine
 10
23.92624065696302
 20
11.85341070023603
 30
0.0
 11
23.32741935483871
 21
11.32368263178599
 31
0.0
  0
LINE
  5
7C
330
1F
100
AcDbEntity
  8
Doc_ Finishes
  6
Continuous
100
AcDbLine
 10
23.32741935483871
 20
11.32368263178599
 30
0.0
 11
22.72860247836349
 21
11.04730527143981
 31
0.0
  0
LINE
  5
7D
330
1F
100
AcDbEntity
  8
Doc_ Finishes
  6
Continuous
100
AcDbLine
 10
22.72860247836349
 20
11.04730527143981
 30
0.0
 11
22.08371902045633
 21
10.56364378442171
 31
0.0
  0
LINE
  5
7E
330
1F
100
AcDbEntity
  8
Doc_ Finishes
  6
Continuous
100
AcDbLine
 10
22.08371902045633
 20
10.56364378442171
 30
0.0
 11
21.62308861132966
 21
10.33332857985838
 31
0.0
  0
LINE
  5
7F
330
1F
100
AcDbEntity
  8
Doc_ Finishes
  6
Continuous
100
AcDbLine
 10
21.62308861132966
 20
10.33332857985838
 30
0.0
 11
21.23155143587726
 21
10.03392014162077
 31
0.0
  0
LINE
  5
80
330
1F
100
AcDbEntity
  8
Doc_ Finishes
  6
Continuous
100
AcDbLine
 10
21.23155143587726
 20
10.03392014162077
 30
0.0
 11
20.81698318253344
 21
9.619351888276947
 31
0.0
  0
LINE
  5
81
330
1F
100
AcDbEntity
  8
Doc_ Finishes
  6
Continuous
100
AcDbLine
 10
20.81698318253344
 20
9.619351888276947
 30
0.0
 11
20.40241935483871
 21
9.389036683713611
 31
0.0
  0
LINE
  5
82
330
1F
100
AcDbEntity
  8
Doc_ Finishes
  6
Continuous
100
AcDbLine
 10
20.40241935483871
 20
9.389036683713611
 30
0.0
 11
19.91875344217151
 21
9.04356166404406
 31
0.0
  0
LINE
  5
83
330
1F
100
AcDbEntity
  8
Doc_ Finishes
  6
Continuous
100
AcDbLine
 10
19.91875344217151
 20
9.04356166404406
 30
0.0
 11
19.66540715971676
 21
8.859308615263572
 31
0.0
  0
LINE
  5
84
330
1F
100
AcDbEntity
  8
Doc_ Finishes
  6
Continuous
100
AcDbLine
 10
19.66540715971676
 20
8.859308615263572
 30
0.0
 11
19.25083890637293
 21
8.582931254917387
 31
0.0
  0
LINE
  5
85
330
1F
100
AcDbEntity
  8
Doc_ Finishes
  6
Continuous
100
AcDbLine
 10
19.25083890637293
 20
8.582931254917387
 30
0.0
 11
18.09926288355625
 21
7.75379474822974
 31
0.0
  0
LINE
  5
86
330
1F
100
AcDbEntity
  8
Doc_ Finishes
  6
Continuous
100
AcDbLine
 10
18.09926288355625
 20
7.75379474822974
 30
0.0
 11
17.7537922895358
 21
7.477417387883556
 31
0.0
  0
LINE
  5
87
330
1F
100
AcDbEntity
  8
Doc_ Finishes
  6
Continuous
100
AcDbLine
 10
17.7537922895358
 20
7.477417387883556
 30
0.0
 11
17.29316188040913
 21
7.316199842643588
 31
0.0
  0
LINE
  5
88
330
1F
100
AcDbEntity
  8
Doc_ Finishes
  6
Continuous
100
AcDbLine
 10
17.29316188040913
 20
7.316199842643588
 30
0.0
 11
17.22406422108576
 21
6.993755900865461
 31
0.0
  0
LINE
  5
89
330
1F
100
AcDbEntity
  8
Doc_ Finishes
  6
Continuous
100
AcDbLine
 10
17.22406422108576
 20
6.993755900865461
 30
0.0
 11
17.3622551140834
 21
6.717378540519276
 31
0.0
  0
LINE
  5
8A
330
1F
100
AcDbEntity
  8
Doc_ Finishes
  6
Continuous
100
AcDbLine
 10
17.3622551140834
 20
6.717378540519276
 30
0.0
 11
17.63863247442958
 21
6.602218725413059
 31
0.0
  0
LINE
  5
8B
330
1F
100
AcDbEntity
  8
Doc_ Finishes
  6
Continuous
100
AcDbLine
 10
17.63863247442958
 20
6.602218725413059
 30
0.0
 11
18.00713857199056
 21
6.832533929976396
 31
0.0
  0
LINE
  5
8C
330
1F
100
AcDbEntity
  8
Doc_ Finishes
  6
Continuous
100
AcDbLine
 10
18.00713857199056
 20
6.832533929976396
 30
0.0
 11
18.26048485444532
 21
7.1319467938631
 31
0.0
  0
LINE
  5
8D
330
1F
100
AcDbEntity
  8
Doc_ Finishes
  6
Continuous
100
AcDbLine
 10
18.26048485444532
 20
7.1319467938631
 30
0.0
 11
18.55989329268293
 21
7.362261998426435
 31
0.0
  0
LINE
  5
8E
330
1F
100
AcDbEntity
  8
Doc_ Finishes
  6
Continuous
100
AcDbLine
 10
18.55989329268293
 20
7.362261998426435
 30
0.0
 11
19.3199365656963
 21
7.707732592446892
 31
0.0
  0
LINE
  5
8F
330
1F
100
AcDbEntity
  8
Doc_ Finishes
  6
Continuous
100
AcDbLine
 10
19.3199365656963
 20
7.707732592446892
 30
0.0
 11
19.84966020849724
 21
8.122300845790717
 31
0.0
  0
LINE
  5
90
330
1F
100
AcDbEntity
  8
Doc_ Finishes
  6
Continuous
100
AcDbLine
 10
19.84966020849724
 20
8.122300845790717
 30
0.0
 11
20.8860808418568
 21
8.882339693154996
 31
0.0
  0
LINE
  5
91
330
1F
100
AcDbEntity
  8
Doc_ Finishes
  6
Continuous
100
AcDbLine
 10
20.8860808418568
 20
8.882339693154996
 30
0.0
 11
21.20852035798584
 21
9.342974527930762
 31
0.0
  0
LINE
  5
92
330
1F
100
AcDbEntity
  8
Doc_ Finishes
  6
Continuous
100
AcDbLine
 10
21.20852035798584
 20
9.342974527930762
 30
0.0
 11
22.01462578678206
 21
9.734507277734066
 31
0.0
  0
LINE
  5
93
330
1F
100
AcDbEntity
  8
Doc_ Finishes
  6
Continuous
100
AcDbLine
 10
22.01462578678206
 20
9.734507277734066
 30
0.0
 11
22.56738050747443
 21
10.05695121951219
 31
0.0
  0
LINE
  5
94
330
1F
100
AcDbEntity
  8
Doc_ Finishes
  6
Continuous
100
AcDbLine
 10
22.56738050747443
 20
10.05695121951219
 30
0.0
 11
23.46561024783635
 21
10.60970594020456
 31
0.0
  0
LINE
  5
95
330
1F
100
AcDbEntity
  8
Doc_ Finishes
  6
Continuous
100
AcDbLine
 10
23.46561024783635
 20
10.60970594020456
 30
0.0
 11
23.88017850118017
 21
11.07033634933124
 31
0.0
  0
LINE
  5
96
330
1F
100
AcDbEntity
  8
Doc_ Finishes
  6
Continuous
100
AcDbLine
 10
23.88017850118017
 20
11.07033634933124
 30
0.0
 11
24.31777783241542
 21
11.34671370967742
 31
0.0
  0
LINE
  5
97
330
1F
100
AcDbEntity
  8
Doc_ Finishes
  6
Continuous
100
AcDbLine
 10
24.31777783241542
 20
11.34671370967742
 30
0.0
 11
24.70931500786781
 21
11.30065155389457
 31
0.0
  0
LINE
  5
98
330
1F
100
AcDbEntity
  8
Doc_ Finishes
  6
Continuous
100
AcDbLine
 10
24.70931500786781
 20
11.30065155389457
 30
0.0
 11
25.21600757277734
 21
11.55399783634933
 31
0.0
  0
LINE
  5
99
330
1F
100
AcDbEntity
  8
Doc_ Finishes
  6
Continuous
100
AcDbLine
 10
25.21600757277734
 20
11.55399783634933
 30
0.0
 11
26.06817515735641
 21
12.17585021636507
 31
0.0
  0
LINE
  5
9A
330
1F
100
AcDbEntity
  8
Doc_ Finishes
  6
Continuous
100
AcDbLine
 10
26.06817515735641
 20
12.17585021636507
 30
0.0
 11
26.41364575137687
 21
12.49829415814319
 31
0.0
  0
LINE
  5
9B
330
1F
100
AcDbEntity
  8
Doc_ Finishes
  6
Continuous
100
AcDbLine
 10
26.41364575137687
 20
12.49829415814319
 30
0.0
 11
26.39061467348544
 21
12.77467151848938
 31
0.0
  0
LINE
  5
9C
330
1F
100
AcDbEntity
  8
Doc_ Finishes
  6
Continuous
100
AcDbLine
 10
26.39061467348544
 20
12.77467151848938
 30
0.0
 11
26.22939270259638
 21
13.00498672305271
 31
0.0
  0
LINE
  5
9D
330
1F
100
AcDbEntity
  8
Doc_ Finishes
  6
Continuous
100
AcDbLine
 10
26.22939270259638
 20
13.00498672305271
 30
0.0
 11
26.04514407946499
 21
13.05104887883556
 31
0.0
  0
LINE
  5
9E
330
1F
100
AcDbEntity
  8
Doc_ Finishes
  6
Continuous
100
AcDbLine
 10
26.04514407946499
 20
13.05104887883556
 30
0.0
 11
25.65360690401259
 21
13.12014211250983
 31
0.0
  0
HATCH
  5
9F
330
1F
100
AcDbEntity
  8
Doc_ Finishes
  6
Continuous
100
AcDbHatch
 10
0.0
 20
0.0
 30
0.0
210
0.0
220
0.0
230
1.0
  2
SOLID
 70
     1
 71
     0
 91
        1
 92
        3
 72
     0
 73
     1
 93
       47
 10
26.06817353700455
 20
15.74573772316067
 10
26.30309513961077
 20
15.62136746295728
 10
26.4412843176144
 20
15.4002647781515
 10
26.93876535842742
 20
15.17916209334572
 10
27.82317609765057
 20
14.40530269652538
 10
28.9286895216795
 20
13.74199464210799
 10
29.59199757609689
 20
13.3827027792986
 10
30.20002995931278
 20
13.07868658769064
 10
31.55428390374827
 20
12.08372450606458
 10
32.07940278016201
 20
11.69679480765445
 10
32.88090001258301
 20
11.08876242443854
 10
33.59948373820179
 20
10.50836787682334
 10
34.5668079842271
 20
9.817421986805197
 10
35.06428902504011
 20
9.458130123995785
 10
35.81051058625965
 20
8.933011247582023
 10
36.61200781868061
 20
8.407892371168286
 10
36.77783483228498
 20
8.186789686362482
 10
37.38586721550091
 20
7.744584316750918
 10
38.18736444792187
 20
6.915449248729224
 10
38.7953968311378
 20
6.44560604351692
 10
39.56925622795804
 20
6.169227687509681
 10
40.23256428237543
 20
6.086314180707507
 10
40.48130480278193
 20
6.30741686551329
 10
40.14965077557326
 20
6.611433057121246
 10
39.48634272115586
 20
6.998362755531397
 10
38.76775899553708
 20
7.357654618340788
 10
38.18736444792187
 20
8.048600508358874
 10
36.99893751709078
 20
8.822459905179112
 10
36.47381864067705
 20
9.319940945992132
 10
36.22507812027052
 20
9.734508480003
 10
35.174840367443
 20
10.31490302761817
 10
34.73263499783144
 20
10.78474623283046
 10
34.2351539570184
 20
11.17167593124059
 10
33.48893239579888
 20
11.61388130085215
 10
32.85326217698223
 20
12.16663801286669
 10
32.35578113616918
 20
12.58120554687754
 10
31.69247308175183
 20
12.99577308088841
 10
31.22262987653952
 20
13.32742710809708
 10
30.7251488357265
 20
13.5761676285036
 10
29.93747052110587
 20
14.06443605744977
 10
29.43077686842594
 20
14.38687747279155
 10
28.92408321574601
 20
14.70931888813342
 10
28.62467333007151
 20
15.100854892477
 10
27.95675896972068
 20
15.67664313415887
 10
27.47309684670803
 20
15.9530214901661
 10
26.82821401602446
 20
16.36758902417695
 10
26.50577260068269
 20
16.22939984617334
 97
        0
 75
     0
 76
     1
 98
        0
  0
LINE
  5
A0
330
1F
100
AcDbEntity
  8
Doc_ Finishes
  6
Continuous
100
AcDbLine
 10
26.30309303697875
 20
15.62136850904799
 30
0.0
 11
26.06817515735641
 21
15.74573809992132
 31
0.0
  0
LINE
  5
A1
330
1F
100
AcDbEntity
  8
Doc_ Finishes
  6
Continuous
100
AcDbLine
 10
26.4412839299764
 20
15.40026308025177
 30
0.0
 11
26.30309303697875
 21
15.62136850904799
 31
0.0
  0
LINE
  5
A2
330
1F
100
AcDbEntity
  8
Doc_ Finishes
  6
Continuous
100
AcDbLine
 10
26.9387667191188
 20
15.17916207710464
 30
0.0
 11
26.4412839299764
 21
15.40026308025177
 31
0.0
  0
LINE
  5
A3
330
1F
100
AcDbEntity
  8
Doc_ Finishes
  6
Continuous
100
AcDbLine
 10
27.82317515735641
 20
14.40530192761605
 30
0.0
 11
26.9387667191188
 21
15.17916207710464
 31
0.0
  0
LINE
  5
A4
330
1F
100
AcDbEntity
  8
Doc_ Finishes
  6
Continuous
100
AcDbLine
 10
28.92868902439024
 20
13.74199449252557
 30
0.0
 11
27.82317515735641
 21
14.40530192761605
 31
0.0
  0
LINE
  5
A5
330
1F
100
AcDbEntity
  8
Doc_ Finishes
  6
Continuous
100
AcDbLine
 10
29.59199645948072
 20
13.3827025963808
 30
0.0
 11
28.92868902439024
 21
13.74199449252557
 31
0.0
  0
LINE
  5
A6
330
1F
100
AcDbEntity
  8
Doc_ Finishes
  6
Continuous
100
AcDbLine
 10
30.20003196302124
 20
13.07868705743509
 30
0.0
 11
29.59199645948072
 21
13.3827025963808
 31
0.0
  0
LINE
  5
A7
330
1F
100
AcDbEntity
  8
Doc_ Finishes
  6
Continuous
100
AcDbLine
 10
31.55428501180173
 20
12.08372590479937
 30
0.0
 11
30.20003196302124
 21
13.07868705743509
 31
0.0
  0
LINE
  5
A8
330
1F
100
AcDbEntity
  8
Doc_ Finishes
  6
Continuous
100
AcDbLine
 10
32.07940155389457
 20
11.69679583005508
 30
0.0
 11
31.55428501180173
 21
12.08372590479937
 31
0.0
  0
LINE
  5
A9
330
1F
100
AcDbEntity
  8
Doc_ Finishes
  6
Continuous
100
AcDbLine
 10
32.88089988198269
 20
11.08876032651456
 30
0.0
 11
32.07940155389457
 21
11.69679583005508
 31
0.0
  0
LINE
  5
AA
330
1F
100
AcDbEntity
  8
Doc_ Finishes
  6
Continuous
100
AcDbLine
 10
33.59948367427223
 20
10.50836742722266
 30
0.0
 11
32.88089988198269
 21
11.08876032651456
 31
0.0
  0
LINE
  5
AB
330
1F
100
AcDbEntity
  8
Doc_ Finishes
  6
Continuous
100
AcDbLine
 10
34.56680664830842
 20
9.817421813532652
 30
0.0
 11
33.59948367427223
 21
10.50836742722266
 31
0.0
  0
LINE
  5
AC
330
1F
100
AcDbEntity
  8
Doc_ Finishes
  6
Continuous
100
AcDbLine
 10
35.06428943745082
 20
9.458129917387884
 30
0.0
 11
34.56680664830842
 21
9.817421813532652
 31
0.0
  0
LINE
  5
AD
330
1F
100
AcDbEntity
  8
Doc_ Finishes
  6
Continuous
100
AcDbLine
 10
35.81051140833988
 20
8.933013375295044
 30
0.0
 11
35.06428943745082
 21
9.458129917387884
 31
0.0
  0
LINE
  5
AE
330
1F
100
AcDbEntity
  8
Doc_ Finishes
  6
Continuous
100
AcDbLine
 10
36.61200973642801
 20
8.407892407553108
 30
0.0
 11
35.81051140833988
 21
8.933013375295044
 31
0.0
  0
LINE
  5
AF
330
1F
100
AcDbEntity
  8
Doc_ Finishes
  6
Continuous
100
AcDbLine
 10
36.77783438237608
 20
8.18679140440598
 30
0.0
 11
36.61200973642801
 21
8.407892407553108
 31
0.0
  0
LINE
  5
B0
330
1F
100
AcDbEntity
  8
Doc_ Finishes
  6
Continuous
100
AcDbLine
 10
37.38586546026751
 20
7.744584972462627
 30
0.0
 11
36.77783438237608
 21
8.18679140440598
 31
0.0
  0
LINE
  5
B1
330
1F
100
AcDbEntity
  8
Doc_ Finishes
  6
Continuous
100
AcDbLine
 10
38.18736378835562
 20
6.915448465774981
 30
0.0
 11
37.38586546026751
 21
7.744584972462627
 31
0.0
  0
LINE
  5
B2
330
1F
100
AcDbEntity
  8
Doc_ Finishes
  6
Continuous
100
AcDbLine
 10
38.79539486624704
 20
6.4456038552321
 30
0.0
 11
38.18736378835562
 21
6.915448465774981
 31
0.0
  0
LINE
  5
B3
330
1F
100
AcDbEntity
  8
Doc_ Finishes
  6
Continuous
100
AcDbLine
 10
39.56925501573564
 20
6.169226494885916
 30
0.0
 11
38.79539486624704
 21
6.4456038552321
 31
0.0
  0
LINE
  5
B4
330
1F
100
AcDbEntity
  8
Doc_ Finishes
  6
Continuous
100
AcDbLine
 10
40.23256245082612
 20
6.086316384736428
 30
0.0
 11
39.56925501573564
 21
6.169226494885916
 31
0.0
  0
LINE
  5
B5
330
1F
100
AcDbEntity
  8
Doc_ Finishes
  6
Continuous
100
AcDbLine
 10
40.48130605822187
 20
6.307417387883556
 30
0.0
 11
40.23256245082612
 21
6.086316384736428
 31
0.0
  0
LINE
  5
B6
330
1F
100
AcDbEntity
  8
Doc_ Finishes
  6
Continuous
100
AcDbLine
 10
40.14965234067663
 20
6.611432926829268
 30
0.0
 11
40.48130605822187
 21
6.307417387883556
 31
0.0
  0
LINE
  5
B7
330
1F
100
AcDbEntity
  8
Doc_ Finishes
  6
Continuous
100
AcDbLine
 10
39.48634490558615
 20
6.998363001573564
 30
0.0
 11
40.14965234067663
 21
6.611432926829268
 31
0.0
  0
LINE
  5
B8
330
1F
100
AcDbEntity
  8
Doc_ Finishes
  6
Continuous
100
AcDbLine
 10
38.76776111329661
 20
7.357654897718332
 30
0.0
 11
39.48634490558615
 21
6.998363001573564
 31
0.0
  0
LINE
  5
B9
330
1F
100
AcDbEntity
  8
Doc_ Finishes
  6
Continuous
100
AcDbLine
 10
38.18736378835562
 20
8.048600511408338
 30
0.0
 11
38.76776111329661
 21
7.357654897718332
 31
0.0
  0
LINE
  5
BA
330
1F
100
AcDbEntity
  8
Doc_ Finishes
  6
Continuous
100
AcDbLine
 10
36.9989353855232
 20
8.822460660896931
 30
0.0
 11
38.18736378835562
 21
8.048600511408338
 31
0.0
  0
LINE
  5
BB
330
1F
100
AcDbEntity
  8
Doc_ Finishes
  6
Continuous
100
AcDbLine
 10
36.47381884343037
 20
9.319939024390242
 30
0.0
 11
36.9989353855232
 21
8.822460660896931
 31
0.0
  0
LINE
  5
BC
330
1F
100
AcDbEntity
  8
Doc_ Finishes
  6
Continuous
100
AcDbLine
 10
36.22507966168371
 20
9.734507277734066
 30
0.0
 11
36.47381884343037
 21
9.319939024390242
 31
0.0
  0
LINE
  5
BD
330
1F
100
AcDbEntity
  8
Doc_ Finishes
  6
Continuous
100
AcDbLine
 10
35.17484215184894
 20
10.31490460267506
 30
0.0
 11
36.22507966168371
 21
9.734507277734066
 31
0.0
  0
LINE
  5
BE
330
1F
100
AcDbEntity
  8
Doc_ Finishes
  6
Continuous
100
AcDbLine
 10
34.73263571990559
 20
10.78474478756884
 30
0.0
 11
35.17484215184894
 21
10.31490460267506
 31
0.0
  0
LINE
  5
BF
330
1F
100
AcDbEntity
  8
Doc_ Finishes
  6
Continuous
100
AcDbLine
 10
34.23515293076317
 20
11.17167486231314
 30
0.0
 11
34.73263571990559
 21
10.78474478756884
 31
0.0
  0
LINE
  5
C0
330
1F
100
AcDbEntity
  8
Doc_ Finishes
  6
Continuous
100
AcDbLine
 10
33.48893095987412
 20
11.61388129425649
 30
0.0
 11
34.23515293076317
 21
11.17167486231314
 31
0.0
  0
LINE
  5
C1
330
1F
100
AcDbEntity
  8
Doc_ Finishes
  6
Continuous
100
AcDbLine
 10
32.85326170338316
 20
12.16663601494886
 30
0.0
 11
33.48893095987412
 21
11.61388129425649
 31
0.0
  0
LINE
  5
C2
330
1F
100
AcDbEntity
  8
Doc_ Finishes
  6
Continuous
100
AcDbLine
 10
32.35578333988985
 20
12.58120426829268
 30
0.0
 11
32.85326170338316
 21
12.16663601494886
 31
0.0
  0
LINE
  5
C3
330
1F
100
AcDbEntity
  8
Doc_ Finishes
  6
Continuous
100
AcDbLine
 10
31.69247147915027
 20
12.99577252163651
 30
0.0
 11
32.35578333988985
 21
12.58120426829268
 31
0.0
  0
LINE
  5
C4
330
1F
100
AcDbEntity
  8
Doc_ Finishes
  6
Continuous
100
AcDbLine
 10
31.22263129425649
 20
13.32742623918175
 30
0.0
 11
31.69247147915027
 21
12.99577252163651
 31
0.0
  0
LINE
  5
C5
330
1F
100
AcDbEntity
  8
Doc_ Finishes
  6
Continuous
100
AcDbLine
 10
30.72514850511408
 20
13.5761654209284
 30
0.0
 11
31.22263129425649
 21
13.32742623918175
 31
0.0
  0
LINE
  5
C6
330
1F
100
AcDbEntity
  8
Doc_ Finishes
  6
Continuous
100
AcDbLine
 10
29.93747147915028
 20
14.0644340086546
 30
0.0
 11
30.72514850511408
 21
13.5761654209284
 31
0.0
  0
LINE
  5
C7
330
1F
100
AcDbEntity
  8
Doc_ Finishes
  6
Continuous
100
AcDbLine
 10
29.43077891424075
 20
14.38687795043273
 30
0.0
 11
29.93747147915028
 21
14.0644340086546
 31
0.0
  0
LINE
  5
C8
330
1F
100
AcDbEntity
  8
Doc_ Finishes
  6
Continuous
100
AcDbLine
 10
28.92408192368214
 20
14.70931746656176
 30
0.0
 11
29.43077891424075
 21
14.38687795043273
 31
0.0
  0
LINE
  5
C9
330
1F
100
AcDbEntity
  8
Doc_ Finishes
  6
Continuous
100
AcDbLine
 10
28.62467348544453
 20
15.10085464201416
 30
0.0
 11
28.92408192368214
 21
14.70931746656176
 31
0.0
  0
LINE
  5
CA
330
1F
100
AcDbEntity
  8
Doc_ Finishes
  6
Continuous
100
AcDbLine
 10
27.95675894964595
 20
15.67664486624705
 30
0.0
 11
28.62467348544453
 21
15.10085464201416
 31
0.0
  0
LINE
  5
CB
330
1F
100
AcDbEntity
  8
Doc_ Finishes
  6
Continuous
100
AcDbLine
 10
27.47309746262785
 20
15.95302222659323
 30
0.0
 11
27.95675894964595
 21
15.67664486624705
 31
0.0
  0
LINE
  5
CC
330
1F
100
AcDbEntity
  8
Doc_ Finishes
  6
Continuous
100
AcDbLine
 10
26.82821400472069
 20
16.36759047993706
 30
0.0
 11
27.47309746262785
 21
15.95302222659323
 31
0.0
  0
LINE
  5
CD
330
1F
100
AcDbEntity
  8
Doc_ Finishes
  6
Continuous
100
AcDbLine
 10
26.50577448859166
 20
16.22939958693942
 30
0.0
 11
26.82821400472069
 21
16.36759047993706
 31
0.0
  0
LINE
  5
CE
330
1F
100
AcDbEntity
  8
Doc_ Finishes
  6
Continuous
100
AcDbLine
 10
26.06817515735641
 20
15.74573809992132
 30
0.0
 11
26.50577448859166
 21
16.22939958693942
 31
0.0
  0
LINE
  5
CF
330
1F
100
AcDbEntity
  8
Doc_ Finishes
  6
Continuous
 62
   254
370
    18
100
AcDbLine
 10
95.43333841463415
 20
5.093360051140834
 30
0.0
 11
95.43333841463415
 21
20.69901750590086
 31
0.0
  0
LINE
  5
D0
330
1F
100
AcDbEntity
  8
Doc_ Finishes
  6
Continuous
 62
   254
370
    18
100
AcDbLine
 10
5.000000983477577
 20
20.69901750590086
 30
0.0
 11
288.2406845003933
 21
20.69901750590086
 31
0.0
  0
LINE
  5
D1
330
1F
100
AcDbEntity
  8
Doc_ Finishes
  6
Continuous
 62
   254
370
    18
100
AcDbLine
 10
288.2406845003933
 20
20.69901750590086
 30
0.0
 11
288.2406845003933
 21
5.000000983477577
 31
0.0
  0
LINE
  5
D2
330
1F
100
AcDbEntity
  8
Doc_ Finishes
  6
Continuous
 62
   254
370
    18
100
AcDbLine
 10
288.2406845003933
 20
5.000000983477577
 30
0.0
 11
5.000000983477577
 21
5.000000983477577
 31
0.0
  0
LINE
  5
D3
330
1F
100
AcDbEntity
  8
Doc_ Finishes
  6
Continuous
 62
   254
370
    18
100
AcDbLine
 10
5.000000983477577
 20
20.69901750590086
 30
0.0
 11
5.000000983477577
 21
5.000000983477577
 31
0.0
  0
LINE
  5
D4
330
1F
100
AcDbEntity
  8
Doc_ Finishes
  6
Continuous
 62
   254
370
    18
100
AcDbLine
 10
188.291944826908
 20
5.093360051140834
 30
0.0
 11
188.291944826908
 21
20.69901750590086
 31
0.0
  0
LINE
  5
D5
330
1F
100
AcDbEntity
  8
Doc_ Finishes
  6
Continuous
 62
   254
370
    18
100
AcDbLine
 10
188.291944826908
 20
12.8961909913454
 30
0.0
 11
288.2406845003933
 21
12.8961909913454
 31
0.0
  0
MTEXT
  5
D7
330
1F
100
AcDbEntity
  8
0
  6
Continuous
100
AcDbMText
 10
208.3494767103412
 20
15.00228834043999
 30
0.0
 40
2.25
 41
0.0
 71
     7
 72
     1
  1
{C-TRS9-11}
  7
GENERATED_STYLE_1
 73
     1
 44
1.0
  0
MTEXT
  5
D8
330
1F
100
AcDbEntity
  8
0
  6
Continuous
100
AcDbMText
 10
208.3494767103412
 20
11.03300550383743
 30
0.0
 40
3.0
 41
0.0
 71
     1
 72
     1
  1
{PIPE PENETRATION DETAIL UPTO 500mm}
  7
GENERATED_STYLE_1
 73
     1
 44
1.0
  0
MTEXT
  5
DA
330
1F
100
AcDbEntity
  8
Doc_ Floor
  6
Continuous
100
AcDbMText
 10
27.78353726544612
 20
13.33283672870609
 30
0.0
 40
5.603347280334726
 41
0.0
 71
     1
 72
     1
  1
{The Roofing Store}
  7
GENERATED_STYLE_2
 73
     1
 44
1.0
  0
MTEXT
  5
DC
102
{ACAD_XDICTIONARY
360
38C
102
}
330
1F
100
AcDbEntity
  8
0
  6
Continuous
100
AcDbMText
 10
100.7389238446655
 20
5.628836745729685
 30
0.0
 40
1.5
 41
0.0
 71
     7
 72
     1
  1
{P: HEAD OFFICE              09 277 2717\P    ALBANY             09 972 0060\P    KATIKAIT            07 549 5190\P    WELLINGTON              04 974 5792\P    CHRISTCHURCH03 348 6528}
  7
GENERATED_STYLE_1
 73
     1
 44
1.062946161486498
  0
MTEXT
  5
DD
330
1F
100
AcDbEntity
  8
0
  6
Continuous
100
AcDbMText
 10
147.4184566143587
 20
8.449084231526156
 30
0.0
 40
1.5
 41
0.0
 71
     7
 72
     1
  1
{WEB: www.theroofingstore.co.nz}
  7
GENERATED_STYLE_1
 73
     1
 44
1.0
  0
MTEXT
  5
DE
330
1F
100
AcDbEntity
  8
0
  6
Continuous
100
AcDbMText
 10
147.4184566143587
 20
5.870946023411262
 30
0.0
 40
1.5
 41
0.0
 71
     7
 72
     1
  1
{Copyright \U+00A9 The Roofing Store 2013}
  7
GENERATED_STYLE_1
 73
     1
 44
1.0
  0
MTEXT
  5
DF
330
1F
100
AcDbEntity
  8
0
  6
Continuous
100
AcDbMText
 10
271.9546684065315
 20
15.01595667428533
 30
0.0
 40
2.25
 41
0.0
 71
     7
 72
     1
  1
{1:30}
  7
GENERATED_STYLE_1
 73
     1
 44
1.0
  0
MTEXT
  5
E0
330
1F
100
AcDbEntity
  8
0
  6
Continuous
100
AcDbMText
 10
262.8396605309016
 20
15.51746459162148
 30
0.0
 40
1.5
 41
0.0
 71
     7
 72
     1
  1
{SCALE:}
  7
GENERATED_STYLE_1
 73
     1
 44
1.0
  0
MTEXT
  5
E1
330
1F
100
AcDbEntity
  8
0
  6
Continuous
100
AcDbMText
 10
189.5066235617487
 20
15.48695559872207
 30
0.0
 40
1.5
 41
0.0
 71
     7
 72
     1
  1
{DETAIL NUMBER:}
  7
GENERATED_STYLE_1
 73
     1
 44
1.0
  0
MTEXT
  5
E2
330
1F
100
AcDbEntity
  8
0
  6
Continuous
100
AcDbMText
 10
189.5066235617487
 20
9.005462392315325
 30
0.0
 40
1.5
 41
0.0
 71
     7
 72
     1
  1
{TITLE:}
  7
GENERATED_STYLE_1
 73
     1
 44
1.0
  0
INSERT
  5
355
102
{ACAD_XDICTIONARY
360
356
102
}
330
1F
100
AcDbEntity
  8
0
  6
Continuous
100
AcDbBlockReference
  2
Drawing_1_2
 10
123.4347811420589
 20
154.9677208573375
 30
0.0
  0
HATCH
  5
359
330
1F
100
AcDbEntity
  8
Doc_ Finishes
  6
Continuous
 62
   255
370
    18
100
AcDbHatch
 10
0.0
 20
0.0
 30
0.0
210
0.0
220
0.0
230
1.0
  2
SOLID
 70
     1
 71
     0
 91
        1
 92
        3
 72
     0
 73
     1
 93
        4
 10
271.12824304483
 20
18.23636879525626
 10
277.5119489584424
 20
18.23636879525626
 10
277.5119489584424
 20
13.86152138592741
 10
271.12824304483
 20
13.86152138592741
 97
        0
 75
     0
 76
     1
 98
        0
  0
HATCH
  5
35A
330
1F
100
AcDbEntity
  8
Doc_ Finishes
  6
Continuous
100
AcDbHatch
 10
0.0
 20
0.0
 30
0.0
210
0.0
220
0.0
230
1.0
  2
Grid_600x600
 70
     0
 71
     0
 91
        1
 92
        3
 72
     0
 73
     1
 93
        4
 10
271.12824304483
 20
18.23636879525626
 10
277.5119489584424
 20
18.23636879525626
 10
277.5119489584424
 20
13.86152138592741
 10
271.12824304483
 20
13.86152138592741
 97
        0
 75
     0
 76
     2
 52
0.0
 41
1.0
 77
     0
 78
     2
 53
0.0
 43
0.0
 44
0.0
 45
0.0
 46
600.0
 79
     0
 53
90.00000000000001
 43
0.0
 44
0.0
 45
-600.0
 46
0.0
 79
     0
 98
        0
  0
WIPEOUT
  5
35B
330
1F
100
AcDbEntity
  8
Doc_ Floor
  6
Wipeout_Contour
 48
1103.199141616187
 92
      296
310
28010000060000000C0000000E000000120000000C00000016000000000000C20C00000014000000010000006C0000000700000004000000BA25DD1A0D067140A5D1C4BE7A8A32400000000000000000C4D9E7FCCA637140A5D1C4BE7A8A32400000000000000000C4D9E7FCCA637140EBEBCBB5771C2C4000000000000000
310
00BA25DD1A0D067140EBEBCBB5771C2C4000000000000000000C0000000E00000007000000840000000600000005000000BA25DD1A0D067140A5D1C4BE7A8A32400000000000000000C4D9E7FCCA637140A5D1C4BE7A8A32400000000000000000C4D9E7FCCA637140EBEBCBB5771C2C400000000000000000BA25DD1A0D06
310
7140EBEBCBB5771C2C400000000000000000BA25DD1A0D067140A5D1C4BE7A8A32400000000000000000
100
AcDbWipeout
 90
        0
 10
272.3781994474954
 20
14.05560081590916
 30
0.0
 11
5.858858148393324
 21
0.0
 31
0.0
 12
0.0
 22
4.485334627064445
 32
0.0
 13
1.0
 23
1.0
340
0
 70
    15
280
     1
281
    50
282
    50
283
     0
360
0
 71
     2
 91
        5
 14
-0.5
 24
-0.5000000000000002
 14
0.5
 24
-0.5000000000000002
 14
0.5
 24
0.4999999999999998
 14
-0.5
 24
0.4999999999999998
 14
-0.5
 24
-0.5000000000000002
  0
MTEXT
  5
35D
330
1F
100
AcDbEntity
  8
Doc_ Floor
  6
Continuous
100
AcDbMText
 10
272.3781994474954
 20
17.61093544297361
 30
0.0
 40
2.5
 41
0.0
 71
     1
 72
     1
  1
{NTS}
  7
GENERATED_STYLE_1
 73
     1
 44
1.0
  0
ENDSEC
  0
SECTION
  2
OBJECTS
  0
DICTIONARY
  5
C
330
0
100
AcDbDictionary
281
     1
  3
ACAD_GROUP
350
D
  3
ACAD_LAYOUT
350
1A
  3
ACAD_MATERIAL
350
3B
  3
ACAD_MLEADERSTYLE
350
387
  3
ACAD_MLINESTYLE
350
17
  3
ACAD_PLOTSETTINGS
350
19
  3
ACAD_PLOTSTYLENAME
350
E
  3
ACAD_SCALELIST
350
361
  3
ACAD_VISUALSTYLE
350
2A
  3
AcDbVariableDictionary
350
385
  3
WATERMARKS
350
383
  0
DICTIONARY
  5
38C
330
DC
100
AcDbDictionary
280
     1
281
     1
  3
ACAD_MTEXT_RT
360
38D
  0
DICTIONARY
  5
356
330
355
100
AcDbDictionary
280
     1
281
     1
  3
ACAD_FILTER
360
357
  0
DICTIONARY
  5
D
102
{ACAD_REACTORS
330
C
102
}
330
C
100
AcDbDictionary
281
     1
  0
DICTIONARY
  5
1A
102
{ACAD_REACTORS
330
C
102
}
330
C
100
AcDbDictionary
281
     1
  3
Layout1
350
1E
  3
Model
350
22
  0
DICTIONARY
  5
3B
102
{ACAD_REACTORS
330
C
102
}
330
C
100
AcDbDictionary
281
     1
  3
ByBlock
350
3D
  3
ByLayer
350
3C
  3
Global
350
3E
  0
DICTIONARY
  5
387
102
{ACAD_REACTORS
330
C
102
}
330
C
100
AcDbDictionary
281
     1
  0
DICTIONARY
  5
17
102
{ACAD_REACTORS
330
C
102
}
330
C
100
AcDbDictionary
281
     1
  3
Standard
350
18
  0
DICTIONARY
  5
19
102
{ACAD_REACTORS
330
C
102
}
330
C
100
AcDbDictionary
281
     1
  0
ACDBDICTIONARYWDFLT
  5
E
102
{ACAD_REACTORS
330
C
102
}
330
C
100
AcDbDictionary
281
     1
  3
Normal
350
F
100
AcDbDictionaryWithDefault
340
F
  0
DICTIONARY
  5
361
102
{ACAD_REACTORS
330
C
102
}
330
C
100
AcDbDictionary
281
     1
  3
A0
350
362
  3
A1
350
363
  3
A2
350
364
  3
A3
350
365
  3
A4
350
366
  3
A5
350
367
  3
A6
350
368
  3
A7
350
369
  3
A8
350
36A
  3
A9
350
36B
  3
B0
350
36C
  3
B1
350
36D
  3
B2
350
36E
  3
B3
350
36F
  3
B4
350
370
  3
B5
350
371
  3
B6
350
372
  3
B7
350
373
  3
B8
350
374
  3
B9
350
375
  3
C0
350
376
  3
C1
350
377
  3
C2
350
378
  3
C3
350
379
  3
C4
350
37A
  3
C5
350
37B
  3
C6
350
37C
  3
C7
350
37D
  3
C8
350
37E
  3
C9
350
37F
  3
D0
350
380
  3
D1
350
381
  3
D2
350
382
  0
DICTIONARY
  5
2A
102
{ACAD_REACTORS
330
C
102
}
330
C
100
AcDbDictionary
281
     1
  3
2dWireframe
350
2F
  3
3D Hidden
350
31
  3
3dWireframe
350
30
  3
Basic
350
32
  3
Brighten
350
36
  3
ColorChange
350
3A
  3
Conceptual
350
34
  3
Dim
350
35
  3
Facepattern
350
39
  3
Flat
350
2B
  3
FlatWithEdges
350
2C
  3
Gouraud
350
2D
  3
GouraudWithEdges
350
2E
  3
Linepattern
350
38
  3
Realistic
350
33
  3
Thicken
350
37
  0
DICTIONARY
  5
385
102
{ACAD_REACTORS
330
C
102
}
330
C
100
AcDbDictionary
281
     1
  3
CANNOSCALE
350
389
  3
DIMASSOC
350
38A
  3
HIDETEXT
350
38B
  3
XCLIPFRAME
350
388
  0
DICTIONARY
  5
383
102
{ACAD_REACTORS
330
C
102
}
330
C
100
AcDbDictionary
281
     1
  3
AC_WATERMARK
350
384
  0
XRECORD
  5
38D
102
{ACAD_REACTORS
330
38C
102
}
330
38C
100
AcDbXrecord
280
     1
 40
892718.0
  1
{P: HEAD OFFICE ^I^I09 277 2717\P    ALBANY ^I^I09 972 0060\P    KATIKAIT^I^I07 549 5190\P    WELLINGTON^I^I04 974 5792\P    CHRISTCHURCH^I03 348 6528}
  0
DICTIONARY
  5
357
102
{ACAD_REACTORS
330
356
102
}
330
356
100
AcDbDictionary
280
     1
281
     1
  3
SPATIAL
360
358
  0
LAYOUT
  5
1E
102
{ACAD_REACTORS
330
1A
102
}
330
1A
100
AcDbPlotSettings
  1

  2
none_device
  4

  6

 40
0.0
 41
0.0
 42
0.0
 43
0.0
 44
0.0
 45
0.0
 46
0.0
 47
0.0
 48
0.0
 49
0.0
140
0.0
141
0.0
142
1.0
143
1.0
 70
   688
 72
     0
 73
     0
 74
     5
  7

 75
    16
147
1.0
148
0.0
149
0.0
100
AcDbLayout
  1
Layout1
 70
     1
 71
     1
 10
0.0
 20
0.0
 11
12.0
 21
9.0
 12
0.0
 22
0.0
 32
0.0
 14
1.000000000000000E+20
 24
1.000000000000000E+20
 34
1.000000000000000E+20
 15
-1.000000000000000E+20
 25
-1.000000000000000E+20
 35
-1.000000000000000E+20
146
0.0
 13
0.0
 23
0.0
 33
0.0
 16
1.0
 26
0.0
 36
0.0
 17
0.0
 27
1.0
 37
0.0
 76
     0
330
1B
  0
LAYOUT
  5
22
102
{ACAD_REACTORS
330
1A
102
}
330
1A
100
AcDbPlotSettings
  1

  2
none_device
  4

  6

 40
0.0
 41
0.0
 42
0.0
 43
0.0
 44
0.0
 45
0.0
 46
0.0
 47
0.0
 48
0.0
 49
0.0
140
0.0
141
0.0
142
1.0
143
1.0
 70
  1712
 72
     0
 73
     0
 74
     0
  7

 75
     0
147
1.0
148
0.0
149
0.0
100
AcDbLayout
  1
Model
 70
     1
 71
     0
 10
0.0
 20
0.0
 11
12.0
 21
9.0
 12
0.0
 22
0.0
 32
0.0
 14
1.000000000000000E+20
 24
1.000000000000000E+20
 34
1.000000000000000E+20
 15
-1.000000000000000E+20
 25
-1.000000000000000E+20
 35
-1.000000000000000E+20
146
0.0
 13
0.0
 23
0.0
 33
0.0
 16
1.0
 26
0.0
 36
0.0
 17
0.0
 27
1.0
 37
0.0
 76
     0
330
1F
331
29
  0
MATERIAL
  5
3D
102
{ACAD_REACTORS
330
3B
102
}
102
{ACAD_XDICTIONARY
360
3B0
102
}
330
3B
100
AcDbMaterial
  1
ByBlock
  0
MATERIAL
  5
3C
102
{ACAD_REACTORS
330
3B
102
}
102
{ACAD_XDICTIONARY
360
3AE
102
}
330
3B
100
AcDbMaterial
  1
ByLayer
  0
MATERIAL
  5
3E
102
{ACAD_REACTORS
330
3B
102
}
102
{ACAD_XDICTIONARY
360
3B2
102
}
330
3B
100
AcDbMaterial
  1
Global
  0
MLINESTYLE
  5
18
102
{ACAD_REACTORS
330
17
102
}
330
17
100
AcDbMlineStyle
  2
Standard
 70
     0
  3

 62
   256
 51
90.0
 52
90.0
 71
     2
 49
0.5
 62
   256
  6
BYLAYER
 49
-0.5
 62
   256
  6
BYLAYER
  0
ACDBPLACEHOLDER
  5
F
102
{ACAD_REACTORS
330
E
102
}
330
E
  0
SCALE
  5
362
102
{ACAD_REACTORS
330
361
102
}
330
361
100
AcDbScale
 70
     0
300
1:1
140
1.0
141
1.0
290
     1
  0
SCALE
  5
363
102
{ACAD_REACTORS
330
361
102
}
330
361
100
AcDbScale
 70
     0
300
1:2
140
1.0
141
2.0
290
     0
  0
SCALE
  5
364
102
{ACAD_REACTORS
330
361
102
}
330
361
100
AcDbScale
 70
     0
300
1:4
140
1.0
141
4.0
290
     0
  0
SCALE
  5
365
102
{ACAD_REACTORS
330
361
102
}
330
361
100
AcDbScale
 70
     0
300
1:5
140
1.0
141
5.0
290
     0
  0
SCALE
  5
366
102
{ACAD_REACTORS
330
361
102
}
330
361
100
AcDbScale
 70
     0
300
1:8
140
1.0
141
8.0
290
     0
  0
SCALE
  5
367
102
{ACAD_REACTORS
330
361
102
}
330
361
100
AcDbScale
 70
     0
300
1:10
140
1.0
141
10.0
290
     0
  0
SCALE
  5
368
102
{ACAD_REACTORS
330
361
102
}
330
361
100
AcDbScale
 70
     0
300
1:16
140
1.0
141
16.0
290
     0
  0
SCALE
  5
369
102
{ACAD_REACTORS
330
361
102
}
330
361
100
AcDbScale
 70
     0
300
1:20
140
1.0
141
20.0
290
     0
  0
SCALE
  5
36A
102
{ACAD_REACTORS
330
361
102
}
330
361
100
AcDbScale
 70
     0
300
1:30
140
1.0
141
30.0
290
     0
  0
SCALE
  5
36B
102
{ACAD_REACTORS
330
361
102
}
330
361
100
AcDbScale
 70
     0
300
1:40
140
1.0
141
40.0
290
     0
  0
SCALE
  5
36C
102
{ACAD_REACTORS
330
361
102
}
330
361
100
AcDbScale
 70
     0
300
1:50
140
1.0
141
50.0
290
     0
  0
SCALE
  5
36D
102
{ACAD_REACTORS
330
361
102
}
330
361
100
AcDbScale
 70
     0
300
1:100
140
1.0
141
100.0
290
     0
  0
SCALE
  5
36E
102
{ACAD_REACTORS
330
361
102
}
330
361
100
AcDbScale
 70
     0
300
2:1
140
2.0
141
1.0
290
     0
  0
SCALE
  5
36F
102
{ACAD_REACTORS
330
361
102
}
330
361
100
AcDbScale
 70
     0
300
4:1
140
4.0
141
1.0
290
     0
  0
SCALE
  5
370
102
{ACAD_REACTORS
330
361
102
}
330
361
100
AcDbScale
 70
     0
300
8:1
140
8.0
141
1.0
290
     0
  0
SCALE
  5
371
102
{ACAD_REACTORS
330
361
102
}
330
361
100
AcDbScale
 70
     0
300
10:1
140
10.0
141
1.0
290
     0
  0
SCALE
  5
372
102
{ACAD_REACTORS
330
361
102
}
330
361
100
AcDbScale
 70
     0
300
100:1
140
100.0
141
1.0
290
     0
  0
SCALE
  5
373
102
{ACAD_REACTORS
330
361
102
}
330
361
100
AcDbScale
 70
     0
300
1/128" = 1'-0"
140
0.0078125
141
12.0
290
     0
  0
SCALE
  5
374
102
{ACAD_REACTORS
330
361
102
}
330
361
100
AcDbScale
 70
     0
300
1/64" = 1'-0"
140
0.015625
141
12.0
290
     0
  0
SCALE
  5
375
102
{ACAD_REACTORS
330
361
102
}
330
361
100
AcDbScale
 70
     0
300
1/32" = 1'-0"
140
0.03125
141
12.0
290
     0
  0
SCALE
  5
376
102
{ACAD_REACTORS
330
361
102
}
330
361
100
AcDbScale
 70
     0
300
1/16" = 1'-0"
140
0.0625
141
12.0
290
     0
  0
SCALE
  5
377
102
{ACAD_REACTORS
330
361
102
}
330
361
100
AcDbScale
 70
     0
300
3/32" = 1'-0"
140
0.09375
141
12.0
290
     0
  0
SCALE
  5
378
102
{ACAD_REACTORS
330
361
102
}
330
361
100
AcDbScale
 70
     0
300
1/8" = 1'-0"
140
0.125
141
12.0
290
     0
  0
SCALE
  5
379
102
{ACAD_REACTORS
330
361
102
}
330
361
100
AcDbScale
 70
     0
300
3/16" = 1'-0"
140
0.1875
141
12.0
290
     0
  0
SCALE
  5
37A
102
{ACAD_REACTORS
330
361
102
}
330
361
100
AcDbScale
 70
     0
300
1/4" = 1'-0"
140
0.25
141
12.0
290
     0
  0
SCALE
  5
37B
102
{ACAD_REACTORS
330
361
102
}
330
361
100
AcDbScale
 70
     0
300
3/8" = 1'-0"
140
0.375
141
12.0
290
     0
  0
SCALE
  5
37C
102
{ACAD_REACTORS
330
361
102
}
330
361
100
AcDbScale
 70
     0
300
1/2" = 1'-0"
140
0.5
141
12.0
290
     0
  0
SCALE
  5
37D
102
{ACAD_REACTORS
330
361
102
}
330
361
100
AcDbScale
 70
     0
300
3/4" = 1'-0"
140
0.75
141
12.0
290
     0
  0
SCALE
  5
37E
102
{ACAD_REACTORS
330
361
102
}
330
361
100
AcDbScale
 70
     0
300
1" = 1'-0"
140
1.0
141
12.0
290
     0
  0
SCALE
  5
37F
102
{ACAD_REACTORS
330
361
102
}
330
361
100
AcDbScale
 70
     0
300
1-1/2" = 1'-0"
140
1.5
141
12.0
290
     0
  0
SCALE
  5
380
102
{ACAD_REACTORS
330
361
102
}
330
361
100
AcDbScale
 70
     0
300
3" = 1'-0"
140
3.0
141
12.0
290
     0
  0
SCALE
  5
381
102
{ACAD_REACTORS
330
361
102
}
330
361
100
AcDbScale
 70
     0
300
6" = 1'-0"
140
6.0
141
12.0
290
     0
  0
SCALE
  5
382
102
{ACAD_REACTORS
330
361
102
}
330
361
100
AcDbScale
 70
     0
300
1'-0" = 1'-0"
140
12.0
141
12.0
290
     0
  0
VISUALSTYLE
  5
2F
102
{ACAD_REACTORS
330
2A
102
}
102
{ACAD_XDICTIONARY
360
396
102
}
330
2A
100
AcDbVisualStyle
  2
2dWireframe
 70
     4
 71
     0
 72
     2
 73
     0
 90
        0
 40
-0.6
 41
-30.0
 62
     5
 63
     7
 74
     1
 91
        4
 64
     7
 65
   257
 75
     1
175
     1
 42
1.0
 92
        0
 66
   257
 43
1.0
 76
     1
 77
     6
 78
     2
 67
     7
 79
     5
170
     0
171
     0
290
     0
174
     0
 93
        1
 44
0.0
173
     0
291
     0
 45
0.0
1001
ACAD
1000
AcDbSavedByObjectVersion
1070
     0
  0
VISUALSTYLE
  5
31
102
{ACAD_REACTORS
330
2A
102
}
102
{ACAD_XDICTIONARY
360
39A
102
}
330
2A
100
AcDbVisualStyle
  2
3D Hidden
 70
     6
 71
     1
 72
     2
 73
     2
 90
        0
 40
-0.6
 41
-30.0
 62
     5
 63
     7
 74
     2
 91
        2
 64
     7
 65
   257
 75
     2
175
     1
 42
40.0
 92
        0
 66
   257
 43
1.0
 76
     1
 77
     6
 78
     2
 67
     7
 79
     3
170
     0
171
     0
290
     0
174
     0
 93
        1
 44
0.0
173
     0
291
     0
 45
0.0
1001
ACAD
1000
AcDbSavedByObjectVersion
1070
     0
  0
VISUALSTYLE
  5
30
102
{ACAD_REACTORS
330
2A
102
}
102
{ACAD_XDICTIONARY
360
398
102
}
330
2A
100
AcDbVisualStyle
  2
3dWireframe
 70
     5
 71
     0
 72
     2
 73
     0
 90
        0
 40
-0.6
 41
-30.0
 62
     5
 63
     7
 74
     1
 91
        4
 64
     7
 65
   257
 75
     1
175
     1
 42
1.0
 92
        0
 66
   257
 43
1.0
 76
     1
 77
     6
 78
     2
 67
     7
 79
     5
170
     0
171
     0
290
     0
174
     0
 93
        1
 44
0.0
173
     0
291
     0
 45
0.0
1001
ACAD
1000
AcDbSavedByObjectVersion
1070
     0
  0
VISUALSTYLE
  5
32
102
{ACAD_REACTORS
330
2A
102
}
102
{ACAD_XDICTIONARY
360
39C
102
}
330
2A
100
AcDbVisualStyle
  2
Basic
 70
     7
 71
     1
 72
     0
 73
     1
 90
        0
 40
-0.6
 41
-30.0
 62
     5
 63
     7
 74
     0
 91
        4
 64
     7
 65
   257
 75
     1
175
     1
 42
1.0
 92
        8
 66
     7
 43
1.0
 76
     1
 77
     6
 78
     2
 67
     7
 79
     5
170
     0
171
     0
290
     0
174
     0
 93
        1
 44
0.0
173
     0
291
     1
 45
0.0
1001
ACAD
1000
AcDbSavedByObjectVersion
1070
     0
  0
VISUALSTYLE
  5
36
102
{ACAD_REACTORS
330
2A
102
}
102
{ACAD_XDICTIONARY
360
3A4
102
}
330
2A
100
AcDbVisualStyle
  2
Brighten
 70
    12
 71
     2
 72
     2
 73
     0
 90
        0
 40
-0.6
 41
-30.0
 62
     5
 63
     7
 74
     1
 91
        4
 64
     7
 65
   257
 75
     1
175
     1
 42
1.0
 92
        8
 66
     7
 43
1.0
 76
     1
 77
     6
 78
     2
 67
     7
 79
     5
170
     0
171
     0
290
     0
174
     0
 93
        1
 44
50.0
173
     0
291
     1
 45
0.0
1001
ACAD
1000
AcDbSavedByObjectVersion
1070
     0
  0
VISUALSTYLE
  5
3A
102
{ACAD_REACTORS
330
2A
102
}
102
{ACAD_XDICTIONARY
360
3AC
102
}
330
2A
100
AcDbVisualStyle
  2
ColorChange
 70
    16
 71
     2
 72
     2
 73
     3
 90
        0
 40
-0.6
 41
-30.0
 62
     5
 63
     8
 74
     1
 91
        4
 64
     7
 65
   257
 75
     1
175
     1
 42
1.0
 92
        8
 66
     8
 43
1.0
 76
     1
 77
     6
 78
     2
 67
     7
 79
     5
170
     0
171
     0
290
     0
174
     0
 93
        1
 44
0.0
173
     0
291
     1
 45
0.0
1001
ACAD
1000
AcDbSavedByObjectVersion
1070
     0
  0
VISUALSTYLE
  5
34
102
{ACAD_REACTORS
330
2A
102
}
102
{ACAD_XDICTIONARY
360
3A0
102
}
330
2A
100
AcDbVisualStyle
  2
Conceptual
 70
     9
 71
     3
 72
     2
 73
     0
 90
        0
 40
-0.6
 41
-30.0
 62
     5
 63
     7
 74
     2
 91
        2
 64
     7
 65
   257
 75
     1
175
     1
 42
40.0
 92
        8
 66
     7
 43
1.0
 76
     1
 77
     6
 78
     2
 67
     7
 79
     3
170
     0
171
     0
290
     0
174
     0
 93
        1
 44
0.0
173
     0
291
     0
 45
0.0
1001
ACAD
1000
AcDbSavedByObjectVersion
1070
     0
  0
VISUALSTYLE
  5
35
102
{ACAD_REACTORS
330
2A
102
}
102
{ACAD_XDICTIONARY
360
3A2
102
}
330
2A
100
AcDbVisualStyle
  2
Dim
 70
    11
 71
     2
 72
     2
 73
     0
 90
        0
 40
-0.6
 41
-30.0
 62
     5
 63
     7
 74
     1
 91
        4
 64
     7
 65
   257
 75
     1
175
     1
 42
1.0
 92
        8
 66
     7
 43
1.0
 76
     1
 77
     6
 78
     2
 67
     7
 79
     5
170
     0
171
     0
290
     0
174
     0
 93
        1
 44
-50.0
173
     0
291
     1
 45
0.0
1001
ACAD
1000
AcDbSavedByObjectVersion
1070
     0
  0
VISUALSTYLE
  5
39
102
{ACAD_REACTORS
330
2A
102
}
102
{ACAD_XDICTIONARY
360
3AA
102
}
330
2A
100
AcDbVisualStyle
  2
Facepattern
 70
    15
 71
     2
 72
     2
 73
     0
 90
        0
 40
-0.6
 41
-30.0
 62
     5
 63
     7
 74
     1
 91
        4
 64
     7
 65
   257
 75
     1
175
     1
 42
1.0
 92
        8
 66
     7
 43
1.0
 76
     1
 77
     6
 78
     2
 67
     7
 79
     5
170
     0
171
     0
290
     0
174
     0
 93
        1
 44
0.0
173
     0
291
     1
 45
0.0
1001
ACAD
1000
AcDbSavedByObjectVersion
1070
     0
  0
VISUALSTYLE
  5
2B
102
{ACAD_REACTORS
330
2A
102
}
102
{ACAD_XDICTIONARY
360
38E
102
}
330
2A
100
AcDbVisualStyle
  2
Flat
 70
     0
 71
     2
 72
     1
 73
     1
 90
        2
 40
-0.6
 41
30.0
 62
     5
 63
     7
 74
     0
 91
        4
 64
     7
 65
   257
 75
     1
175
     1
 42
1.0
 92
        8
 66
     7
 43
1.0
 76
     1
 77
     6
 78
     2
 67
     7
 79
     5
170
     0
171
     0
290
     0
174
     0
 93
       13
 44
0.0
173
     0
291
     1
 45
0.0
1001
ACAD
1000
AcDbSavedByObjectVersion
1070
     0
  0
VISUALSTYLE
  5
2C
102
{ACAD_REACTORS
330
2A
102
}
102
{ACAD_XDICTIONARY
360
390
102
}
330
2A
100
AcDbVisualStyle
  2
FlatWithEdges
 70
     1
 71
     2
 72
     1
 73
     1
 90
        2
 40
-0.6
 41
30.0
 62
     5
 63
     7
 74
     1
 91
        4
 64
     7
 65
   257
 75
     1
175
     1
 42
1.0
 92
        0
 66
   257
 43
1.0
 76
     1
 77
     6
 78
     2
 67
     7
 79
     5
170
     0
171
     0
290
     0
174
     0
 93
       13
 44
0.0
173
     0
291
     1
 45
0.0
1001
ACAD
1000
AcDbSavedByObjectVersion
1070
     0
  0
VISUALSTYLE
  5
2D
102
{ACAD_REACTORS
330
2A
102
}
102
{ACAD_XDICTIONARY
360
392
102
}
330
2A
100
AcDbVisualStyle
  2
Gouraud
 70
     2
 71
     2
 72
     2
 73
     1
 90
        2
 40
-0.6
 41
30.0
 62
     5
 63
     7
 74
     0
 91
        4
 64
     7
 65
   257
 75
     1
175
     1
 42
1.0
 92
        0
 66
     7
 43
1.0
 76
     1
 77
     6
 78
     2
 67
     7
 79
     5
170
     0
171
     0
290
     0
174
     0
 93
       13
 44
0.0
173
     0
291
     1
 45
0.0
1001
ACAD
1000
AcDbSavedByObjectVersion
1070
     0
  0
VISUALSTYLE
  5
2E
102
{ACAD_REACTORS
330
2A
102
}
102
{ACAD_XDICTIONARY
360
394
102
}
330
2A
100
AcDbVisualStyle
  2
GouraudWithEdges
 70
     3
 71
     2
 72
     2
 73
     1
 90
        2
 40
-0.6
 41
30.0
 62
     5
 63
     7
 74
     1
 91
        4
 64
     7
 65
   257
 75
     1
175
     1
 42
1.0
 92
        0
 66
   257
 43
1.0
 76
     1
 77
     6
 78
     2
 67
     7
 79
     5
170
     0
171
     0
290
     0
174
     0
 93
       13
 44
0.0
173
     0
291
     1
 45
0.0
1001
ACAD
1000
AcDbSavedByObjectVersion
1070
     0
  0
VISUALSTYLE
  5
38
102
{ACAD_REACTORS
330
2A
102
}
102
{ACAD_XDICTIONARY
360
3A8
102
}
330
2A
100
AcDbVisualStyle
  2
Linepattern
 70
    14
 71
     2
 72
     2
 73
     0
 90
        0
 40
-0.6
 41
-30.0
 62
     5
 63
     7
 74
     1
 91
        4
 64
     7
 65
   257
 75
     7
175
     7
 42
1.0
 92
        8
 66
     7
 43
1.0
 76
     1
 77
     6
 78
     2
 67
     7
 79
     5
170
     0
171
     0
290
     0
174
     0
 93
        1
 44
0.0
173
     0
291
     1
 45
0.0
1001
ACAD
1000
AcDbSavedByObjectVersion
1070
     0
  0
VISUALSTYLE
  5
33
102
{ACAD_REACTORS
330
2A
102
}
102
{ACAD_XDICTIONARY
360
39E
102
}
330
2A
100
AcDbVisualStyle
  2
Realistic
 70
     8
 71
     2
 72
     2
 73
     0
 90
        0
 40
-0.6
 41
-30.0
 62
     5
 63
     7
 74
     1
 91
        0
 64
     7
 65
   257
 75
     1
175
     1
 42
1.0
 92
        8
 66
     8
 43
1.0
 76
     1
 77
     6
 78
     2
 67
     7
 79
     5
170
     0
171
     0
290
     0
174
     0
 93
       13
 44
0.0
173
     0
291
     0
 45
0.0
1001
ACAD
1000
AcDbSavedByObjectVersion
1070
     0
  0
VISUALSTYLE
  5
37
102
{ACAD_REACTORS
330
2A
102
}
102
{ACAD_XDICTIONARY
360
3A6
102
}
330
2A
100
AcDbVisualStyle
  2
Thicken
 70
    13
 71
     2
 72
     2
 73
     0
 90
        0
 40
-0.6
 41
-30.0
 62
     5
 63
     7
 74
     1
 91
        4
 64
     7
 65
   257
 75
     1
175
     1
 42
1.0
 92
       12
 66
     7
 43
1.0
 76
     1
 77
     6
 78
     2
 67
     7
 79
     5
170
     0
171
     0
290
     0
174
     0
 93
        1
 44
0.0
173
     0
291
     1
 45
0.0
1001
ACAD
1000
AcDbSavedByObjectVersion
1070
     0
  0
DICTIONARYVAR
  5
389
102
{ACAD_REACTORS
330
385
102
}
330
385
100
DictionaryVariables
280
     0
  1
1:1
  0
DICTIONARYVAR
  5
38A
102
{ACAD_REACTORS
330
385
102
}
330
385
100
DictionaryVariables
280
     0
  1
2
  0
DICTIONARYVAR
  5
38B
102
{ACAD_REACTORS
330
385
102
}
330
385
100
DictionaryVariables
280
     0
  1
1
  0
DICTIONARYVAR
  5
388
102
{ACAD_REACTORS
330
385
102
}
330
385
100
DictionaryVariables
280
     0
  1
0
  0
XRECORD
  5
384
102
{ACAD_REACTORS
330
383
102
}
330
383
100
AcDbXrecord
280
     1
1000
This DWG file was created in ArchiCAD(TM)®
  0
SPATIAL_FILTER
  5
358
102
{ACAD_REACTORS
330
357
102
}
330
357
100
AcDbFilter
100
AcDbSpatialFilter
 70
     4
 10
23.23893264434758
 20
56.3039835027669
 10
299.4801274692464
 20
56.3039835027669
 10
299.4801274692464
 20
193.0320725287868
 10
23.23893264434758
 20
193.0320725287868
210
0.0
220
0.0
230
1.0
 11
0.0
 21
0.0
 31
0.0
 71
     1
 72
     0
 73
     0
 40
1.0
 40
0.0
 40
0.0
 40
0.0
 40
0.0
 40
1.0
 40
0.0
 40
0.0
 40
0.0
 40
0.0
 40
1.0
 40
0.0
 40
1.0
 40
0.0
 40
0.0
 40
0.0
 40
0.0
 40
1.0
 40
0.0
 40
0.0
 40
0.0
 40
0.0
 40
1.0
 40
0.0
  0
DICTIONARY
  5
3B0
330
3D
100
AcDbDictionary
280
     1
281
     1
  3
ACAD_XREC_ROUNDTRIP
360
3B1
  0
DICTIONARY
  5
3AE
330
3C
100
AcDbDictionary
280
     1
281
     1
  3
ACAD_XREC_ROUNDTRIP
360
3AF
  0
DICTIONARY
  5
3B2
330
3E
100
AcDbDictionary
280
     1
281
     1
  3
ACAD_XREC_ROUNDTRIP
360
3B3
  0
DICTIONARY
  5
396
330
2F
100
AcDbDictionary
280
     1
281
     1
  3
ACAD_XREC_ROUNDTRIP
360
397
  0
DICTIONARY
  5
39A
330
31
100
AcDbDictionary
280
     1
281
     1
  3
ACAD_XREC_ROUNDTRIP
360
39B
  0
DICTIONARY
  5
398
330
30
100
AcDbDictionary
280
     1
281
     1
  3
ACAD_XREC_ROUNDTRIP
360
399
  0
DICTIONARY
  5
39C
330
32
100
AcDbDictionary
280
     1
281
     1
  3
ACAD_XREC_ROUNDTRIP
360
39D
  0
DICTIONARY
  5
3A4
330
36
100
AcDbDictionary
280
     1
281
     1
  3
ACAD_XREC_ROUNDTRIP
360
3A5
  0
DICTIONARY
  5
3AC
330
3A
100
AcDbDictionary
280
     1
281
     1
  3
ACAD_XREC_ROUNDTRIP
360
3AD
  0
DICTIONARY
  5
3A0
330
34
100
AcDbDictionary
280
     1
281
     1
  3
ACAD_XREC_ROUNDTRIP
360
3A1
  0
DICTIONARY
  5
3A2
330
35
100
AcDbDictionary
280
     1
281
     1
  3
ACAD_XREC_ROUNDTRIP
360
3A3
  0
DICTIONARY
  5
3AA
330
39
100
AcDbDictionary
280
     1
281
     1
  3
ACAD_XREC_ROUNDTRIP
360
3AB
  0
DICTIONARY
  5
38E
330
2B
100
AcDbDictionary
280
     1
281
     1
  3
ACAD_XREC_ROUNDTRIP
360
38F
  0
DICTIONARY
  5
390
330
2C
100
AcDbDictionary
280
     1
281
     1
  3
ACAD_XREC_ROUNDTRIP
360
391
  0
DICTIONARY
  5
392
330
2D
100
AcDbDictionary
280
     1
281
     1
  3
ACAD_XREC_ROUNDTRIP
360
393
  0
DICTIONARY
  5
394
330
2E
100
AcDbDictionary
280
     1
281
     1
  3
ACAD_XREC_ROUNDTRIP
360
395
  0
DICTIONARY
  5
3A8
330
38
100
AcDbDictionary
280
     1
281
     1
  3
ACAD_XREC_ROUNDTRIP
360
3A9
  0
DICTIONARY
  5
39E
330
33
100
AcDbDictionary
280
     1
281
     1
  3
ACAD_XREC_ROUNDTRIP
360
39F
  0
DICTIONARY
  5
3A6
330
37
100
AcDbDictionary
280
     1
281
     1
  3
ACAD_XREC_ROUNDTRIP
360
3A7
  0
XRECORD
  5
3B1
102
{ACAD_REACTORS
330
3B0
102
}
330
3B0
100
AcDbXrecord
280
     1
102
MATERIAL
148
0.0
149
0.0
149
0.0
 93
        0
 94
      127
282
     0
 72
     1
 77
     1
171
     1
175
     1
179
     1
273
     0
  0
XRECORD
  5
3AF
102
{ACAD_REACTORS
330
3AE
102
}
330
3AE
100
AcDbXrecord
280
     1
102
MATERIAL
148
0.0
149
0.0
149
0.0
 93
        0
 94
      127
282
     0
 72
     1
 77
     1
171
     1
175
     1
179
     1
273
     0
  0
XRECORD
  5
3B3
102
{ACAD_REACTORS
330
3B2
102
}
330
3B2
100
AcDbXrecord
280
     1
102
MATERIAL
148
0.0
149
0.0
149
0.0
 93
        0
 94
      127
282
     0
 72
     1
 77
     1
171
     1
175
     1
179
     1
273
     0
  0
XRECORD
  5
397
102
{ACAD_REACTORS
330
396
102
}
330
396
100
AcDbXrecord
280
     1
102
RTVSPropertyOp0
 70
     1
102
RTVSPropertyOp1
 70
     1
102
RTVSPropertyOp2
 70
     1
102
RTVSPropertyOp3
 70
     1
102
RTVSPropertyOp4
 70
     1
102
RTVSPropertyOp5
 70
     1
102
RTVSPropertyOp6
 70
     1
102
RTVSPropertyOp7
 70
     1
102
RTVSPropertyOp8
 70
     1
102
RTVSPropertyOp9
 70
     1
102
RTVSPropertyOp10
 70
     1
102
RTVSPropertyOp11
 70
     1
102
RTVSPropertyOp12
 70
     1
102
RTVSPropertyOp13
 70
     1
102
RTVSPropertyOp14
 70
     1
102
RTVSPropertyOp15
 70
     1
102
RTVSPropertyOp16
 70
     1
102
RTVSPropertyOp17
 70
     1
102
RTVSPropertyOp18
 70
     1
102
RTVSPropertyOp19
 70
     1
102
RTVSPropertyOp20
 70
     1
102
RTVSPropertyOp21
 70
     1
102
RTVSPropertyOp22
 70
     1
102
RTVSPropertyOp23
 70
     1
102
RTVSPropertyOp24
 70
     1
102
RTVSPropertyOp25
 70
     1
102
RTVSPropertyOp26
 70
     1
102
RTVSPropertyOp27
 70
     1
102
RTVSPropertyOp28
 70
     1
102
RTVSPropertyOp29
 70
     1
102
RTVSPropertyOp30
 70
     1
102
RTVSPropertyOp31
 70
     1
102
RTVSPropertyOp32
 70
     1
  0
XRECORD
  5
39B
102
{ACAD_REACTORS
330
39A
102
}
330
39A
100
AcDbXrecord
280
     1
102
RTVSPropertyOp0
 70
     1
102
RTVSPropertyOp1
 70
     1
102
RTVSPropertyOp2
 70
     1
102
RTVSPropertyOp3
 70
     1
102
RTVSPropertyOp4
 70
     1
102
RTVSPropertyOp5
 70
     1
102
RTVSPropertyOp6
 70
     1
102
RTVSPropertyOp7
 70
     1
102
RTVSPropertyOp8
 70
     1
102
RTVSPropertyOp9
 70
     1
102
RTVSPropertyOp10
 70
     1
102
RTVSPropertyOp11
 70
     1
102
RTVSPropertyOp12
 70
     1
102
RTVSPropertyOp13
 70
     1
102
RTVSPropertyOp14
 70
     1
102
RTVSPropertyOp15
 70
     1
102
RTVSPropertyOp16
 70
     1
102
RTVSPropertyOp17
 70
     1
102
RTVSPropertyOp18
 70
     1
102
RTVSPropertyOp19
 70
     1
102
RTVSPropertyOp20
 70
     1
102
RTVSPropertyOp21
 70
     1
102
RTVSPropertyOp22
 70
     1
102
RTVSPropertyOp23
 70
     1
102
RTVSPropertyOp24
 70
     1
102
RTVSPropertyOp25
 70
     1
102
RTVSPropertyOp26
 70
     1
102
RTVSPropertyOp27
 70
     1
102
RTVSPropertyOp28
 70
     1
102
RTVSPropertyOp29
 70
     1
102
RTVSPropertyOp30
 70
     1
102
RTVSPropertyOp31
 70
     1
102
RTVSPropertyOp32
 70
     1
  0
XRECORD
  5
399
102
{ACAD_REACTORS
330
398
102
}
330
398
100
AcDbXrecord
280
     1
102
RTVSPropertyOp0
 70
     1
102
RTVSPropertyOp1
 70
     1
102
RTVSPropertyOp2
 70
     1
102
RTVSPropertyOp3
 70
     1
102
RTVSPropertyOp4
 70
     1
102
RTVSPropertyOp5
 70
     1
102
RTVSPropertyOp6
 70
     1
102
RTVSPropertyOp7
 70
     1
102
RTVSPropertyOp8
 70
     1
102
RTVSPropertyOp9
 70
     1
102
RTVSPropertyOp10
 70
     1
102
RTVSPropertyOp11
 70
     1
102
RTVSPropertyOp12
 70
     1
102
RTVSPropertyOp13
 70
     1
102
RTVSPropertyOp14
 70
     1
102
RTVSPropertyOp15
 70
     1
102
RTVSPropertyOp16
 70
     1
102
RTVSPropertyOp17
 70
     1
102
RTVSPropertyOp18
 70
     1
102
RTVSPropertyOp19
 70
     1
102
RTVSPropertyOp20
 70
     1
102
RTVSPropertyOp21
 70
     1
102
RTVSPropertyOp22
 70
     1
102
RTVSPropertyOp23
 70
     1
102
RTVSPropertyOp24
 70
     1
102
RTVSPropertyOp25
 70
     1
102
RTVSPropertyOp26
 70
     1
102
RTVSPropertyOp27
 70
     1
102
RTVSPropertyOp28
 70
     1
102
RTVSPropertyOp29
 70
     1
102
RTVSPropertyOp30
 70
     1
102
RTVSPropertyOp31
 70
     1
102
RTVSPropertyOp32
 70
     1
  0
XRECORD
  5
39D
102
{ACAD_REACTORS
330
39C
102
}
330
39C
100
AcDbXrecord
280
     1
102
RTVSPropertyOp0
 70
     1
102
RTVSPropertyOp1
 70
     1
102
RTVSPropertyOp2
 70
     1
102
RTVSPropertyOp3
 70
     1
102
RTVSPropertyOp4
 70
     1
102
RTVSPropertyOp5
 70
     1
102
RTVSPropertyOp6
 70
     1
102
RTVSPropertyOp7
 70
     1
102
RTVSPropertyOp8
 70
     1
102
RTVSPropertyOp9
 70
     1
102
RTVSPropertyOp10
 70
     1
102
RTVSPropertyOp11
 70
     1
102
RTVSPropertyOp12
 70
     1
102
RTVSPropertyOp13
 70
     1
102
RTVSPropertyOp14
 70
     1
102
RTVSPropertyOp15
 70
     1
102
RTVSPropertyOp16
 70
     1
102
RTVSPropertyOp17
 70
     1
102
RTVSPropertyOp18
 70
     1
102
RTVSPropertyOp19
 70
     1
102
RTVSPropertyOp20
 70
     1
102
RTVSPropertyOp21
 70
     1
102
RTVSPropertyOp22
 70
     1
102
RTVSPropertyOp23
 70
     1
102
RTVSPropertyOp24
 70
     1
102
RTVSPropertyOp25
 70
     1
102
RTVSPropertyOp26
 70
     1
102
RTVSPropertyOp27
 70
     1
102
RTVSPropertyOp28
 70
     1
102
RTVSPropertyOp29
 70
     1
102
RTVSPropertyOp30
 70
     1
102
RTVSPropertyOp31
 70
     1
102
RTVSPropertyOp32
 70
     1
  0
XRECORD
  5
3A5
102
{ACAD_REACTORS
330
3A4
102
}
330
3A4
100
AcDbXrecord
280
     1
102
RTVSPropertyOp0
 70
     1
102
RTVSPropertyOp1
 70
     1
102
RTVSPropertyOp2
 70
     1
102
RTVSPropertyOp3
 70
     1
102
RTVSPropertyOp4
 70
     1
102
RTVSPropertyOp5
 70
     1
102
RTVSPropertyOp6
 70
     1
102
RTVSPropertyOp7
 70
     1
102
RTVSPropertyOp8
 70
     1
102
RTVSPropertyOp9
 70
     1
102
RTVSPropertyOp10
 70
     1
102
RTVSPropertyOp11
 70
     1
102
RTVSPropertyOp12
 70
     1
102
RTVSPropertyOp13
 70
     1
102
RTVSPropertyOp14
 70
     1
102
RTVSPropertyOp15
 70
     1
102
RTVSPropertyOp16
 70
     1
102
RTVSPropertyOp17
 70
     1
102
RTVSPropertyOp18
 70
     1
102
RTVSPropertyOp19
 70
     1
102
RTVSPropertyOp20
 70
     1
102
RTVSPropertyOp21
 70
     1
102
RTVSPropertyOp22
 70
     1
102
RTVSPropertyOp23
 70
     1
102
RTVSPropertyOp24
 70
     1
102
RTVSPropertyOp25
 70
     1
102
RTVSPropertyOp26
 70
     1
102
RTVSPropertyOp27
 70
     1
102
RTVSPropertyOp28
 70
     1
102
RTVSPropertyOp29
 70
     1
102
RTVSPropertyOp30
 70
     1
102
RTVSPropertyOp31
 70
     1
102
RTVSPropertyOp32
 70
     1
  0
XRECORD
  5
3AD
102
{ACAD_REACTORS
330
3AC
102
}
330
3AC
100
AcDbXrecord
280
     1
102
RTVSPropertyOp0
 70
     1
102
RTVSPropertyOp1
 70
     1
102
RTVSPropertyOp2
 70
     1
102
RTVSPropertyOp3
 70
     1
102
RTVSPropertyOp4
 70
     1
102
RTVSPropertyOp5
 70
     1
102
RTVSPropertyOp6
 70
     1
102
RTVSPropertyOp7
 70
     1
102
RTVSPropertyOp8
 70
     1
102
RTVSPropertyOp9
 70
     1
102
RTVSPropertyOp10
 70
     1
102
RTVSPropertyOp11
 70
     1
102
RTVSPropertyOp12
 70
     1
102
RTVSPropertyOp13
 70
     1
102
RTVSPropertyOp14
 70
     1
102
RTVSPropertyOp15
 70
     1
102
RTVSPropertyOp16
 70
     1
102
RTVSPropertyOp17
 70
     1
102
RTVSPropertyOp18
 70
     1
102
RTVSPropertyOp19
 70
     1
102
RTVSPropertyOp20
 70
     1
102
RTVSPropertyOp21
 70
     1
102
RTVSPropertyOp22
 70
     1
102
RTVSPropertyOp23
 70
     1
102
RTVSPropertyOp24
 70
     1
102
RTVSPropertyOp25
 70
     1
102
RTVSPropertyOp26
 70
     1
102
RTVSPropertyOp27
 70
     1
102
RTVSPropertyOp28
 70
     1
102
RTVSPropertyOp29
 70
     1
102
RTVSPropertyOp30
 70
     1
102
RTVSPropertyOp31
 70
     1
102
RTVSPropertyOp32
 70
     1
  0
XRECORD
  5
3A1
102
{ACAD_REACTORS
330
3A0
102
}
330
3A0
100
AcDbXrecord
280
     1
102
RTVSPropertyOp0
 70
     1
102
RTVSPropertyOp1
 70
     1
102
RTVSPropertyOp2
 70
     1
102
RTVSPropertyOp3
 70
     1
102
RTVSPropertyOp4
 70
     1
102
RTVSPropertyOp5
 70
     1
102
RTVSPropertyOp6
 70
     1
102
RTVSPropertyOp7
 70
     1
102
RTVSPropertyOp8
 70
     1
102
RTVSPropertyOp9
 70
     1
102
RTVSPropertyOp10
 70
     1
102
RTVSPropertyOp11
 70
     1
102
RTVSPropertyOp12
 70
     1
102
RTVSPropertyOp13
 70
     1
102
RTVSPropertyOp14
 70
     1
102
RTVSPropertyOp15
 70
     1
102
RTVSPropertyOp16
 70
     1
102
RTVSPropertyOp17
 70
     1
102
RTVSPropertyOp18
 70
     1
102
RTVSPropertyOp19
 70
     1
102
RTVSPropertyOp20
 70
     1
102
RTVSPropertyOp21
 70
     1
102
RTVSPropertyOp22
 70
     1
102
RTVSPropertyOp23
 70
     1
102
RTVSPropertyOp24
 70
     1
102
RTVSPropertyOp25
 70
     1
102
RTVSPropertyOp26
 70
     1
102
RTVSPropertyOp27
 70
     1
102
RTVSPropertyOp28
 70
     1
102
RTVSPropertyOp29
 70
     1
102
RTVSPropertyOp30
 70
     1
102
RTVSPropertyOp31
 70
     1
102
RTVSPropertyOp32
 70
     1
  0
XRECORD
  5
3A3
102
{ACAD_REACTORS
330
3A2
102
}
330
3A2
100
AcDbXrecord
280
     1
102
RTVSPropertyOp0
 70
     1
102
RTVSPropertyOp1
 70
     1
102
RTVSPropertyOp2
 70
     1
102
RTVSPropertyOp3
 70
     1
102
RTVSPropertyOp4
 70
     1
102
RTVSPropertyOp5
 70
     1
102
RTVSPropertyOp6
 70
     1
102
RTVSPropertyOp7
 70
     1
102
RTVSPropertyOp8
 70
     1
102
RTVSPropertyOp9
 70
     1
102
RTVSPropertyOp10
 70
     1
102
RTVSPropertyOp11
 70
     1
102
RTVSPropertyOp12
 70
     1
102
RTVSPropertyOp13
 70
     1
102
RTVSPropertyOp14
 70
     1
102
RTVSPropertyOp15
 70
     1
102
RTVSPropertyOp16
 70
     1
102
RTVSPropertyOp17
 70
     1
102
RTVSPropertyOp18
 70
     1
102
RTVSPropertyOp19
 70
     1
102
RTVSPropertyOp20
 70
     1
102
RTVSPropertyOp21
 70
     1
102
RTVSPropertyOp22
 70
     1
102
RTVSPropertyOp23
 70
     1
102
RTVSPropertyOp24
 70
     1
102
RTVSPropertyOp25
 70
     1
102
RTVSPropertyOp26
 70
     1
102
RTVSPropertyOp27
 70
     1
102
RTVSPropertyOp28
 70
     1
102
RTVSPropertyOp29
 70
     1
102
RTVSPropertyOp30
 70
     1
102
RTVSPropertyOp31
 70
     1
102
RTVSPropertyOp32
 70
     1
  0
XRECORD
  5
3AB
102
{ACAD_REACTORS
330
3AA
102
}
330
3AA
100
AcDbXrecord
280
     1
102
RTVSPropertyOp0
 70
     1
102
RTVSPropertyOp1
 70
     1
102
RTVSPropertyOp2
 70
     1
102
RTVSPropertyOp3
 70
     1
102
RTVSPropertyOp4
 70
     1
102
RTVSPropertyOp5
 70
     1
102
RTVSPropertyOp6
 70
     1
102
RTVSPropertyOp7
 70
     1
102
RTVSPropertyOp8
 70
     1
102
RTVSPropertyOp9
 70
     1
102
RTVSPropertyOp10
 70
     1
102
RTVSPropertyOp11
 70
     1
102
RTVSPropertyOp12
 70
     1
102
RTVSPropertyOp13
 70
     1
102
RTVSPropertyOp14
 70
     1
102
RTVSPropertyOp15
 70
     1
102
RTVSPropertyOp16
 70
     1
102
RTVSPropertyOp17
 70
     1
102
RTVSPropertyOp18
 70
     1
102
RTVSPropertyOp19
 70
     1
102
RTVSPropertyOp20
 70
     1
102
RTVSPropertyOp21
 70
     1
102
RTVSPropertyOp22
 70
     1
102
RTVSPropertyOp23
 70
     1
102
RTVSPropertyOp24
 70
     1
102
RTVSPropertyOp25
 70
     1
102
RTVSPropertyOp26
 70
     1
102
RTVSPropertyOp27
 70
     1
102
RTVSPropertyOp28
 70
     1
102
RTVSPropertyOp29
 70
     1
102
RTVSPropertyOp30
 70
     1
102
RTVSPropertyOp31
 70
     1
102
RTVSPropertyOp32
 70
     1
  0
XRECORD
  5
38F
102
{ACAD_REACTORS
330
38E
102
}
330
38E
100
AcDbXrecord
280
     1
102
RTVSPropertyOp0
 70
     1
102
RTVSPropertyOp1
 70
     1
102
RTVSPropertyOp2
 70
     1
102
RTVSPropertyOp3
 70
     1
102
RTVSPropertyOp4
 70
     1
102
RTVSPropertyOp5
 70
     1
102
RTVSPropertyOp6
 70
     1
102
RTVSPropertyOp7
 70
     1
102
RTVSPropertyOp8
 70
     1
102
RTVSPropertyOp9
 70
     1
102
RTVSPropertyOp10
 70
     1
102
RTVSPropertyOp11
 70
     1
102
RTVSPropertyOp12
 70
     1
102
RTVSPropertyOp13
 70
     1
102
RTVSPropertyOp14
 70
     1
102
RTVSPropertyOp15
 70
     1
102
RTVSPropertyOp16
 70
     1
102
RTVSPropertyOp17
 70
     1
102
RTVSPropertyOp18
 70
     1
102
RTVSPropertyOp19
 70
     1
102
RTVSPropertyOp20
 70
     1
102
RTVSPropertyOp21
 70
     1
102
RTVSPropertyOp22
 70
     1
102
RTVSPropertyOp23
 70
     1
102
RTVSPropertyOp24
 70
     1
102
RTVSPropertyOp25
 70
     1
102
RTVSPropertyOp26
 70
     1
102
RTVSPropertyOp27
 70
     1
102
RTVSPropertyOp28
 70
     1
102
RTVSPropertyOp29
 70
     1
102
RTVSPropertyOp30
 70
     1
102
RTVSPropertyOp31
 70
     1
102
RTVSPropertyOp32
 70
     1
  0
XRECORD
  5
391
102
{ACAD_REACTORS
330
390
102
}
330
390
100
AcDbXrecord
280
     1
102
RTVSPropertyOp0
 70
     1
102
RTVSPropertyOp1
 70
     1
102
RTVSPropertyOp2
 70
     1
102
RTVSPropertyOp3
 70
     1
102
RTVSPropertyOp4
 70
     1
102
RTVSPropertyOp5
 70
     1
102
RTVSPropertyOp6
 70
     1
102
RTVSPropertyOp7
 70
     1
102
RTVSPropertyOp8
 70
     1
102
RTVSPropertyOp9
 70
     1
102
RTVSPropertyOp10
 70
     1
102
RTVSPropertyOp11
 70
     1
102
RTVSPropertyOp12
 70
     1
102
RTVSPropertyOp13
 70
     1
102
RTVSPropertyOp14
 70
     1
102
RTVSPropertyOp15
 70
     1
102
RTVSPropertyOp16
 70
     1
102
RTVSPropertyOp17
 70
     1
102
RTVSPropertyOp18
 70
     1
102
RTVSPropertyOp19
 70
     1
102
RTVSPropertyOp20
 70
     1
102
RTVSPropertyOp21
 70
     1
102
RTVSPropertyOp22
 70
     1
102
RTVSPropertyOp23
 70
     1
102
RTVSPropertyOp24
 70
     1
102
RTVSPropertyOp25
 70
     1
102
RTVSPropertyOp26
 70
     1
102
RTVSPropertyOp27
 70
     1
102
RTVSPropertyOp28
 70
     1
102
RTVSPropertyOp29
 70
     1
102
RTVSPropertyOp30
 70
     1
102
RTVSPropertyOp31
 70
     1
102
RTVSPropertyOp32
 70
     1
  0
XRECORD
  5
393
102
{ACAD_REACTORS
330
392
102
}
330
392
100
AcDbXrecord
280
     1
102
RTVSPropertyOp0
 70
     1
102
RTVSPropertyOp1
 70
     1
102
RTVSPropertyOp2
 70
     1
102
RTVSPropertyOp3
 70
     1
102
RTVSPropertyOp4
 70
     1
102
RTVSPropertyOp5
 70
     1
102
RTVSPropertyOp6
 70
     1
102
RTVSPropertyOp7
 70
     1
102
RTVSPropertyOp8
 70
     1
102
RTVSPropertyOp9
 70
     1
102
RTVSPropertyOp10
 70
     1
102
RTVSPropertyOp11
 70
     1
102
RTVSPropertyOp12
 70
     1
102
RTVSPropertyOp13
 70
     1
102
RTVSPropertyOp14
 70
     1
102
RTVSPropertyOp15
 70
     1
102
RTVSPropertyOp16
 70
     1
102
RTVSPropertyOp17
 70
     1
102
RTVSPropertyOp18
 70
     1
102
RTVSPropertyOp19
 70
     1
102
RTVSPropertyOp20
 70
     1
102
RTVSPropertyOp21
 70
     1
102
RTVSPropertyOp22
 70
     1
102
RTVSPropertyOp23
 70
     1
102
RTVSPropertyOp24
 70
     1
102
RTVSPropertyOp25
 70
     1
102
RTVSPropertyOp26
 70
     1
102
RTVSPropertyOp27
 70
     1
102
RTVSPropertyOp28
 70
     1
102
RTVSPropertyOp29
 70
     1
102
RTVSPropertyOp30
 70
     1
102
RTVSPropertyOp31
 70
     1
102
RTVSPropertyOp32
 70
     1
  0
XRECORD
  5
395
102
{ACAD_REACTORS
330
394
102
}
330
394
100
AcDbXrecord
280
     1
102
RTVSPropertyOp0
 70
     1
102
RTVSPropertyOp1
 70
     1
102
RTVSPropertyOp2
 70
     1
102
RTVSPropertyOp3
 70
     1
102
RTVSPropertyOp4
 70
     1
102
RTVSPropertyOp5
 70
     1
102
RTVSPropertyOp6
 70
     1
102
RTVSPropertyOp7
 70
     1
102
RTVSPropertyOp8
 70
     1
102
RTVSPropertyOp9
 70
     1
102
RTVSPropertyOp10
 70
     1
102
RTVSPropertyOp11
 70
     1
102
RTVSPropertyOp12
 70
     1
102
RTVSPropertyOp13
 70
     1
102
RTVSPropertyOp14
 70
     1
102
RTVSPropertyOp15
 70
     1
102
RTVSPropertyOp16
 70
     1
102
RTVSPropertyOp17
 70
     1
102
RTVSPropertyOp18
 70
     1
102
RTVSPropertyOp19
 70
     1
102
RTVSPropertyOp20
 70
     1
102
RTVSPropertyOp21
 70
     1
102
RTVSPropertyOp22
 70
     1
102
RTVSPropertyOp23
 70
     1
102
RTVSPropertyOp24
 70
     1
102
RTVSPropertyOp25
 70
     1
102
RTVSPropertyOp26
 70
     1
102
RTVSPropertyOp27
 70
     1
102
RTVSPropertyOp28
 70
     1
102
RTVSPropertyOp29
 70
     1
102
RTVSPropertyOp30
 70
     1
102
RTVSPropertyOp31
 70
     1
102
RTVSPropertyOp32
 70
     1
  0
XRECORD
  5
3A9
102
{ACAD_REACTORS
330
3A8
102
}
330
3A8
100
AcDbXrecord
280
     1
102
RTVSPropertyOp0
 70
     1
102
RTVSPropertyOp1
 70
     1
102
RTVSPropertyOp2
 70
     1
102
RTVSPropertyOp3
 70
     1
102
RTVSPropertyOp4
 70
     1
102
RTVSPropertyOp5
 70
     1
102
RTVSPropertyOp6
 70
     1
102
RTVSPropertyOp7
 70
     1
102
RTVSPropertyOp8
 70
     1
102
RTVSPropertyOp9
 70
     1
102
RTVSPropertyOp10
 70
     1
102
RTVSPropertyOp11
 70
     1
102
RTVSPropertyOp12
 70
     1
102
RTVSPropertyOp13
 70
     1
102
RTVSPropertyOp14
 70
     1
102
RTVSPropertyOp15
 70
     1
102
RTVSPropertyOp16
 70
     1
102
RTVSPropertyOp17
 70
     1
102
RTVSPropertyOp18
 70
     1
102
RTVSPropertyOp19
 70
     1
102
RTVSPropertyOp20
 70
     1
102
RTVSPropertyOp21
 70
     1
102
RTVSPropertyOp22
 70
     1
102
RTVSPropertyOp23
 70
     1
102
RTVSPropertyOp24
 70
     1
102
RTVSPropertyOp25
 70
     1
102
RTVSPropertyOp26
 70
     1
102
RTVSPropertyOp27
 70
     1
102
RTVSPropertyOp28
 70
     1
102
RTVSPropertyOp29
 70
     1
102
RTVSPropertyOp30
 70
     1
102
RTVSPropertyOp31
 70
     1
102
RTVSPropertyOp32
 70
     1
  0
XRECORD
  5
39F
102
{ACAD_REACTORS
330
39E
102
}
330
39E
100
AcDbXrecord
280
     1
102
RTVSPropertyOp0
 70
     1
102
RTVSPropertyOp1
 70
     1
102
RTVSPropertyOp2
 70
     1
102
RTVSPropertyOp3
 70
     1
102
RTVSPropertyOp4
 70
     1
102
RTVSPropertyOp5
 70
     1
102
RTVSPropertyOp6
 70
     1
102
RTVSPropertyOp7
 70
     1
102
RTVSPropertyOp8
 70
     1
102
RTVSPropertyOp9
 70
     1
102
RTVSPropertyOp10
 70
     1
102
RTVSPropertyOp11
 70
     1
102
RTVSPropertyOp12
 70
     1
102
RTVSPropertyOp13
 70
     1
102
RTVSPropertyOp14
 70
     1
102
RTVSPropertyOp15
 70
     1
102
RTVSPropertyOp16
 70
     1
102
RTVSPropertyOp17
 70
     1
102
RTVSPropertyOp18
 70
     1
102
RTVSPropertyOp19
 70
     1
102
RTVSPropertyOp20
 70
     1
102
RTVSPropertyOp21
 70
     1
102
RTVSPropertyOp22
 70
     1
102
RTVSPropertyOp23
 70
     1
102
RTVSPropertyOp24
 70
     1
102
RTVSPropertyOp25
 70
     1
102
RTVSPropertyOp26
 70
     1
102
RTVSPropertyOp27
 70
     1
102
RTVSPropertyOp28
 70
     1
102
RTVSPropertyOp29
 70
     1
102
RTVSPropertyOp30
 70
     1
102
RTVSPropertyOp31
 70
     1
102
RTVSPropertyOp32
 70
     1
  0
XRECORD
  5
3A7
102
{ACAD_REACTORS
330
3A6
102
}
330
3A6
100
AcDbXrecord
280
     1
102
RTVSPropertyOp0
 70
     1
102
RTVSPropertyOp1
 70
     1
102
RTVSPropertyOp2
 70
     1
102
RTVSPropertyOp3
 70
     1
102
RTVSPropertyOp4
 70
     1
102
RTVSPropertyOp5
 70
     1
102
RTVSPropertyOp6
 70
     1
102
RTVSPropertyOp7
 70
     1
102
RTVSPropertyOp8
 70
     1
102
RTVSPropertyOp9
 70
     1
102
RTVSPropertyOp10
 70
     1
102
RTVSPropertyOp11
 70
     1
102
RTVSPropertyOp12
 70
     1
102
RTVSPropertyOp13
 70
     1
102
RTVSPropertyOp14
 70
     1
102
RTVSPropertyOp15
 70
     1
102
RTVSPropertyOp16
 70
     1
102
RTVSPropertyOp17
 70
     1
102
RTVSPropertyOp18
 70
     1
102
RTVSPropertyOp19
 70
     1
102
RTVSPropertyOp20
 70
     1
102
RTVSPropertyOp21
 70
     1
102
RTVSPropertyOp22
 70
     1
102
RTVSPropertyOp23
 70
     1
102
RTVSPropertyOp24
 70
     1
102
RTVSPropertyOp25
 70
     1
102
RTVSPropertyOp26
 70
     1
102
RTVSPropertyOp27
 70
     1
102
RTVSPropertyOp28
 70
     1
102
RTVSPropertyOp29
 70
     1
102
RTVSPropertyOp30
 70
     1
102
RTVSPropertyOp31
 70
     1
102
RTVSPropertyOp32
 70
     1
  0
ENDSEC
  0
EOF
