  0
SECTION
  2
HEADER
  9
$ACADVER
  1
AC1015
  9
$ACADMAINTVER
 70
     6
  9
$DWGCODEPAGE
  3
ANSI_949
  9
$INSBASE
 10
0.0
 20
0.0
 30
0.0
  9
$EXTMIN
 10
1.000000000000000E+20
 20
1.000000000000000E+20
 30
1.000000000000000E+20
  9
$EXTMAX
 10
-1.000000000000000E+20
 20
-1.000000000000000E+20
 30
-1.000000000000000E+20
  9
$LIMMIN
 10
0.0
 20
0.0
  9
$LIMMAX
 10
12.0
 20
9.0
  9
$ORTHOMODE
 70
     0
  9
$REGENMODE
 70
     1
  9
$FILLMODE
 70
     1
  9
$QTEXTMODE
 70
     0
  9
$MIRRTEXT
 70
     1
  9
$LTSCALE
 40
1.0
  9
$ATTMODE
 70
     1
  9
$TEXTSIZE
 40
0.2
  9
$TRACEWID
 40
0.05
  9
$TEXTSTYLE
  7
Standard
  9
$CLAYER
  8
0
  9
$CELTYPE
  6
ByLayer
  9
$CECOLOR
 62
   256
  9
$CELTSCALE
 40
1.0
  9
$DISPSILH
 70
     0
  9
$DIMSCALE
 40
1.0
  9
$DIMASZ
 40
0.18
  9
$DIMEXO
 40
0.0625
  9
$DIMDLI
 40
0.38
  9
$DIMRND
 40
0.0
  9
$DIMDLE
 40
0.0
  9
$DIMEXE
 40
0.18
  9
$DIMTP
 40
0.0
  9
$DIMTM
 40
0.0
  9
$DIMTXT
 40
0.18
  9
$DIMCEN
 40
0.09
  9
$DIMTSZ
 40
0.0
  9
$DIMTOL
 70
     0
  9
$DIMLIM
 70
     0
  9
$DIMTIH
 70
     1
  9
$DIMTOH
 70
     1
  9
$DIMSE1
 70
     0
  9
$DIMSE2
 70
     0
  9
$DIMTAD
 70
     0
  9
$DIMZIN
 70
     0
  9
$DIMBLK
  1

  9
$DIMASO
 70
     1
  9
$DIMSHO
 70
     1
  9
$DIMPOST
  1

  9
$DIMAPOST
  1

  9
$DIMALT
 70
     0
  9
$DIMALTD
 70
     2
  9
$DIMALTF
 40
25.4
  9
$DIMLFAC
 40
1.0
  9
$DIMTOFL
 70
     0
  9
$DIMTVP
 40
0.0
  9
$DIMTIX
 70
     0
  9
$DIMSOXD
 70
     0
  9
$DIMSAH
 70
     0
  9
$DIMBLK1
  1

  9
$DIMBLK2
  1

  9
$DIMSTYLE
  2
Standard
  9
$DIMCLRD
 70
     0
  9
$DIMCLRE
 70
     0
  9
$DIMCLRT
 70
     0
  9
$DIMTFAC
 40
1.0
  9
$DIMGAP
 40
0.09
  9
$DIMJUST
 70
     0
  9
$DIMSD1
 70
     0
  9
$DIMSD2
 70
     0
  9
$DIMTOLJ
 70
     1
  9
$DIMTZIN
 70
     0
  9
$DIMALTZ
 70
     0
  9
$DIMALTTZ
 70
     0
  9
$DIMUPT
 70
     0
  9
$DIMDEC
 70
     4
  9
$DIMTDEC
 70
     4
  9
$DIMALTU
 70
     2
  9
$DIMALTTD
 70
     2
  9
$DIMTXSTY
  7
Standard
  9
$DIMAUNIT
 70
     0
  9
$DIMADEC
 70
     0
  9
$DIMALTRND
 40
0.0
  9
$DIMAZIN
 70
     0
  9
$DIMDSEP
 70
    46
  9
$DIMATFIT
 70
     3
  9
$DIMFRAC
 70
     0
  9
$DIMLDRBLK
  1

  9
$DIMLUNIT
 70
     2
  9
$DIMLWD
 70
    -2
  9
$DIMLWE
 70
    -2
  9
$DIMTMOVE
 70
     0
  9
$LUNITS
 70
     2
  9
$LUPREC
 70
     4
  9
$SKETCHINC
 40
0.1
  9
$FILLETRAD
 40
0.5
  9
$AUNITS
 70
     0
  9
$AUPREC
 70
     0
  9
$MENU
  1
.
  9
$ELEVATION
 40
0.0
  9
$PELEVATION
 40
0.0
  9
$THICKNESS
 40
0.0
  9
$LIMCHECK
 70
     0
  9
$CHAMFERA
 40
0.5
  9
$CHAMFERB
 40
0.5
  9
$CHAMFERC
 40
1.0
  9
$CHAMFERD
 40
0.0
  9
$SKPOLY
 70
     0
  9
$TDCREATE
 40
2456522.534968588
  9
$TDUCREATE
 40
2456522.034968588
  9
$TDUPDATE
 40
2456522.535001238
  9
$TDUUPDATE
 40
2456522.035001238
  9
$TDINDWG
 40
0.0000000116
  9
$TDUSRTIMER
 40
0.0000000116
  9
$USRTIMER
 70
     1
  9
$ANGBASE
 50
0.0
  9
$ANGDIR
 70
     0
  9
$PDMODE
 70
     0
  9
$PDSIZE
 40
0.0
  9
$PLINEWID
 40
0.0
  9
$SPLFRAME
 70
     0
  9
$SPLINETYPE
 70
     6
  9
$SPLINESEGS
 70
     8
  9
$HANDSEED
  5
525
  9
$SURFTAB1
 70
     6
  9
$SURFTAB2
 70
     6
  9
$SURFTYPE
 70
     6
  9
$SURFU
 70
     6
  9
$SURFV
 70
     6
  9
$UCSBASE
  2

  9
$UCSNAME
  2

  9
$UCSORG
 10
0.0
 20
0.0
 30
0.0
  9
$UCSXDIR
 10
1.0
 20
0.0
 30
0.0
  9
$UCSYDIR
 10
0.0
 20
1.0
 30
0.0
  9
$UCSORTHOREF
  2

  9
$UCSORTHOVIEW
 70
     0
  9
$UCSORGTOP
 10
0.0
 20
0.0
 30
0.0
  9
$UCSORGBOTTOM
 10
0.0
 20
0.0
 30
0.0
  9
$UCSORGLEFT
 10
0.0
 20
0.0
 30
0.0
  9
$UCSORGRIGHT
 10
0.0
 20
0.0
 30
0.0
  9
$UCSORGFRONT
 10
0.0
 20
0.0
 30
0.0
  9
$UCSORGBACK
 10
0.0
 20
0.0
 30
0.0
  9
$PUCSBASE
  2

  9
$PUCSNAME
  2

  9
$PUCSORG
 10
0.0
 20
0.0
 30
0.0
  9
$PUCSXDIR
 10
1.0
 20
0.0
 30
0.0
  9
$PUCSYDIR
 10
0.0
 20
1.0
 30
0.0
  9
$PUCSORTHOREF
  2

  9
$PUCSORTHOVIEW
 70
     0
  9
$PUCSORGTOP
 10
0.0
 20
0.0
 30
0.0
  9
$PUCSORGBOTTOM
 10
0.0
 20
0.0
 30
0.0
  9
$PUCSORGLEFT
 10
0.0
 20
0.0
 30
0.0
  9
$PUCSORGRIGHT
 10
0.0
 20
0.0
 30
0.0
  9
$PUCSORGFRONT
 10
0.0
 20
0.0
 30
0.0
  9
$PUCSORGBACK
 10
0.0
 20
0.0
 30
0.0
  9
$USERI1
 70
     0
  9
$USERI2
 70
     0
  9
$USERI3
 70
     0
  9
$USERI4
 70
     0
  9
$USERI5
 70
     0
  9
$USERR1
 40
0.0
  9
$USERR2
 40
0.0
  9
$USERR3
 40
0.0
  9
$USERR4
 40
0.0
  9
$USERR5
 40
0.0
  9
$WORLDVIEW
 70
     1
  9
$SHADEDGE
 70
     3
  9
$SHADEDIF
 70
    70
  9
$TILEMODE
 70
     1
  9
$MAXACTVP
 70
    64
  9
$PINSBASE
 10
0.0
 20
0.0
 30
0.0
  9
$PLIMCHECK
 70
     0
  9
$PEXTMIN
 10
1.000000000000000E+20
 20
1.000000000000000E+20
 30
1.000000000000000E+20
  9
$PEXTMAX
 10
-1.000000000000000E+20
 20
-1.000000000000000E+20
 30
-1.000000000000000E+20
  9
$PLIMMIN
 10
0.0
 20
0.0
  9
$PLIMMAX
 10
12.0
 20
9.0
  9
$UNITMODE
 70
     0
  9
$VISRETAIN
 70
     1
  9
$PLINEGEN
 70
     0
  9
$PSLTSCALE
 70
     1
  9
$TREEDEPTH
 70
  3020
  9
$CMLSTYLE
  2
Standard
  9
$CMLJUST
 70
     0
  9
$CMLSCALE
 40
1.0
  9
$PROXYGRAPHICS
 70
     1
  9
$MEASUREMENT
 70
     0
  9
$CELWEIGHT
370
    -1
  9
$ENDCAPS
280
     0
  9
$JOINSTYLE
280
     0
  9
$LWDISPLAY
290
     1
  9
$INSUNITS
 70
     4
  9
$HYPERLINKBASE
  1

  9
$STYLESHEET
  1

  9
$XEDIT
290
     1
  9
$CEPSNTYPE
380
     0
  9
$PSTYLEMODE
290
     1
  9
$FINGERPRINTGUID
  2
{650A521F-0938-4327-9F57-BC9F105ECF19}
  9
$VERSIONGUID
  2
{FAEB1C32-E019-11D5-929B-00C0DF256EC4}
  9
$EXTNAMES
290
     1
  9
$PSVPSCALE
 40
0.0
  9
$OLESTARTUP
290
     0
  0
ENDSEC
  0
SECTION
  2
CLASSES
  0
CLASS
  1
ACDBDICTIONARYWDFLT
  2
AcDbDictionaryWithDefault
  3
ObjectDBX Classes
 90
        0
280
     0
281
     0
  0
CLASS
  1
VISUALSTYLE
  2
AcDbVisualStyle
  3
ObjectDBX Classes
 90
     4095
280
     0
281
     0
  0
CLASS
  1
MATERIAL
  2
AcDbMaterial
  3
ObjectDBX Classes
 90
     1153
280
     0
281
     0
  0
CLASS
  1
SPATIAL_FILTER
  2
AcDbSpatialFilter
  3
ObjectDBX Classes
 90
        0
280
     0
281
     0
  0
CLASS
  1
SCALE
  2
AcDbScale
  3
ObjectDBX Classes
 90
     1153
280
     0
281
     0
  0
CLASS
  1
DICTIONARYVAR
  2
AcDbDictionaryVar
  3
ObjectDBX Classes
 90
        0
280
     0
281
     0
  0
CLASS
  1
ACDBPLACEHOLDER
  2
AcDbPlaceHolder
  3
ObjectDBX Classes
 90
        0
280
     0
281
     0
  0
CLASS
  1
LAYOUT
  2
AcDbLayout
  3
ObjectDBX Classes
 90
        0
280
     0
281
     0
  0
ENDSEC
  0
SECTION
  2
TABLES
  0
TABLE
  2
VPORT
  5
8
330
0
100
AcDbSymbolTable
 70
     1
  0
VPORT
  5
29
330
8
100
AcDbSymbolTableRecord
100
AcDbViewportTableRecord
  2
*Active
 70
     0
 10
0.0
 20
0.0
 11
1.0
 21
1.0
 12
148.6203422501967
 22
97.27060520811655
 13
0.0
 23
0.0
 14
0.5
 24
0.5
 15
0.5
 25
0.5
 16
0.0
 26
0.0
 36
1.0
 17
0.0
 27
0.0
 37
0.0
 40
194.2971225111692
 41
1.486926277925945
 42
50.0
 43
0.0
 44
0.0
 50
0.0
 51
0.0
 71
     0
 72
   100
 73
     1
 74
     3
 75
     0
 76
     0
 77
     0
 78
     0
281
     0
 65
     1
110
0.0
120
0.0
130
0.0
111
1.0
121
0.0
131
0.0
112
0.0
122
1.0
132
0.0
 79
     0
146
0.0
  0
ENDTAB
  0
TABLE
  2
LTYPE
  5
5
330
0
100
AcDbSymbolTable
 70
     2
  0
LTYPE
  5
14
330
5
100
AcDbSymbolTableRecord
100
AcDbLinetypeTableRecord
  2
ByBlock
 70
     0
  3

 72
    65
 73
     0
 40
0.0
  0
LTYPE
  5
15
330
5
100
AcDbSymbolTableRecord
100
AcDbLinetypeTableRecord
  2
ByLayer
 70
     0
  3

 72
    65
 73
     0
 40
0.0
  0
LTYPE
  5
16
330
5
100
AcDbSymbolTableRecord
100
AcDbLinetypeTableRecord
  2
Continuous
 70
     0
  3
Solid line
 72
    65
 73
     0
 40
0.0
  0
LTYPE
  5
131
330
5
100
AcDbSymbolTableRecord
100
AcDbLinetypeTableRecord
  2
Dashed
 70
     0
  3
- - - - - 
 72
    65
 73
     2
 40
5.644444465637207
 49
2.822222232818604
 74
     0
 49
-2.822222232818603
 74
     0
  0
ENDTAB
  0
TABLE
  2
LAYER
  5
2
330
0
100
AcDbSymbolTable
 70
     3
  0
LAYER
  5
10
330
2
100
AcDbSymbolTableRecord
100
AcDbLayerTableRecord
  2
0
 70
     0
 62
     7
  6
Continuous
370
    -3
390
F
  0
LAYER
  5
40
330
2
100
AcDbSymbolTableRecord
100
AcDbLayerTableRecord
  2
Doc_ Finishes
 70
     0
 62
     7
  6
Continuous
370
    -3
390
F
  0
LAYER
  5
DB
330
2
100
AcDbSymbolTableRecord
100
AcDbLayerTableRecord
  2
Doc_ Floor
 70
     0
 62
     7
  6
Continuous
370
    -3
390
F
  0
ENDTAB
  0
TABLE
  2
STYLE
  5
3
330
0
100
AcDbSymbolTable
 70
     4
  0
STYLE
  5
11
330
3
100
AcDbSymbolTableRecord
100
AcDbTextStyleTableRecord
  2
Standard
 70
     0
 40
0.0
 41
1.0
 50
0.0
 71
     0
 42
0.2
  3
txt
  4

  0
STYLE
  5
D6
330
3
100
AcDbSymbolTableRecord
100
AcDbTextStyleTableRecord
  2
GENERATED_STYLE_1
 70
     0
 40
0.0
 41
1.0
 50
0.0
 71
     0
 42
0.2
  3

  4

1001
ACAD
1000
Century Gothic
1071
       34
  0
STYLE
  5
D9
330
3
100
AcDbSymbolTableRecord
100
AcDbTextStyleTableRecord
  2
GENERATED_STYLE_2
 70
     0
 40
0.0
 41
1.0
 50
0.0
 71
     0
 42
0.2
  3

  4

1001
ACAD
1000
DilleniaUPC
1071
 33554450
  0
STYLE
  5
168
330
3
100
AcDbSymbolTableRecord
100
AcDbTextStyleTableRecord
  2
GENERATED_STYLE_3
 70
     0
 40
0.0
 41
1.0
 50
0.0
 71
     0
 42
0.2
  3

  4

1001
ACAD
1000
Arial
1071
       34
  0
ENDTAB
  0
TABLE
  2
VIEW
  5
6
330
0
100
AcDbSymbolTable
 70
     0
  0
ENDTAB
  0
TABLE
  2
UCS
  5
7
330
0
100
AcDbSymbolTable
 70
     0
  0
ENDTAB
  0
TABLE
  2
APPID
  5
9
330
0
100
AcDbSymbolTable
 70
     1
  0
APPID
  5
12
330
9
100
AcDbSymbolTableRecord
100
AcDbRegAppTableRecord
  2
ACAD
 70
     0
  0
ENDTAB
  0
TABLE
  2
DIMSTYLE
  5
A
330
0
100
AcDbSymbolTable
 70
     1
100
AcDbDimStyleTable
  0
DIMSTYLE
105
27
330
A
100
AcDbSymbolTableRecord
100
AcDbDimStyleTableRecord
  2
Standard
 70
     0
178
     0
340
11
  0
ENDTAB
  0
TABLE
  2
BLOCK_RECORD
  5
1
330
0
100
AcDbSymbolTable
 70
     3
  0
BLOCK_RECORD
  5
1F
330
1
100
AcDbSymbolTableRecord
100
AcDbBlockTableRecord
  2
*Model_Space
340
22
  0
BLOCK_RECORD
  5
1B
330
1
100
AcDbSymbolTableRecord
100
AcDbBlockTableRecord
  2
*Paper_Space
340
1E
  0
BLOCK_RECORD
  5
E3
330
1
100
AcDbSymbolTableRecord
100
AcDbBlockTableRecord
  2
Drawing_1_2
340
0
102
{BLKREFS
331
4CB
102
}
  0
BLOCK_RECORD
  5
4CF
330
1
100
AcDbSymbolTableRecord
100
AcDbBlockTableRecord
  2
R-TRSC-08 APRON DETAIL - HEAD_STORY_MARKER
340
0
  0
ENDTAB
  0
ENDSEC
  0
SECTION
  2
BLOCKS
  0
BLOCK
  5
20
330
1F
100
AcDbEntity
  8
0
100
AcDbBlockBegin
  2
*Model_Space
 70
     0
 10
0.0
 20
0.0
 30
0.0
  3
*Model_Space
  1

  0
ENDBLK
  5
21
330
1F
100
AcDbEntity
  8
0
100
AcDbBlockEnd
  0
BLOCK
  5
1C
330
1B
100
AcDbEntity
 67
     1
  8
0
100
AcDbBlockBegin
  2
*Paper_Space
 70
     0
 10
0.0
 20
0.0
 30
0.0
  3
*Paper_Space
  1

  0
ENDBLK
  5
1D
330
1B
100
AcDbEntity
 67
     1
  8
0
100
AcDbBlockEnd
  0
BLOCK
  5
E4
330
E3
100
AcDbEntity
  8
0
100
AcDbBlockBegin
  2
Drawing_1_2
 70
     0
 10
28.8753134188689
 20
84.42632391951834
 30
0.0
  3
Drawing_1_2
  1

  0
HATCH
  5
E6
330
E3
100
AcDbEntity
  8
0
  6
Continuous
 62
   255
370
     0
100
AcDbHatch
 10
0.0
 20
0.0
 30
0.0
210
0.0
220
0.0
230
1.0
  2
SOLID
 70
     1
 71
     0
 91
        1
 92
        3
 72
     0
 73
     1
 93
        4
 10
164.0614679563564
 20
192.5142914063299
 10
164.0614679563564
 20
145.9934618480937
 10
168.0614672234631
 20
145.9934618480937
 10
168.0614672234631
 20
192.5142914063299
 97
        0
 75
     0
 76
     1
 98
        0
  0
LINE
  5
E7
330
E3
100
AcDbEntity
  8
0
  6
Continuous
100
AcDbLine
 10
164.0614679563564
 20
192.5142914063299
 30
0.0
 11
164.0614679563564
 21
145.9934618480937
 31
0.0
  0
LINE
  5
E8
330
E3
100
AcDbEntity
  8
0
  6
Continuous
100
AcDbLine
 10
164.0614679563564
 20
145.9934618480937
 30
0.0
 11
168.0614672234631
 21
145.9934618480937
 31
0.0
  0
LINE
  5
E9
330
E3
100
AcDbEntity
  8
0
  6
Continuous
100
AcDbLine
 10
168.0614672234631
 20
145.9934618480937
 30
0.0
 11
168.0614672234631
 21
192.5142914063299
 31
0.0
  0
HATCH
  5
EA
330
E3
100
AcDbEntity
  8
0
  6
Continuous
 62
   255
370
     0
100
AcDbHatch
 10
0.0
 20
0.0
 30
0.0
210
0.0
220
0.0
230
1.0
  2
SOLID
 70
     1
 71
     0
 91
        1
 92
        3
 72
     0
 73
     1
 93
        4
 10
164.0614669763566
 20
142.1934614727524
 10
168.0614669763566
 20
142.1934614727524
 10
168.0614669763566
 20
151.1934614727524
 10
164.0614669763566
 20
151.1934614727524
 97
        0
 75
     0
 76
     1
 98
        0
  0
LINE
  5
EB
330
E3
100
AcDbEntity
  8
0
  6
Continuous
100
AcDbLine
 10
164.0614679563564
 20
142.1934606802061
 30
0.0
 11
168.0614672234631
 21
151.1934598785308
 31
0.0
  0
LINE
  5
EC
330
E3
100
AcDbEntity
  8
0
  6
Continuous
100
AcDbLine
 10
164.0614679563564
 20
142.1934606802061
 30
0.0
 11
168.0614672234631
 21
142.1934606802061
 31
0.0
  0
LINE
  5
ED
330
E3
100
AcDbEntity
  8
0
  6
Continuous
100
AcDbLine
 10
168.0614672234631
 20
142.1934606802061
 30
0.0
 11
168.0614672234631
 21
151.1934598785308
 31
0.0
  0
LINE
  5
EE
330
E3
100
AcDbEntity
  8
0
  6
Continuous
100
AcDbLine
 10
168.0614672234631
 20
151.1934598785308
 30
0.0
 11
164.0614679563564
 21
151.1934598785308
 31
0.0
  0
LINE
  5
EF
330
E3
100
AcDbEntity
  8
0
  6
Continuous
100
AcDbLine
 10
164.0614679563564
 20
151.1934598785308
 30
0.0
 11
164.0614679563564
 21
142.1934606802061
 31
0.0
  0
HATCH
  5
F0
330
E3
100
AcDbEntity
  8
0
  6
Continuous
 62
   255
370
     0
100
AcDbHatch
 10
0.0
 20
0.0
 30
0.0
210
0.0
220
0.0
230
1.0
  2
SOLID
 70
     1
 71
     0
 91
        1
 92
        3
 72
     0
 73
     1
 93
        4
 10
172.1431044428645
 20
192.5142948764787
 10
172.1431044428645
 20
28.70874527642625
 10
190.1431026398223
 20
28.70874527642625
 10
190.1431026398223
 20
192.5142948764787
 97
        0
 75
     0
 76
     1
 98
        0
  0
LINE
  5
F1
330
E3
100
AcDbEntity
  8
0
  6
Continuous
100
AcDbLine
 10
190.1431026398223
 20
28.70874527642625
 30
0.0
 11
190.1431026398223
 21
192.5142948764787
 31
0.0
  0
LINE
  5
F2
330
E3
100
AcDbEntity
  8
0
  6
Continuous
100
AcDbLine
 10
172.1431044428645
 20
192.5142948764787
 30
0.0
 11
172.1431044428645
 21
28.70874527642625
 31
0.0
  0
HATCH
  5
F3
330
E3
100
AcDbEntity
  8
0
  6
Continuous
 62
   255
370
     0
100
AcDbHatch
 10
0.0
 20
0.0
 30
0.0
210
0.0
220
0.0
230
1.0
  2
SOLID
 70
     1
 71
     0
 91
        1
 92
        3
 72
     0
 73
     1
 93
        4
 10
190.1431035861495
 20
51.48412375138037
 10
190.1431035861495
 20
60.48412375138036
 10
172.1431035861495
 20
60.48412375138036
 10
172.1431035861495
 20
51.48412375138037
 97
        0
 75
     0
 76
     1
 98
        0
  0
LINE
  5
F4
330
E3
100
AcDbEntity
  8
0
  6
Continuous
100
AcDbLine
 10
190.1431038889798
 20
51.48412416416243
 30
0.0
 11
190.1431038889798
 21
60.48412336248715
 31
0.0
  0
LINE
  5
F5
330
E3
100
AcDbEntity
  8
0
  6
Continuous
100
AcDbLine
 10
190.1431038889798
 20
60.48412336248715
 30
0.0
 11
172.1431021029916
 21
60.48412336248715
 31
0.0
  0
LINE
  5
F6
330
E3
100
AcDbEntity
  8
0
  6
Continuous
100
AcDbLine
 10
172.1431021029916
 20
60.48412336248715
 30
0.0
 11
172.1431021029916
 21
51.48412416416243
 31
0.0
  0
LINE
  5
F7
330
E3
100
AcDbEntity
  8
0
  6
Continuous
100
AcDbLine
 10
172.1431021029916
 20
51.48412416416243
 30
0.0
 11
190.1431038889798
 21
51.48412416416243
 31
0.0
  0
LINE
  5
F8
330
E3
100
AcDbEntity
  8
0
  6
Continuous
100
AcDbLine
 10
172.1431021029916
 20
51.48412416416243
 30
0.0
 11
190.1431038889798
 21
60.48412336248715
 31
0.0
  0
HATCH
  5
F9
330
E3
100
AcDbEntity
  8
0
  6
Continuous
 62
   255
370
     0
100
AcDbHatch
 10
0.0
 20
0.0
 30
0.0
210
0.0
220
0.0
230
1.0
  2
SOLID
 70
     1
 71
     0
 91
        1
 92
        3
 72
     0
 73
     1
 93
        4
 10
161.2614674525801
 20
192.5142914063299
 10
161.2614674525801
 20
142.9934598557597
 10
163.0614672922451
 20
142.9934598557597
 10
163.0614672922451
 20
192.5142914063299
 97
        0
 75
     0
 76
     1
 98
        0
  0
HATCH
  5
FA
330
E3
100
AcDbEntity
  8
0
  6
Continuous
100
AcDbHatch
 10
0.0
 20
0.0
 30
0.0
210
0.0
220
0.0
230
1.0
  2
Plaster_0002
 70
     0
 71
     0
 91
        1
 92
        3
 72
     0
 73
     1
 93
        4
 10
161.2614674525801
 20
192.5142914063299
 10
161.2614674525801
 20
142.9934598557597
 10
163.0614672922451
 20
142.9934598557597
 10
163.0614672922451
 20
192.5142914063299
 97
        0
 75
     0
 76
     2
 52
0.0
 41
1.0
 77
     0
 78
     2
 53
0.0
 43
28.8753134188689
 44
84.42632391951834
 45
0.0
 46
1.732050807568877
 79
     2
 49
0.0
 49
-1.0
 53
0.0
 43
29.3753134188689
 44
85.29234930775915
 45
0.0
 46
1.732050807568877
 79
     2
 49
0.0
 49
-1.0
 98
        0
  0
LINE
  5
FB
330
E3
100
AcDbEntity
  8
0
  6
Continuous
100
AcDbLine
 10
161.2614674525801
 20
192.5142914063299
 30
0.0
 11
161.2614674525801
 21
142.9934598557597
 31
0.0
  0
LINE
  5
FC
330
E3
100
AcDbEntity
  8
0
  6
Continuous
100
AcDbLine
 10
161.2614674525801
 20
142.9934598557597
 30
0.0
 11
163.0614672922451
 21
142.9934598557597
 31
0.0
  0
LINE
  5
FD
330
E3
100
AcDbEntity
  8
0
  6
Continuous
100
AcDbLine
 10
163.0614672922451
 20
142.9934598557597
 30
0.0
 11
163.0614672922451
 21
192.5142914063299
 31
0.0
  0
HATCH
  5
FE
330
E3
100
AcDbEntity
  8
0
  6
Continuous
 62
   255
370
     0
100
AcDbHatch
 10
0.0
 20
0.0
 30
0.0
210
0.0
220
0.0
230
1.0
  2
SOLID
 70
     1
 71
     0
 91
        1
 92
        3
 72
     0
 73
     1
 93
        4
 10
181.1431035861495
 20
157.1934614727524
 10
172.1431035861495
 20
157.1934614727524
 10
172.1431035861495
 20
139.1934614727524
 10
181.1431035861495
 20
139.1934614727524
 97
        0
 75
     0
 76
     1
 98
        0
  0
LINE
  5
FF
330
E3
100
AcDbEntity
  8
0
  6
Continuous
100
AcDbLine
 10
181.1431046906551
 20
157.1934604738602
 30
0.0
 11
172.1431021029916
 21
139.1934620772107
 31
0.0
  0
LINE
  5
100
330
E3
100
AcDbEntity
  8
0
  6
Continuous
100
AcDbLine
 10
181.1431046906551
 20
157.1934604738602
 30
0.0
 11
172.1431021029916
 21
157.1934604738602
 31
0.0
  0
LINE
  5
101
330
E3
100
AcDbEntity
  8
0
  6
Continuous
100
AcDbLine
 10
172.1431021029916
 20
157.1934604738602
 30
0.0
 11
172.1431021029916
 21
139.1934620772107
 31
0.0
  0
LINE
  5
102
330
E3
100
AcDbEntity
  8
0
  6
Continuous
100
AcDbLine
 10
172.1431021029916
 20
139.1934620772107
 30
0.0
 11
181.1431046906551
 21
139.1934620772107
 31
0.0
  0
LINE
  5
103
330
E3
100
AcDbEntity
  8
0
  6
Continuous
100
AcDbLine
 10
181.1431046906551
 20
139.1934620772107
 30
0.0
 11
181.1431046906551
 21
157.1934604738602
 31
0.0
  0
HATCH
  5
104
330
E3
100
AcDbEntity
  8
0
  6
Continuous
 62
   255
370
     0
100
AcDbHatch
 10
0.0
 20
0.0
 30
0.0
210
0.0
220
0.0
230
1.0
  2
SOLID
 70
     1
 71
     0
 91
        1
 92
        3
 72
     0
 73
     1
 93
        4
 10
181.1431035861495
 20
136.5511166022701
 10
172.1431035861495
 20
136.5511166022701
 10
172.1431035861495
 20
118.5511166022701
 10
181.1431035861495
 20
118.5511166022701
 97
        0
 75
     0
 76
     1
 98
        0
  0
LINE
  5
105
330
E3
100
AcDbEntity
  8
0
  6
Continuous
100
AcDbLine
 10
181.1431046906551
 20
136.5511166640183
 30
0.0
 11
172.1431021029916
 21
118.5511182673689
 31
0.0
  0
LINE
  5
106
330
E3
100
AcDbEntity
  8
0
  6
Continuous
100
AcDbLine
 10
181.1431046906551
 20
136.5511166640183
 30
0.0
 11
172.1431021029916
 21
136.5511166640183
 31
0.0
  0
LINE
  5
107
330
E3
100
AcDbEntity
  8
0
  6
Continuous
100
AcDbLine
 10
172.1431021029916
 20
136.5511166640183
 30
0.0
 11
172.1431021029916
 21
118.5511182673689
 31
0.0
  0
LINE
  5
108
330
E3
100
AcDbEntity
  8
0
  6
Continuous
100
AcDbLine
 10
172.1431021029916
 20
118.5511182673689
 30
0.0
 11
181.1431046906551
 21
118.5511182673689
 31
0.0
  0
LINE
  5
109
330
E3
100
AcDbEntity
  8
0
  6
Continuous
100
AcDbLine
 10
181.1431046906551
 20
118.5511182673689
 30
0.0
 11
181.1431046906551
 21
136.5511166640183
 31
0.0
  0
HATCH
  5
10A
330
E3
100
AcDbEntity
  8
0
  6
Continuous
 62
   255
370
     0
100
AcDbHatch
 10
0.0
 20
0.0
 30
0.0
210
0.0
220
0.0
230
1.0
  2
SOLID
 70
     1
 71
     0
 91
        1
 92
        3
 72
     0
 73
     1
 93
        4
 10
172.1431030874204
 20
102.5389254599213
 10
35.31938941328067
 20
78.41321135362739
 10
35.31938941328067
 20
28.7087466410241
 10
172.1431030874204
 20
28.7087466410241
 97
        0
 75
     0
 76
     1
 98
        0
  0
HATCH
  5
10B
330
E3
100
AcDbEntity
  8
0
  6
Continuous
 62
   255
370
     0
100
AcDbHatch
 10
0.0
 20
0.0
 30
0.0
210
0.0
220
0.0
230
1.0
  2
SOLID
 70
     1
 71
     0
 91
        1
 92
        3
 72
     0
 73
     1
 93
        4
 10
172.1431050269107
 20
120.8166022915522
 10
35.31939153784569
 20
96.69088921764823
 10
35.31939153784569
 20
78.4132126871615
 10
172.1431050269107
 20
102.5389257610655
 97
        0
 75
     0
 76
     1
 98
        0
  0
LINE
  5
10C
330
E3
100
AcDbEntity
  8
0
  6
Continuous
100
AcDbLine
 10
35.31938941328067
 20
78.41321135362739
 30
0.0
 11
172.1431030874204
 21
102.5389254599213
 31
0.0
  0
LINE
  5
10D
330
E3
100
AcDbEntity
  8
0
  6
Continuous
100
AcDbLine
 10
172.1431021029916
 20
102.5389229688871
 30
0.0
 11
172.1431021029916
 21
120.8166031082293
 31
0.0
  0
LINE
  5
10E
330
E3
100
AcDbEntity
  8
0
  6
Continuous
100
AcDbLine
 10
172.1431050269107
 20
120.816604775009
 30
0.0
 11
35.31939153784569
 21
96.69089170110493
 31
0.0
  0
HATCH
  5
10F
330
E3
100
AcDbEntity
  8
0
  6
Continuous
 62
   255
370
     0
100
AcDbHatch
 10
0.0
 20
0.0
 30
0.0
210
0.0
220
0.0
230
1.0
  2
SOLID
 70
     1
 71
     0
 91
        1
 92
        3
 72
     0
 73
     1
 93
        4
 10
162.1431022405556
 20
100.7756562056509
 10
162.1431022405556
 20
28.70874690469444
 10
172.1431021029916
 20
28.70874690469444
 10
172.1431021029916
 20
102.5389257816018
 97
        0
 75
     0
 76
     1
 98
        0
  0
LINE
  5
110
330
E3
100
AcDbEntity
  8
0
  6
Continuous
100
AcDbLine
 10
172.1431021029916
 20
28.70874690469444
 30
0.0
 11
172.1431021029916
 21
102.5389257816018
 31
0.0
  0
LINE
  5
111
330
E3
100
AcDbEntity
  8
0
  6
Continuous
100
AcDbLine
 10
172.1431021029916
 20
102.5389229688871
 30
0.0
 11
162.1431022405556
 21
100.7756533929362
 31
0.0
  0
LINE
  5
112
330
E3
100
AcDbEntity
  8
0
  6
Continuous
100
AcDbLine
 10
162.1431022405556
 20
100.7756562056509
 30
0.0
 11
162.1431022405556
 21
28.70874690469444
 31
0.0
  0
HATCH
  5
113
330
E3
100
AcDbEntity
  8
0
  6
Continuous
 62
   255
370
     0
100
AcDbHatch
 10
0.0
 20
0.0
 30
0.0
210
0.0
220
0.0
230
1.0
  2
SOLID
 70
     1
 71
     0
 91
        1
 92
        3
 72
     0
 73
     1
 93
        4
 10
139.9280922574479
 20
28.70874831981048
 10
35.31939329414725
 20
69.2247062776317
 10
35.31939329414725
 20
58.50086102426148
 10
112.24005036449
 20
28.70874831981048
 97
        0
 75
     0
 76
     1
 98
        0
  0
LINE
  5
114
330
E3
100
AcDbEntity
  8
0
  6
Continuous
100
AcDbLine
 10
139.9280952367266
 20
28.70874659496576
 30
0.0
 11
35.31939279626983
 21
69.22470760201318
 31
0.0
  0
LINE
  5
115
330
E3
100
AcDbEntity
  8
0
  6
Continuous
100
AcDbLine
 10
35.31939329414725
 20
58.50086102426148
 30
0.0
 11
112.24005036449
 21
28.70874831981048
 31
0.0
  0
HATCH
  5
116
330
E3
100
AcDbEntity
  8
0
  6
Continuous
 62
   253
370
    25
100
AcDbHatch
 10
0.0
 20
0.0
 30
0.0
210
0.0
220
0.0
230
1.0
  2
SOLID
 70
     1
 71
     0
 91
        1
 92
        3
 72
     0
 73
     1
 93
        4
 10
170.1888661653691
 20
131.7112212649197
 10
169.5637327257682
 20
135.2565291757636
 10
64.55419063905512
 20
116.7405136740349
 10
65.1793240786561
 20
113.195205763191
 97
        0
 75
     0
 76
     1
 98
        0
  0
LINE
  5
117
330
E3
100
AcDbEntity
  8
0
  6
Continuous
100
AcDbLine
 10
169.5637339925648
 20
135.2565282356763
 30
0.0
 11
170.1888670155118
 21
131.7112223152791
 31
0.0
  0
LINE
  5
118
330
E3
100
AcDbEntity
  8
0
  6
Continuous
100
AcDbLine
 10
64.55419105914916
 20
116.7405131868475
 30
0.0
 11
169.5637339925648
 21
135.2565282356763
 31
0.0
  0
LINE
  5
119
330
E3
100
AcDbEntity
  8
0
  6
Continuous
100
AcDbLine
 10
65.17932408209619
 20
113.1952072664503
 30
0.0
 11
64.55419105914916
 21
116.7405131868475
 31
0.0
  0
LINE
  5
11A
330
E3
100
AcDbEntity
  8
0
  6
Continuous
100
AcDbLine
 10
170.1888670155118
 20
131.7112223152791
 30
0.0
 11
65.17932408209619
 21
113.1952072664503
 31
0.0
  0
HATCH
  5
11B
330
E3
100
AcDbEntity
  8
0
  6
Continuous
 62
   255
370
     0
100
AcDbHatch
 10
0.0
 20
0.0
 30
0.0
210
0.0
220
0.0
230
1.0
  2
SOLID
 70
     1
 71
     0
 91
        1
 92
        3
 72
     0
 73
     1
 93
        4
 10
160.2022524963973
 20
127.8499487897371
 10
146.4149439542264
 20
125.4188743024001
 10
147.9777775532288
 20
116.5556045252902
 10
161.7650860953997
 20
118.9866790126273
 97
        0
 75
     0
 76
     1
 98
        0
  0
LINE
  5
11C
330
E3
100
AcDbEntity
  8
0
  6
Continuous
100
AcDbLine
 10
161.7650859037199
 20
118.9866787970011
 30
0.0
 11
146.4149436948675
 21
125.4188743086133
 31
0.0
  0
LINE
  5
11D
330
E3
100
AcDbEntity
  8
0
  6
Continuous
100
AcDbLine
 10
160.202251651683
 20
127.8499486820023
 30
0.0
 11
147.9777779469045
 21
116.5556044236121
 31
0.0
  0
LINE
  5
11E
330
E3
100
AcDbEntity
  8
0
  6
Continuous
100
AcDbLine
 10
160.202251651683
 20
127.8499486820023
 30
0.0
 11
161.7650859037199
 21
118.9866787970011
 31
0.0
  0
LINE
  5
11F
330
E3
100
AcDbEntity
  8
0
  6
Continuous
100
AcDbLine
 10
161.7650859037199
 20
118.9866787970011
 30
0.0
 11
147.9777779469045
 21
116.5556044236121
 31
0.0
  0
LINE
  5
120
330
E3
100
AcDbEntity
  8
0
  6
Continuous
100
AcDbLine
 10
147.9777779469045
 20
116.5556044236121
 30
0.0
 11
146.4149436948675
 21
125.4188743086133
 31
0.0
  0
LINE
  5
121
330
E3
100
AcDbEntity
  8
0
  6
Continuous
100
AcDbLine
 10
146.4149436948675
 20
125.4188743086133
 30
0.0
 11
160.202251651683
 21
127.8499486820023
 31
0.0
  0
HATCH
  5
122
330
E3
100
AcDbEntity
  8
0
  6
Continuous
 62
   255
370
     0
100
AcDbHatch
 10
0.0
 20
0.0
 30
0.0
210
0.0
220
0.0
230
1.0
  2
SOLID
 70
     1
 71
     0
 91
        1
 92
        3
 72
     0
 73
     1
 93
        9
 10
35.31939137848009
 20
130.1708836776592
 10
35.31939137848009
 20
109.4544118487777
 10
40.10157342136979
 20
82.33331144094922
 10
117.7124420704056
 20
82.33331144094922
 10
113.842211870671
 20
104.2824810412963
 10
107.6106809891257
 20
105.595556424121
 10
119.379147949273
 20
106.9086352507166
 10
113.1476170677277
 20
108.2217106335413
 10
109.2773868679931
 20
130.1708836776592
 97
        0
 75
     0
 76
     1
 98
        0
  0
LINE
  5
123
330
E3
100
AcDbEntity
  8
0
  6
Continuous
100
AcDbLine
 10
109.2773865361472
 20
130.1708831043301
 30
0.0
 11
113.1476181916623
 21
108.2217119640265
 31
0.0
  0
LINE
  5
124
330
E3
100
AcDbEntity
  8
0
  6
Continuous
100
AcDbLine
 10
113.8422089330085
 20
104.2824801508396
 30
0.0
 11
117.7124405885235
 21
82.33331239987477
 31
0.0
  0
LINE
  5
125
330
E3
100
AcDbEntity
  8
0
  6
Continuous
100
AcDbLine
 10
113.8422089330085
 20
104.2824801508396
 30
0.0
 11
107.6106792203433
 21
105.5955574219019
 31
0.0
  0
LINE
  5
126
330
E3
100
AcDbEntity
  8
0
  6
Continuous
100
AcDbLine
 10
107.6106792203433
 20
105.5955574219019
 30
0.0
 11
119.3791479043275
 21
106.9086346929642
 31
0.0
  0
LINE
  5
127
330
E3
100
AcDbEntity
  8
0
  6
Continuous
100
AcDbLine
 10
119.3791479043275
 20
106.9086346929642
 30
0.0
 11
113.1476181916623
 21
108.2217119640265
 31
0.0
  0
HATCH
  5
128
330
E3
100
AcDbEntity
  8
Doc_ Finishes
  6
Continuous
 62
   255
370
    18
100
AcDbHatch
 10
0.0
 20
0.0
 30
0.0
210
0.0
220
0.0
230
1.0
  2
SOLID
 70
     1
 71
     0
 91
        1
 92
        3
 72
     0
 73
     1
 93
        4
 10
35.31939101362769
 20
28.70874774669871
 10
161.8305645617754
 20
28.70874774669871
 10
65.10936523507551
 20
110.5185131266177
 10
35.31939101362769
 20
109.5666333625265
 97
        0
 75
     0
 76
     1
 98
        0
  0
LINE
  5
129
330
E3
100
AcDbEntity
  8
Doc_ Finishes
  6
Continuous
 62
   255
370
    18
100
AcDbLine
 10
35.3193913749998
 20
109.5666300440814
 30
0.0
 11
65.10936570738224
 21
110.5185100367246
 31
0.0
  0
LINE
  5
12A
330
E3
100
AcDbEntity
  8
Doc_ Finishes
  6
Continuous
 62
   255
370
    18
100
AcDbLine
 10
65.10936474156642
 20
110.5185101510925
 30
0.0
 11
161.8305611491224
 21
28.70874672708527
 31
0.0
  0
HATCH
  5
12B
330
E3
100
AcDbEntity
  8
0
  6
Continuous
 62
   255
370
     0
100
AcDbHatch
 10
0.0
 20
0.0
 30
0.0
210
0.0
220
0.0
230
1.0
  2
SOLID
 70
     1
 71
     0
 91
        1
 92
        3
 72
     0
 73
     1
 93
        8
 10
153.4794459646313
 20
68.80288870772434
 10
153.4794459646313
 20
28.70875044434523
 10
201.317013537832
 20
28.70875044434523
 10
201.317013537832
 20
77.23794242281807
 10
179.3678445436156
 20
73.36770593514608
 10
178.0547727990724
 20
79.13618182915793
 10
176.74169387896
 20
66.9046493013844
 10
175.4286149588477
 20
72.67311801982717
 97
        0
 75
     0
 76
     1
 98
        0
  0
LINE
  5
12C
330
E3
100
AcDbEntity
  8
0
  6
Continuous
100
AcDbLine
 10
153.4794440701593
 20
68.80288581402445
 30
0.0
 11
175.4286152104629
 21
72.6731174695395
 31
0.0
  0
LINE
  5
12D
330
E3
100
AcDbEntity
  8
0
  6
Continuous
100
AcDbLine
 10
179.3678470236497
 20
73.36770821088567
 30
0.0
 11
201.3170181639533
 21
77.23793986640071
 31
0.0
  0
LINE
  5
12E
330
E3
100
AcDbEntity
  8
0
  6
Continuous
100
AcDbLine
 10
179.3678470236497
 20
73.36770821088567
 30
0.0
 11
178.0547697525875
 21
79.13617968887924
 31
0.0
  0
LINE
  5
12F
330
E3
100
AcDbEntity
  8
0
  6
Continuous
100
AcDbLine
 10
178.0547697525875
 20
79.13617968887924
 30
0.0
 11
176.7416924815251
 21
66.90464599154595
 31
0.0
  0
LINE
  5
130
330
E3
100
AcDbEntity
  8
0
  6
Continuous
100
AcDbLine
 10
176.7416924815251
 20
66.90464599154595
 30
0.0
 11
175.4286152104629
 21
72.6731174695395
 31
0.0
  0
LINE
  5
132
330
E3
100
AcDbEntity
  8
0
  6
Dashed
100
AcDbLine
 10
169.2633707951544
 20
159.6084626030366
 30
0.0
 11
169.2633707951544
 21
145.9392459859206
 31
0.0
  0
LINE
  5
133
330
E3
100
AcDbEntity
  8
0
  6
Dashed
100
AcDbLine
 10
171.3216721387084
 20
131.1379563427718
 30
0.0
 11
171.3216721387084
 21
161.9073832703747
 31
0.0
  0
LINE
  5
134
330
E3
100
AcDbEntity
  8
0
  6
Dashed
100
AcDbLine
 10
169.2633707951544
 20
159.6084626030366
 30
0.0
 11
170.0084084540164
 21
160.2510812244427
 31
0.0
  0
LINE
  5
135
330
E3
100
AcDbEntity
  8
0
  6
Dashed
100
AcDbLine
 10
170.0084084540164
 20
160.2510812244427
 30
0.0
 11
170.0084084540164
 21
192.5142914063299
 31
0.0
  0
LINE
  5
136
330
E3
100
AcDbEntity
  8
0
  6
Continuous
100
AcDbLine
 10
77.50904692216226
 20
52.80019083197621
 30
0.0
 11
201.872151174306
 21
52.80019083197621
 31
0.0
  0
LINE
  5
137
330
E3
100
AcDbEntity
  8
0
  6
Continuous
100
AcDbLine
 10
177.9021342726486
 20
60.88655649546526
 30
0.0
 11
177.9021342726486
 21
31.27900504926459
 31
0.0
  0
LINE
  5
138
330
E3
100
AcDbEntity
  8
0
  6
Continuous
100
AcDbLine
 10
77.50904692216226
 20
31.27900504926459
 30
0.0
 11
77.50904692216226
 21
52.80019083197621
 31
0.0
  0
LINE
  5
139
330
E3
100
AcDbEntity
  8
0
  6
Continuous
100
AcDbLine
 10
153.9321173709913
 20
60.88655649546526
 30
0.0
 11
153.9321173709913
 21
31.27900504926459
 31
0.0
  0
LINE
  5
13A
330
E3
100
AcDbEntity
  8
0
  6
Continuous
100
AcDbLine
 10
77.50904692216226
 20
42.03959624595105
 30
0.0
 11
201.872151174306
 21
42.03959624595105
 31
0.0
  0
LINE
  5
13B
330
E3
100
AcDbEntity
  8
0
  6
Continuous
100
AcDbLine
 10
77.50904692216226
 20
31.27900504926459
 30
0.0
 11
201.872151174306
 21
31.27900504926459
 31
0.0
  0
LINE
  5
13C
330
E3
100
AcDbEntity
  8
0
  6
Continuous
100
AcDbLine
 10
153.9321173709913
 20
60.88655649546526
 30
0.0
 11
177.9021342726486
 21
60.88655649546526
 31
0.0
  0
LINE
  5
13D
330
E3
100
AcDbEntity
  8
0
  6
Continuous
100
AcDbLine
 10
201.872151174306
 20
60.88655649546526
 30
0.0
 11
201.872151174306
 21
31.27900504926459
 31
0.0
  0
LINE
  5
13E
330
E3
100
AcDbEntity
  8
0
  6
Continuous
100
AcDbLine
 10
177.9021342726486
 20
60.88655649546526
 30
0.0
 11
201.872151174306
 21
60.88655649546526
 31
0.0
  0
LINE
  5
13F
330
E3
100
AcDbEntity
  8
0
  6
Dashed
100
AcDbLine
 10
171.3216721387084
 20
131.1379563427718
 30
0.0
 11
110.9828712762524
 21
120.4985984027788
 31
0.0
  0
LINE
  5
140
330
E3
100
AcDbEntity
  8
0
  6
Dashed
100
AcDbLine
 10
154.3679321010276
 20
133.6173491289602
 30
0.0
 11
151.7012580144995
 21
133.147142778927
 31
0.0
  0
LINE
  5
141
330
E3
100
AcDbEntity
  8
0
  6
Continuous
 62
     9
370
    18
100
AcDbLine
 10
169.5637339925648
 20
135.2565282356763
 30
0.0
 11
168.2571303584586
 21
131.3706039418854
 31
0.0
  0
LWPOLYLINE
  5
142
330
E3
100
AcDbEntity
  8
0
  6
Continuous
100
AcDbPolyline
 90
        4
 70
   128
 43
0.0
 10
163.581717680206
 20
143.5869026451522
 10
163.581717680206
 20
141.6372883669138
 10
168.6556742533892
 20
141.6372883669138
 10
168.6556742533892
 20
153.5599295299867
  0
LWPOLYLINE
  5
143
330
E3
100
AcDbEntity
  8
0
  6
Continuous
100
AcDbPolyline
 90
        9
 70
   128
 43
0.0
 10
147.3133382413222
 20
130.955401011848
 10
144.9529255515327
 20
130.6167280937637
 10
144.5307918521371
 20
131.0388617931594
 10
144.7839858652657
 20
131.560878896382
 10
170.384568453797
 20
136.0750681237822
 10
170.384568453797
 20
157.129131574292
 10
170.1242965052128
 20
157.3697979812986
 10
169.8391386366046
 20
157.0587166700896
 10
169.8391386366046
 20
154.932994376828
  0
LWPOLYLINE
  5
144
330
E3
100
AcDbEntity
  8
0
  6
Continuous
100
AcDbPolyline
 90
        7
 70
   128
 43
0.0
 10
145.1015862519976
 20
131.1304064338038
 10
147.758729951953
 20
131.54630718684
 10
147.758729951953
 20
130.4102819817865
 10
144.2928903433155
 20
129.8711513759984
 10
143.9077970534669
 20
128.5425795260209
 10
142.9450638288454
 20
127.3680449919825
 10
141.9245666107466
 20
126.9444423731491
  0
HATCH
  5
145
330
E3
100
AcDbEntity
  8
0
  6
Continuous
 62
   255
370
     0
100
AcDbHatch
 10
0.0
 20
0.0
 30
0.0
210
0.0
220
0.0
230
1.0
  2
SOLID
 70
     1
 71
     0
 91
        1
 92
        3
 72
     0
 73
     1
 93
        8
 10
152.5676181117994
 20
174.3594628117657
 10
174.715964741455
 20
178.264813347643
 10
176.0290395269705
 20
172.4963465586998
 10
177.342119413965
 20
184.7278771135459
 10
178.6551941994804
 20
178.9594052231237
 10
200.8035408291361
 20
182.864755759001
 10
200.8035408291361
 20
192.5142951451823
 10
152.5676181117994
 20
192.5142951451823
 97
        0
 75
     0
 76
     1
 98
        0
  0
LINE
  5
146
330
E3
100
AcDbEntity
  8
0
  6
Continuous
100
AcDbLine
 10
152.5676170528616
 20
174.3594646275894
 30
0.0
 11
174.7159626830752
 21
178.2648132215875
 31
0.0
  0
LINE
  5
147
330
E3
100
AcDbEntity
  8
0
  6
Continuous
100
AcDbLine
 10
178.6551944962621
 20
178.9594073522724
 30
0.0
 11
200.8035401264756
 21
182.8647593356093
 31
0.0
  0
LINE
  5
148
330
E3
100
AcDbEntity
  8
0
  6
Continuous
100
AcDbLine
 10
178.6551944962621
 20
178.9594073522724
 30
0.0
 11
177.3421172251998
 21
184.7278754409272
 31
0.0
  0
LINE
  5
149
330
E3
100
AcDbEntity
  8
0
  6
Continuous
100
AcDbLine
 10
177.3421172251998
 20
184.7278754409272
 30
0.0
 11
176.0290399541375
 21
172.4963451329327
 31
0.0
  0
LINE
  5
14A
330
E3
100
AcDbEntity
  8
0
  6
Continuous
100
AcDbLine
 10
176.0290399541375
 20
172.4963451329327
 30
0.0
 11
174.7159626830752
 21
178.2648132215875
 31
0.0
  0
LINE
  5
14B
330
E3
100
AcDbEntity
  8
Doc_ Floor
  6
Continuous
100
AcDbLine
 10
149.6044266683709
 20
135.0970666275544
 30
0.0
 11
149.6044266683709
 21
136.0750670940311
 31
0.0
  0
LINE
  5
14C
330
E3
100
AcDbEntity
  8
Doc_ Floor
  6
Continuous
100
AcDbLine
 10
149.6044266683709
 20
136.0750670940311
 30
0.0
 11
149.6044266683709
 21
142.9934598557597
 31
0.0
  0
LINE
  5
14D
330
E3
100
AcDbEntity
  8
Doc_ Floor
  6
Continuous
100
AcDbLine
 10
148.6044260042596
 20
136.6524172196965
 30
0.0
 11
150.6044273324823
 21
135.4977169683656
 31
0.0
  0
LINE
  5
14E
330
E3
100
AcDbEntity
  8
Doc_ Floor
  6
Continuous
100
AcDbLine
 10
150.6044273324823
 20
142.4161131194329
 30
0.0
 11
148.6044260042596
 21
143.5708099814252
 31
0.0
  0
LINE
  5
14F
330
E3
100
AcDbEntity
  8
Doc_ Floor
  6
Continuous
100
AcDbLine
 10
149.6044266683709
 20
142.9934598557597
 30
0.0
 11
149.6044266683709
 21
143.9714603222363
 31
0.0
  0
LINE
  5
150
330
E3
100
AcDbEntity
  8
Doc_ Floor
  6
Continuous
100
AcDbLine
 10
151.1044259698686
 20
136.0750670940311
 30
0.0
 11
148.1044273668732
 21
136.0750670940311
 31
0.0
  0
LINE
  5
151
330
E3
100
AcDbEntity
  8
Doc_ Floor
  6
Continuous
100
AcDbLine
 10
151.1044259698686
 20
142.9934598557597
 30
0.0
 11
148.1044273668732
 21
142.9934598557597
 31
0.0
  0
MTEXT
  5
152
330
E3
100
AcDbEntity
  8
Doc_ Floor
  6
Continuous
100
AcDbMText
 10
136.9638256135995
 20
138.4715294500545
 30
0.0
 40
2.5
 41
0.0
 71
     7
 72
     1
  1
{35 MIN.}
  7
GENERATED_STYLE_1
 73
     1
 44
1.0
  0
LINE
  5
153
330
E3
100
AcDbEntity
  8
Doc_ Floor
  6
Continuous
100
AcDbLine
 10
149.6044266683709
 20
142.0154627786218
 30
0.0
 11
149.6044266683709
 21
142.9934598557597
 31
0.0
  0
LINE
  5
154
330
E3
100
AcDbEntity
  8
Doc_ Floor
  6
Continuous
100
AcDbLine
 10
149.6044266683709
 20
142.9934598557597
 30
0.0
 11
149.6044266683709
 21
157.1291308249452
 31
0.0
  0
LINE
  5
155
330
E3
100
AcDbEntity
  8
Doc_ Floor
  6
Continuous
100
AcDbLine
 10
148.6044260042596
 20
143.5708099814252
 30
0.0
 11
150.6044273324823
 21
142.4161131194329
 31
0.0
  0
LINE
  5
156
330
E3
100
AcDbEntity
  8
Doc_ Floor
  6
Continuous
100
AcDbLine
 10
150.6044273324823
 20
156.5517806992797
 30
0.0
 11
148.6044260042596
 21
157.7064809506106
 31
0.0
  0
LINE
  5
157
330
E3
100
AcDbEntity
  8
Doc_ Floor
  6
Continuous
100
AcDbLine
 10
149.6044266683709
 20
157.1291308249452
 30
0.0
 11
149.6044266683709
 21
158.1071312914218
 31
0.0
  0
LINE
  5
158
330
E3
100
AcDbEntity
  8
Doc_ Floor
  6
Continuous
100
AcDbLine
 10
151.1044259698686
 20
142.9934598557597
 30
0.0
 11
148.1044273668732
 21
142.9934598557597
 31
0.0
  0
LINE
  5
159
330
E3
100
AcDbEntity
  8
Doc_ Floor
  6
Continuous
100
AcDbLine
 10
151.1044259698686
 20
157.1291308249452
 30
0.0
 11
148.1044273668732
 21
157.1291308249452
 31
0.0
  0
MTEXT
  5
15A
330
E3
100
AcDbEntity
  8
Doc_ Floor
  6
Continuous
100
AcDbMText
 10
146.3203519561371
 20
149.095618133549
 30
0.0
 40
2.5
 41
0.0
 71
     7
 72
     1
  1
{A}
  7
GENERATED_STYLE_1
 73
     1
 44
1.0
  0
LINE
  5
15B
330
E3
100
AcDbEntity
  8
Doc_ Floor
  6
Continuous
100
AcDbLine
 10
169.8871684186456
 20
139.054309386702
 30
0.0
 11
168.9240268131196
 21
138.8844797914342
 31
0.0
  0
LINE
  5
15C
330
E3
100
AcDbEntity
  8
Doc_ Floor
  6
Continuous
100
AcDbLine
 10
168.9240268131196
 20
138.8844797914342
 30
0.0
 11
143.9246575740314
 21
134.4764176997346
 31
0.0
  0
LINE
  5
15D
330
E3
100
AcDbEntity
  8
Doc_ Floor
  6
Continuous
100
AcDbLine
 10
168.5290976760687
 20
137.7994168934545
 30
0.0
 11
169.3189593395092
 21
139.9695426894138
 31
0.0
  0
LINE
  5
15E
330
E3
100
AcDbEntity
  8
Doc_ Floor
  6
Continuous
100
AcDbLine
 10
144.3195901004211
 20
135.5614805977143
 30
0.0
 11
143.5297284369805
 21
133.391354801755
 31
0.0
  0
LINE
  5
15F
330
E3
100
AcDbEntity
  8
Doc_ Floor
  6
Continuous
100
AcDbLine
 10
143.9246575740314
 20
134.4764176997346
 30
0.0
 11
142.9615159685055
 21
134.3065881044667
 31
0.0
  0
LINE
  5
160
330
E3
100
AcDbEntity
  8
Doc_ Floor
  6
Continuous
100
AcDbLine
 10
168.6635561324495
 20
140.3616925687139
 30
0.0
 11
169.1845008831284
 21
137.4072670141544
 31
0.0
  0
LINE
  5
161
330
E3
100
AcDbEntity
  8
Doc_ Floor
  6
Continuous
100
AcDbLine
 10
143.6641868933613
 20
135.9536270876757
 30
0.0
 11
144.1851316440403
 21
132.9992049224549
 31
0.0
  0
MTEXT
  5
162
330
E3
100
AcDbEntity
  8
Doc_ Floor
  6
Continuous
100
AcDbMText
 10
155.3411245109036
 20
136.9971612105435
 30
0.0
 40
2.5
 41
0.0
 71
     7
 72
     1
  1
{B}
  7
GENERATED_STYLE_1
 11
0.9848077530122079
 21
0.173648177666931
 31
0.0
 73
     1
 44
1.0
  0
MTEXT
  5
163
330
E3
100
AcDbEntity
  8
Doc_ Floor
  6
Continuous
100
AcDbMText
 10
200.4460231647613
 20
177.6695520222605
 30
0.0
 40
2.499999999999999
 41
0.0
 71
     4
 72
     1
  1
{HEM TO FLASHING EDGE}
  7
GENERATED_STYLE_1
 73
     1
 44
1.0
  0
LINE
  5
164
330
E3
100
AcDbEntity
  8
Doc_ Floor
  6
Continuous
100
AcDbLine
 10
170.3845674332333
 20
156.1275812330385
 30
0.0
 11
172.5096150242099
 21
159.3544011618869
 31
0.0
  0
LINE
  5
165
330
E3
100
AcDbEntity
  8
Doc_ Floor
  6
Continuous
100
AcDbLine
 10
170.3845674332333
 20
156.1275812330385
 30
0.0
 11
173.8383239254512
 21
157.8595638232605
 31
0.0
  0
LINE
  5
166
330
E3
100
AcDbEntity
  8
Doc_ Floor
  6
Continuous
100
AcDbLine
 10
172.5096150242099
 20
159.3544011618869
 30
0.0
 11
173.8383239254512
 21
157.8595638232605
 31
0.0
  0
LWPOLYLINE
  5
167
330
E3
100
AcDbEntity
  8
Doc_ Floor
  6
Continuous
100
AcDbPolyline
 90
        9
 70
   128
 43
0.0
 10
173.1739701144869
 20
158.6069833482173
 10
183.5796378950876
 20
167.5988932679498
 10
187.6422660050661
 20
170.9053244533409
 10
191.0411794085974
 20
173.4902757882468
 10
193.8486949660071
 20
175.4073992720415
 10
196.1371295376206
 20
176.7103469040987
 10
197.9787999837635
 20
177.4527706837922
 10
198.7546976786352
 20
177.6305523788069
 10
199.4460231647613
 20
177.6883226104958
  0
MTEXT
  5
169
330
E3
100
AcDbEntity
  8
Doc_ Floor
  6
Continuous
100
AcDbMText
 10
114.3049395485372
 20
138.7731514917907
 30
0.0
 40
2.5
 41
56.6835322004004
 71
     6
 72
     1
  1
\A1;{\fCentury Gothic|b0|i0|c0|p34;TRS CORRUGATE\PMIN. ROOF PITCH 8\fArial|b0|i0|c0|p34;\H1.029412x;\U+00B0}
  7
GENERATED_STYLE_1
 73
     1
 44
1.056356172275314
  0
LINE
  5
16A
330
E3
100
AcDbEntity
  8
Doc_ Floor
  6
Continuous
100
AcDbLine
 10
133.0187281436714
 20
128.8126598415108
 30
0.0
 11
129.6929632495556
 21
130.7792524579655
 31
0.0
  0
LINE
  5
16B
330
E3
100
AcDbEntity
  8
Doc_ Floor
  6
Continuous
100
AcDbLine
 10
133.0187281436714
 20
128.8126598415108
 30
0.0
 11
131.1218271099875
 21
132.1786595755776
 31
0.0
  0
LINE
  5
16C
330
E3
100
AcDbEntity
  8
Doc_ Floor
  6
Continuous
100
AcDbLine
 10
129.6929632495556
 20
130.7792524579655
 30
0.0
 11
131.1218271099875
 21
132.1786595755776
 31
0.0
  0
LWPOLYLINE
  5
16D
330
E3
100
AcDbEntity
  8
Doc_ Floor
  6
Continuous
100
AcDbPolyline
 90
        9
 70
   128
 43
0.0
 10
130.4073954656925
 20
131.4789564183482
 10
128.377104785445
 20
133.3503193974558
 10
126.4559359280536
 20
134.9096452965733
 10
124.6096827950335
 20
136.1762046001181
 10
122.8041392879001
 20
137.1692677925072
 10
121.0050993081685
 20
137.9081053581577
 10
119.178356757354
 20
138.4119877814868
 10
117.2897055369718
 20
138.7001855469117
 10
115.3049395485372
 20
138.7919691388495
  0
MTEXT
  5
16E
330
E3
100
AcDbEntity
  8
Doc_ Floor
  6
Continuous
100
AcDbMText
 10
91.91517509131607
 20
113.1694531874993
 30
0.0
 40
2.5
 41
0.0
 71
     6
 72
     1
  1
{UNDERLAY}
  7
GENERATED_STYLE_1
 73
     1
 44
1.0
  0
LINE
  5
16F
330
E3
100
AcDbEntity
  8
Doc_ Floor
  6
Continuous
100
AcDbLine
 10
119.2904997500929
 20
121.9634570404223
 30
0.0
 11
117.2817573173101
 21
118.6629766131614
 31
0.0
  0
LINE
  5
170
330
E3
100
AcDbEntity
  8
Doc_ Floor
  6
Continuous
100
AcDbLine
 10
119.2904997500929
 20
121.9634570404223
 30
0.0
 11
115.9006390714338
 21
120.1095294323756
 31
0.0
  0
LINE
  5
171
330
E3
100
AcDbEntity
  8
Doc_ Floor
  6
Continuous
100
AcDbLine
 10
117.2817573173101
 20
118.6629766131614
 30
0.0
 11
115.9006390714338
 21
120.1095294323756
 31
0.0
  0
LWPOLYLINE
  5
172
330
E3
100
AcDbEntity
  8
Doc_ Floor
  6
Continuous
100
AcDbPolyline
 90
        9
 70
   128
 43
0.0
 10
116.5911987232457
 20
119.3862536451253
 10
114.4856759865963
 20
117.8101035511923
 10
112.2328850766837
 20
116.4961232048868
 10
109.7844629062335
 20
115.4282801536087
 10
107.0920463879714
 20
114.5905419447575
 10
104.1072724346229
 20
113.9668761257331
 10
100.7817779589138
 20
113.5412502439351
 10
97.06719987356962
 20
113.2976318467631
 10
92.91517509131607
 20
113.219988481617
  0
MTEXT
  5
173
330
E3
100
AcDbEntity
  8
Doc_ Floor
  6
Continuous
100
AcDbMText
 10
200.4460231647613
 20
106.4103931793979
 30
0.0
 40
2.5
 41
0.0
 71
     4
 72
     1
  1
{ROOF FIXING}
  7
GENERATED_STYLE_1
 73
     1
 44
1.0
  0
LINE
  5
174
330
E3
100
AcDbEntity
  8
Doc_ Floor
  6
Continuous
100
AcDbLine
 10
154.4887349117035
 20
125.0284089306573
 30
0.0
 11
157.3199546144343
 21
122.3992649917812
 31
0.0
  0
LINE
  5
175
330
E3
100
AcDbEntity
  8
Doc_ Floor
  6
Continuous
100
AcDbLine
 10
154.4887349117035
 20
125.0284089306573
 30
0.0
 11
155.6260681914306
 21
121.3358938616127
 31
0.0
  0
LINE
  5
176
330
E3
100
AcDbEntity
  8
Doc_ Floor
  6
Continuous
100
AcDbLine
 10
157.3199546144343
 20
122.3992649917812
 30
0.0
 11
155.6260681914306
 21
121.3358938616127
 31
0.0
  0
LWPOLYLINE
  5
177
330
E3
100
AcDbEntity
  8
Doc_ Floor
  6
Continuous
100
AcDbPolyline
 90
       17
 70
   128
 43
0.0
 10
156.4730117023165
 20
121.8675782633272
 10
158.0003891642899
 20
119.7990008898474
 10
159.6223405552775
 20
117.9023550111807
 10
161.3516981977599
 20
116.1723317775099
 10
163.2012944142179
 20
114.6036223390179
 10
165.183961527132
 20
113.1909178458877
 10
167.3125318589829
 20
111.928909448302
 10
169.5998377322513
 20
110.8122882964439
 10
172.0587114694178
 20
109.8357455404961
 10
174.7019853929631
 20
108.9939723306416
 10
177.5424918253678
 20
108.2816598170632
 10
180.5930630891127
 20
107.6934991499438
 10
183.8665315066783
 20
107.2241814794664
 10
187.3757294005453
 20
106.8683979558137
 10
191.1334890931943
 20
106.6208397291687
 10
195.1526429071061
 20
106.4761979497142
 10
199.4460231647613
 20
106.4291637676332
  0
MTEXT
  5
178
330
E3
100
AcDbEntity
  8
Doc_ Floor
  6
Continuous
100
AcDbMText
 10
139.667516328832
 20
92.25528789756783
 30
0.0
 40
2.499999999999999
 41
0.0
 71
     6
 72
     1
  1
{PURLIN}
  7
GENERATED_STYLE_1
 73
     1
 44
1.0
  0
LINE
  5
179
330
E3
100
AcDbEntity
  8
Doc_ Floor
  6
Continuous
100
AcDbLine
 10
152.8659568150559
 20
119.9635675603774
 30
0.0
 11
153.2407431120909
 21
116.1180848561994
 31
0.0
  0
LINE
  5
17A
330
E3
100
AcDbEntity
  8
Doc_ Floor
  6
Continuous
100
AcDbLine
 10
152.8659568150559
 20
119.9635675603774
 30
0.0
 11
151.2677887068577
 21
116.4458881398909
 31
0.0
  0
LINE
  5
17B
330
E3
100
AcDbEntity
  8
Doc_ Floor
  6
Continuous
100
AcDbLine
 10
153.2407431120909
 20
116.1180848561994
 30
0.0
 11
151.2677887068577
 21
116.4458881398909
 31
0.0
  0
LWPOLYLINE
  5
17C
330
E3
100
AcDbEntity
  8
Doc_ Floor
  6
Continuous
100
AcDbPolyline
 90
       14
 70
   128
 43
0.0
 10
152.2542666494834
 20
116.281986560521
 10
151.0924473763438
 20
110.1158731366919
 10
149.9078142337513
 20
104.9891006036638
 10
148.6708420825835
 20
100.8347260878539
 10
148.0235022728081
 20
99.10126843841118
 10
147.3520057837181
 20
97.58580671567957
 10
146.6526619729229
 20
96.27997306046119
 10
145.9217801980325
 20
95.1753996135582
 10
145.1556698166565
 20
94.26371851577281
 10
144.3506401864046
 20
93.53656190790716
 10
143.5030006648865
 20
92.98556193076344
 10
142.6090606097119
 20
92.6023507251438
 10
141.6651293784905
 20
92.37856043185043
 10
140.667516328832
 20
92.30582319168548
  0
MTEXT
  5
17D
330
E3
100
AcDbEntity
  8
Doc_ Floor
  6
Continuous
100
AcDbMText
 10
114.3049395485372
 20
148.5130455153593
 30
0.0
 40
2.5
 41
0.0
 71
     6
 72
     1
  1
{SOFT EDGE DRESSED OVER CORRUGATE}
  7
GENERATED_STYLE_1
 73
     1
 44
1.0
  0
LINE
  5
17E
330
E3
100
AcDbEntity
  8
Doc_ Floor
  6
Continuous
100
AcDbLine
 10
145.1015851086914
 20
131.1304048961026
 30
0.0
 11
141.566928490554
 21
132.6906598613732
 31
0.0
  0
LINE
  5
17F
330
E3
100
AcDbEntity
  8
Doc_ Floor
  6
Continuous
100
AcDbLine
 10
145.1015851086914
 20
131.1304048961026
 30
0.0
 11
142.8206076005396
 21
134.2489557888634
 31
0.0
  0
LINE
  5
180
330
E3
100
AcDbEntity
  8
Doc_ Floor
  6
Continuous
100
AcDbLine
 10
141.566928490554
 20
132.6906598613732
 30
0.0
 11
142.8206076005396
 21
134.2489557888634
 31
0.0
  0
LWPOLYLINE
  5
181
330
E3
100
AcDbEntity
  8
Doc_ Floor
  6
Continuous
100
AcDbPolyline
 90
        9
 70
   128
 43
0.0
 10
142.1937685551834
 20
133.4698069595958
 10
137.231178642974
 20
137.3432277527113
 10
132.8701005042705
 20
140.5638215274287
 10
129.0385620075167
 20
143.173620414359
 10
125.6645910211569
 20
145.2146565441135
 10
122.6762154136349
 20
146.7289620473031
 10
120.001463053395
 20
147.7585690545392
 10
117.568361808881
 20
148.3455096964326
 10
115.3049395485372
 20
148.5318161035946
  0
MTEXT
  5
182
330
E3
100
AcDbEntity
  8
Doc_ Floor
  6
Continuous
100
AcDbMText
 10
200.4460231647613
 20
119.44354036551
 30
0.0
 40
2.500000000000001
 41
0.0
 71
     4
 72
     1
  1
{STOPEND}
  7
GENERATED_STYLE_1
 73
     1
 44
1.0
  0
LINE
  5
183
330
E3
100
AcDbEntity
  8
Doc_ Floor
  6
Continuous
100
AcDbLine
 10
169.1606399385361
 20
132.4312669904162
 30
0.0
 11
172.8939118056947
 21
131.4358351549001
 31
0.0
  0
LINE
  5
184
330
E3
100
AcDbEntity
  8
Doc_ Floor
  6
Continuous
100
AcDbLine
 10
169.1606399385361
 20
132.4312669904162
 30
0.0
 11
171.8960328676224
 21
129.7025612266255
 31
0.0
  0
LINE
  5
185
330
E3
100
AcDbEntity
  8
Doc_ Floor
  6
Continuous
100
AcDbLine
 10
172.8939118056947
 20
131.4358351549001
 30
0.0
 11
171.8960328676224
 21
129.7025612266255
 31
0.0
  0
LWPOLYLINE
  5
186
330
E3
100
AcDbEntity
  8
Doc_ Floor
  6
Continuous
100
AcDbPolyline
 90
        9
 70
   128
 43
0.0
 10
172.3949714998111
 20
130.5691981273233
 10
177.4986414568468
 20
127.7138099674511
 10
181.9659915333714
 20
125.3393385305835
 10
185.8691404555095
 20
123.4149007785289
 10
189.2802069493857
 20
121.9096136730958
 10
192.2713097411245
 20
120.7925941760925
 10
194.9145675568503
 20
120.0329592493274
 10
197.2820991226877
 20
119.5998258546089
 10
199.4460231647613
 20
119.4623109537453
  0
MTEXT
  5
187
330
E3
100
AcDbEntity
  8
Doc_ Floor
  6
Continuous
100
AcDbMText
 10
101.4918736050076
 20
92.41867514365721
 30
0.0
 40
2.5
 41
0.0
 71
     6
 72
     1
  1
{ROOF FRAME}
  7
GENERATED_STYLE_1
 73
     1
 44
1.0
  0
LINE
  5
188
330
E3
100
AcDbEntity
  8
Doc_ Floor
  6
Continuous
100
AcDbLine
 10
128.9516335272538
 20
104.3539511364387
 30
0.0
 11
127.4907370265745
 21
100.7770836938762
 31
0.0
  0
LINE
  5
189
330
E3
100
AcDbEntity
  8
Doc_ Floor
  6
Continuous
100
AcDbLine
 10
128.9516335272538
 20
104.3539511364387
 30
0.0
 11
125.8980257537164
 21
101.9867386832213
 31
0.0
  0
LINE
  5
18A
330
E3
100
AcDbEntity
  8
Doc_ Floor
  6
Continuous
100
AcDbLine
 10
127.4907370265745
 20
100.7770836938762
 30
0.0
 11
125.8980257537164
 21
101.9867386832213
 31
0.0
  0
LWPOLYLINE
  5
18B
330
E3
100
AcDbEntity
  8
Doc_ Floor
  6
Continuous
100
AcDbPolyline
 90
       11
 70
   128
 43
0.0
 10
126.6943821636134
 20
101.3819108531095
 10
124.5385283402276
 20
99.0914559659033
 10
122.2398026470681
 20
97.18350526138705
 10
121.0203714117235
 20
96.36554183958586
 10
119.7454324838159
 20
95.63429189779497
 10
118.4083892883055
 20
94.98678458079365
 10
117.0026452501523
 20
94.4200490333612
 10
113.9586683457585
 20
93.51700982631989
 10
110.5607291703156
 20
92.90140743490524
 10
106.7560551235049
 20
92.54947501735138
 10
102.4918736050076
 20
92.43744573189251
  0
MTEXT
  5
18C
330
E3
100
AcDbEntity
  8
Doc_ Floor
  6
Continuous
100
AcDbMText
 10
114.230057081854
 20
176.6805839226762
 30
0.0
 40
2.5
 41
56.71228972547952
 71
     6
 72
     1
  1
{CLADDING ON CAVITY BATTENS WITH BUILDING WRAP OVER METAL HIDDEN GUTTER}
  7
GENERATED_STYLE_1
 73
     1
 44
1.065340909090909
  0
LINE
  5
18D
330
E3
100
AcDbEntity
  8
Doc_ Floor
  6
Continuous
100
AcDbLine
 10
161.0614659640223
 20
156.7586727134562
 30
0.0
 11
157.4724850248728
 21
158.1895498410881
 31
0.0
  0
LINE
  5
18E
330
E3
100
AcDbEntity
  8
Doc_ Floor
  6
Continuous
100
AcDbLine
 10
161.0614659640223
 20
156.7586727134562
 30
0.0
 11
158.6687555156107
 21
159.7923376179622
 31
0.0
  0
LINE
  5
18F
330
E3
100
AcDbEntity
  8
Doc_ Floor
  6
Continuous
100
AcDbLine
 10
157.4724850248728
 20
158.1895498410881
 30
0.0
 11
158.6687555156107
 21
159.7923376179622
 31
0.0
  0
LWPOLYLINE
  5
190
330
E3
100
AcDbEntity
  8
Doc_ Floor
  6
Continuous
100
AcDbPolyline
 90
       15
 70
   128
 43
0.0
 10
158.0706211529338
 20
158.9909433510778
 10
151.6379870397263
 20
163.5484575823993
 10
145.7423766130802
 20
167.336568325234
 10
142.9601508492426
 20
168.9576754526682
 10
140.2692156874751
 20
170.4051253850201
 10
137.6552493545879
 20
171.6851493479693
 10
135.1039300773908
 20
172.8039785671958
 10
132.6009360826938
 20
173.7678442683792
 10
130.1319455973069
 20
174.5829776771993
 10
127.6826368480399
 20
175.2556100193359
 10
125.238688061703
 20
175.7919725204687
 10
122.7857774651059
 20
176.1982964062777
 10
120.3095832850588
 20
176.4808129024424
 10
117.7957837483715
 20
176.6457532346428
 10
115.230057081854
 20
176.6993486285585
  0
MTEXT
  5
191
330
E3
100
AcDbEntity
  8
0
  6
Continuous
100
AcDbMText
 10
81.06497497887133
 20
43.95654790381578
 30
0.0
 40
2.499999999999999
 41
69.01187578516152
 71
     7
 72
     1
  1
\A1;{\fCentury Gothic|b0|i0|c0|p34;LOW, MEDIUM OR HIGH WIND ZONE.\P ROOF PITCH \fArial|b0|i0|c0|p34;\H1.029412x;\U+2265\fCentury Gothic|b0|i0|c0|p34;\H0.971429x; 10\fArial|b0|i0|c0|p34;\H1.029412x;\U+00B0}
  7
GENERATED_STYLE_1
 73
     1
 44
1.056355725756043
  0
MTEXT
  5
192
330
E3
100
AcDbEntity
  8
0
  6
Continuous
100
AcDbMText
 10
81.06497497887133
 20
33.53369551768853
 30
0.0
 40
2.5
 41
69.01187578516152
 71
     7
 72
     1
  1
\A1;{\fCentury Gothic|b0|i0|c0|p34;VERY HIGH OR EXTRA WIND ZONE.\P ROOF PITCH \fArial|b0|i0|c0|p34;\H1.029412x;<\fCentury Gothic|b0|i0|c0|p34;\H0.971429x; 10\fArial|b0|i0|c0|p34;\H1.029412x;\U+00B0}
  7
GENERATED_STYLE_1
 73
     1
 44
1.056355725756044
  0
MTEXT
  5
193
330
E3
100
AcDbEntity
  8
0
  6
Continuous
100
AcDbMText
 10
165.5643090354594
 20
45.99637563526122
 30
0.0
 40
2.499999999999999
 41
0.0
 71
     8
 72
     1
  1
{75MM}
  7
GENERATED_STYLE_1
 73
     1
 44
1.0
  0
MTEXT
  5
194
330
E3
100
AcDbEntity
  8
0
  6
Continuous
100
AcDbMText
 10
165.5643090354594
 20
34.75759611380345
 30
0.0
 40
2.499999999999999
 41
0.0
 71
     8
 72
     1
  1
{100MM}
  7
GENERATED_STYLE_1
 73
     1
 44
1.0
  0
MTEXT
  5
195
330
E3
100
AcDbEntity
  8
0
  6
Continuous
100
AcDbMText
 10
165.5643090354594
 20
55.87843970067759
 30
0.0
 40
2.499999999999999
 41
0.0
 71
     8
 72
     1
  1
{A}
  7
GENERATED_STYLE_1
 73
     1
 44
1.0
  0
MTEXT
  5
196
330
E3
100
AcDbEntity
  8
0
  6
Continuous
100
AcDbMText
 10
189.5343258722474
 20
45.99637875386539
 30
0.0
 40
2.499999999999999
 41
0.0
 71
     8
 72
     1
  1
{150MM}
  7
GENERATED_STYLE_1
 73
     1
 44
1.0
  0
MTEXT
  5
197
330
E3
100
AcDbEntity
  8
0
  6
Continuous
100
AcDbMText
 10
189.5343258722474
 20
34.75759923240764
 30
0.0
 40
2.499999999999999
 41
0.0
 71
     8
 72
     1
  1
{200MM}
  7
GENERATED_STYLE_1
 73
     1
 44
1.0
  0
MTEXT
  5
198
330
E3
100
AcDbEntity
  8
0
  6
Continuous
100
AcDbMText
 10
189.5343258722474
 20
55.87843970067765
 30
0.0
 40
2.499999999999999
 41
0.0
 71
     8
 72
     1
  1
{B}
  7
GENERATED_STYLE_1
 73
     1
 44
1.0
  0
HATCH
  5
199
330
E3
100
AcDbEntity
  8
0
  6
Continuous
 62
   255
370
     0
100
AcDbHatch
 10
0.0
 20
0.0
 30
0.0
210
0.0
220
0.0
230
1.0
  2
SOLID
 70
     1
 71
     0
 91
        1
 92
        3
 72
     0
 73
     1
 93
        4
 10
152.1335236446596
 20
134.0663945567891
 10
152.2203477334931
 20
133.573990680283
 10
153.6975593630114
 20
133.8344629467834
 10
153.6107352741779
 20
134.3268668232895
 97
        0
 75
     0
 76
     1
 98
        0
  0
HATCH
  5
19A
330
E3
100
AcDbEntity
  8
0
  6
Continuous
 62
   255
370
     0
100
AcDbHatch
 10
0.0
 20
0.0
 30
0.0
210
0.0
220
0.0
230
1.0
  2
SOLID
 70
     1
 71
     0
 91
        1
 92
        3
 72
     1
 73
     1
 93
        4
 10
152.3941962643849
 20
134.0277392884549
 42
0.0
 10
152.4520789902739
 20
133.6994700374508
 42
0.1666666666666667
 10
153.4368867432861
 20
133.8731182151177
 42
0.0
 10
153.3790040173971
 20
134.2013874661218
 42
0.1666666666666667
 97
        0
 75
     0
 76
     1
 98
        0
  0
LINE
  5
19B
330
E3
100
AcDbEntity
  8
0
  6
Continuous
100
AcDbLine
 10
152.4520778852187
 20
133.6994694168191
 30
0.0
 11
152.39419475855
 21
134.0277404292541
 31
0.0
  0
ARC
  5
19C
330
E3
100
AcDbEntity
  8
0
  6
Continuous
100
AcDbCircle
 10
152.6912459410157
 20
135.2224720994271
 30
0.0
 40
1.541666666666675
100
AcDbArc
 50
261.0753555839498
 51
298.924644416053
  0
LINE
  5
19D
330
E3
100
AcDbEntity
  8
0
  6
Continuous
100
AcDbLine
 10
153.3790044065161
 20
134.2013864199212
 30
0.0
 11
153.4368875331847
 21
133.873118796825
 31
0.0
  0
ARC
  5
19E
330
E3
100
AcDbEntity
  8
0
  6
Continuous
100
AcDbCircle
 10
153.1398370666553
 20
132.6783854041456
 30
0.0
 40
1.541666666666588
100
AcDbArc
 50
81.07535558395035
 51
118.9246444160545
  0
HATCH
  5
19F
330
E3
100
AcDbEntity
  8
0
  6
Continuous
 62
   255
370
     0
100
AcDbHatch
 10
0.0
 20
0.0
 30
0.0
210
0.0
220
0.0
230
1.0
  2
SOLID
 70
     1
 71
     0
 91
        1
 92
        3
 72
     1
 73
     1
 93
        4
 10
151.9017923878788
 20
133.9409151996214
 42
0.0
 10
151.9596751137678
 20
133.6126459486173
 42
0.3333333333333333
 10
152.4520789902739
 20
133.6994700374508
 42
0.0
 10
152.3941962643849
 20
134.0277392884549
 42
0.3333333333333333
 97
        0
 75
     0
 76
     1
 98
        0
  0
LINE
  5
1A0
330
E3
100
AcDbEntity
  8
0
  6
Continuous
100
AcDbLine
 10
151.959674755905
 20
133.6126447268162
 30
0.0
 11
151.9017916292363
 21
133.9409157392511
 31
0.0
  0
ARC
  5
1A1
330
E3
100
AcDbEntity
  8
0
  6
Continuous
100
AcDbCircle
 10
152.1479943261318
 20
133.9843272440381
 30
0.0
 40
0.4166666666666077
100
AcDbArc
 50
243.130102354158
 51
316.8698976458475
  0
LINE
  5
1A2
330
E3
100
AcDbEntity
  8
0
  6
Continuous
100
AcDbLine
 10
152.39419475855
 20
134.0277404292541
 30
0.0
 11
152.4520778852187
 21
133.6994694168191
 31
0.0
  0
ARC
  5
1A3
330
E3
100
AcDbEntity
  8
0
  6
Continuous
100
AcDbCircle
 10
152.2058770520208
 20
133.6560579930341
 30
0.0
 40
0.416666666666645
100
AcDbArc
 50
63.13010235415634
 51
136.8698976458475
  0
HATCH
  5
1A4
330
E3
100
AcDbEntity
  8
0
  6
Continuous
 62
   255
370
     0
100
AcDbHatch
 10
0.0
 20
0.0
 30
0.0
210
0.0
220
0.0
230
1.0
  2
SOLID
 70
     1
 71
     0
 91
        1
 92
        3
 72
     1
 73
     1
 93
        4
 10
153.8714078939032
 20
134.2882115549552
 42
0.3333333333333333
 10
153.3790040173971
 20
134.2013874661218
 42
0.0
 10
153.4368867432861
 20
133.8731182151177
 42
0.3333333333333333
 10
153.9292906197922
 20
133.9599423039512
 42
0.0
 97
        0
 75
     0
 76
     1
 98
        0
  0
ARC
  5
1A5
330
E3
100
AcDbEntity
  8
0
  6
Continuous
100
AcDbCircle
 10
153.6830886815391
 20
133.9165302595345
 30
0.0
 40
0.4166666666666202
100
AcDbArc
 50
63.13010235415461
 51
136.8698976458475
  0
LINE
  5
1A6
330
E3
100
AcDbEntity
  8
0
  6
Continuous
100
AcDbLine
 10
153.3790044065161
 20
134.2013864199212
 30
0.0
 11
153.4368875331847
 21
133.873118796825
 31
0.0
  0
ARC
  5
1A7
330
E3
100
AcDbEntity
  8
0
  6
Continuous
100
AcDbCircle
 10
153.6252059556502
 20
134.2447995105385
 30
0.0
 40
0.416666666666645
100
AcDbArc
 50
243.1301023541563
 51
316.8698976458475
  0
LINE
  5
1A8
330
E3
100
AcDbEntity
  8
0
  6
Continuous
100
AcDbLine
 10
153.9292906624984
 20
133.959943486828
 30
0.0
 11
153.8714075358298
 21
134.2882111099242
 31
0.0
  0
HATCH
  5
1A9
330
E3
100
AcDbEntity
  8
0
  6
Continuous
 62
   255
370
     0
100
AcDbHatch
 10
0.0
 20
0.0
 30
0.0
210
0.0
220
0.0
230
1.0
  2
SOLID
 70
     1
 71
     0
 91
        1
 92
        3
 72
     0
 73
     1
 93
        4
 10
153.287222470987
 20
133.7621094815395
 10
152.6306846255174
 20
133.646344145527
 10
152.9085217097845
 20
132.0706517407074
 10
153.5650595552541
 20
132.18641707672
 97
        0
 75
     0
 76
     1
 98
        0
  0
LINE
  5
1AA
330
E3
100
AcDbEntity
  8
0
  6
Continuous
100
AcDbLine
 10
152.6306858677727
 20
133.6463449217141
 30
0.0
 11
153.2872211139651
 21
133.7621111750513
 31
0.0
  0
LINE
  5
1AB
330
E3
100
AcDbEntity
  8
0
  6
Continuous
100
AcDbLine
 10
152.9085201307079
 20
132.0706515185716
 30
0.0
 11
152.6306858677727
 21
133.6463449217141
 31
0.0
  0
LINE
  5
1AC
330
E3
100
AcDbEntity
  8
0
  6
Continuous
100
AcDbLine
 10
153.565058766239
 20
132.1864177719088
 30
0.0
 11
152.9085201307079
 21
132.0706515185716
 31
0.0
  0
LINE
  5
1AD
330
E3
100
AcDbEntity
  8
0
  6
Continuous
100
AcDbLine
 10
153.2872211139651
 20
133.7621111750513
 30
0.0
 11
153.565058766239
 21
132.1864177719088
 31
0.0
  0
HATCH
  5
1AE
330
E3
100
AcDbEntity
  8
0
  6
Continuous
 62
   255
370
     0
100
AcDbHatch
 10
0.0
 20
0.0
 30
0.0
210
0.0
220
0.0
230
1.0
  2
SOLID
 70
     1
 71
     0
 91
        1
 92
        3
 72
     0
 73
     1
 93
        5
 10
153.532232958423
 20
132.1806288620137
 10
152.9413483066157
 20
132.0764399554136
 10
154.3999929990179
 20
123.8040548301111
 10
154.7996242315217
 20
123.2652646316038
 10
154.9908776508252
 20
123.9082437367112
 97
        0
 75
     0
 76
     1
 98
        0
  0
LINE
  5
1AF
330
E3
100
AcDbEntity
  8
0
  6
Continuous
100
AcDbLine
 10
152.9413492655546
 20
132.0764405091062
 30
0.0
 11
153.532233020731
 21
132.1806287813742
 31
0.0
  0
LINE
  5
1B0
330
E3
100
AcDbEntity
  8
0
  6
Continuous
100
AcDbLine
 10
154.3999918559848
 20
123.8040543792814
 30
0.0
 11
152.9413492655546
 21
132.0764405091062
 31
0.0
  0
LINE
  5
1B1
330
E3
100
AcDbEntity
  8
0
  6
Continuous
100
AcDbLine
 10
154.7996253951798
 20
123.265264760239
 30
0.0
 11
154.3999918559848
 21
123.8040543792814
 31
0.0
  0
LINE
  5
1B2
330
E3
100
AcDbEntity
  8
0
  6
Continuous
100
AcDbLine
 10
154.9908790004999
 20
123.9082426515494
 30
0.0
 11
154.7996253951798
 21
123.265264760239
 31
0.0
  0
LINE
  5
1B3
330
E3
100
AcDbEntity
  8
0
  6
Continuous
100
AcDbLine
 10
153.532233020731
 20
132.1806287813742
 30
0.0
 11
154.9908790004999
 21
123.9082426515494
 31
0.0
  0
LINE
  5
1B4
330
E3
100
AcDbEntity
  8
0
  6
Continuous
100
AcDbLine
 10
152.1335241068954
 20
134.0663958373613
 30
0.0
 11
153.6107368841751
 21
134.3268665180314
 31
0.0
  0
LINE
  5
1B5
330
E3
100
AcDbEntity
  8
0
  6
Continuous
100
AcDbLine
 10
153.6975581848394
 20
133.8344633887178
 30
0.0
 11
152.2203487968983
 21
133.5739893187089
 31
0.0
  0
LINE
  5
1B6
330
E3
100
AcDbEntity
  8
0
  6
Continuous
100
AcDbLine
 10
153.7291945090254
 20
132.2153584975472
 30
0.0
 11
153.7282645037105
 21
132.2096758896272
 31
0.0
  0
LINE
  5
1B7
330
E3
100
AcDbEntity
  8
0
  6
Continuous
100
AcDbLine
 10
153.7282645037105
 20
132.2096758896272
 30
0.0
 11
153.7236012679078
 21
132.2033350124472
 31
0.0
  0
LINE
  5
1B8
330
E3
100
AcDbEntity
  8
0
  6
Continuous
100
AcDbLine
 10
153.7236012679078
 20
132.2033350124472
 30
0.0
 11
153.7152471436217
 21
132.1963417556824
 31
0.0
  0
LINE
  5
1B9
330
E3
100
AcDbEntity
  8
0
  6
Continuous
100
AcDbLine
 10
153.7152471436217
 20
132.1963417556824
 30
0.0
 11
153.7032726099222
 21
132.1887123542226
 31
0.0
  0
LINE
  5
1BA
330
E3
100
AcDbEntity
  8
0
  6
Continuous
100
AcDbLine
 10
153.7032726099222
 20
132.1887123542226
 30
0.0
 11
153.6877799426308
 21
132.1804627037769
 31
0.0
  0
LINE
  5
1BB
330
E3
100
AcDbEntity
  8
0
  6
Continuous
100
AcDbLine
 10
153.6877799426308
 20
132.1804627037769
 30
0.0
 11
153.6688877686027
 21
132.1716131403777
 31
0.0
  0
LINE
  5
1BC
330
E3
100
AcDbEntity
  8
0
  6
Continuous
100
AcDbLine
 10
153.6688877686027
 20
132.1716131403777
 30
0.0
 11
153.6467519974192
 21
132.1621907787347
 31
0.0
  0
LINE
  5
1BD
330
E3
100
AcDbEntity
  8
0
  6
Continuous
100
AcDbLine
 10
153.6467519974192
 20
132.1621907787347
 30
0.0
 11
153.6215454853548
 21
132.1522261228965
 31
0.0
  0
LINE
  5
1BE
330
E3
100
AcDbEntity
  8
0
  6
Continuous
100
AcDbLine
 10
153.6215454853548
 20
132.1522261228965
 30
0.0
 11
153.5934648140555
 21
132.1417598449275
 31
0.0
  0
LINE
  5
1BF
330
E3
100
AcDbEntity
  8
0
  6
Continuous
100
AcDbLine
 10
153.5934648140555
 20
132.1417598449275
 30
0.0
 11
153.5627404585542
 21
132.1308224488765
 31
0.0
  0
LINE
  5
1C0
330
E3
100
AcDbEntity
  8
0
  6
Continuous
100
AcDbLine
 10
153.5627404585542
 20
132.1308224488765
 30
0.0
 11
153.5296028938839
 21
132.1194613854854
 31
0.0
  0
LINE
  5
1C1
330
E3
100
AcDbEntity
  8
0
  6
Continuous
100
AcDbLine
 10
153.5296028938839
 20
132.1194613854854
 30
0.0
 11
153.4943164884648
 21
132.1077207161576
 31
0.0
  0
LINE
  5
1C2
330
E3
100
AcDbEntity
  8
0
  6
Continuous
100
AcDbLine
 10
153.4943164884648
 20
132.1077207161576
 30
0.0
 11
153.457159168072
 21
132.0956478916352
 31
0.0
  0
LINE
  5
1C3
330
E3
100
AcDbEntity
  8
0
  6
Continuous
100
AcDbLine
 10
153.457159168072
 20
132.0956478916352
 30
0.0
 11
153.418415637158
 21
132.0833005306764
 31
0.0
  0
LINE
  5
1C4
330
E3
100
AcDbEntity
  8
0
  6
Continuous
100
AcDbLine
 10
153.418415637158
 20
132.0833005306764
 30
0.0
 11
153.3783909362077
 21
132.0707226946847
 31
0.0
  0
LINE
  5
1C5
330
E3
100
AcDbEntity
  8
0
  6
Continuous
100
AcDbLine
 10
153.3783909362077
 20
132.0707226946847
 30
0.0
 11
153.3373968843833
 21
132.0579753917569
 31
0.0
  0
LINE
  5
1C6
330
E3
100
AcDbEntity
  8
0
  6
Continuous
100
AcDbLine
 10
153.3373968843833
 20
132.0579753917569
 30
0.0
 11
153.2957486901859
 21
132.0451128513126
 31
0.0
  0
LINE
  5
1C7
330
E3
100
AcDbEntity
  8
0
  6
Continuous
100
AcDbLine
 10
153.2957486901859
 20
132.0451128513126
 30
0.0
 11
153.2537785088099
 21
132.0321960814488
 31
0.0
  0
LINE
  5
1C8
330
E3
100
AcDbEntity
  8
0
  6
Continuous
100
AcDbLine
 10
153.2537785088099
 20
132.0321960814488
 30
0.0
 11
153.2118049380953
 21
132.0192759222463
 31
0.0
  0
LINE
  5
1C9
330
E3
100
AcDbEntity
  8
0
  6
Continuous
100
AcDbLine
 10
153.2118049380953
 20
132.0192759222463
 30
0.0
 11
153.1701601332366
 21
132.006413381802
 31
0.0
  0
LINE
  5
1CA
330
E3
100
AcDbEntity
  8
0
  6
Continuous
100
AcDbLine
 10
153.1701601332366
 20
132.006413381802
 30
0.0
 11
153.1291660814122
 21
131.9936660788742
 31
0.0
  0
LINE
  5
1CB
330
E3
100
AcDbEntity
  8
0
  6
Continuous
100
AcDbLine
 10
153.1291660814122
 20
131.9936660788742
 30
0.0
 11
153.0891413804619
 21
131.9810916322212
 31
0.0
  0
LINE
  5
1CC
330
E3
100
AcDbEntity
  8
0
  6
Continuous
100
AcDbLine
 10
153.0891413804619
 20
131.9810916322212
 30
0.0
 11
153.0503978495478
 21
131.9687408819237
 31
0.0
  0
LINE
  5
1CD
330
E3
100
AcDbEntity
  8
0
  6
Continuous
100
AcDbLine
 10
153.0503978495478
 20
131.9687408819237
 30
0.0
 11
153.0132371398163
 21
131.9566680574013
 31
0.0
  0
LINE
  5
1CE
330
E3
100
AcDbEntity
  8
0
  6
Continuous
100
AcDbLine
 10
153.0132371398163
 20
131.9566680574013
 30
0.0
 11
152.977954123736
 21
131.9449273880734
 31
0.0
  0
LINE
  5
1CF
330
E3
100
AcDbEntity
  8
0
  6
Continuous
100
AcDbLine
 10
152.977954123736
 20
131.9449273880734
 30
0.0
 11
152.9448165590657
 21
131.9335663246824
 31
0.0
  0
LINE
  5
1D0
330
E3
100
AcDbEntity
  8
0
  6
Continuous
100
AcDbLine
 10
152.9448165590657
 20
131.9335663246824
 30
0.0
 11
152.9140888142256
 21
131.9226323179701
 31
0.0
  0
LINE
  5
1D1
330
E3
100
AcDbEntity
  8
0
  6
Continuous
100
AcDbLine
 10
152.9140888142256
 20
131.9226323179701
 30
0.0
 11
152.8860115322651
 21
131.9121626506625
 31
0.0
  0
LINE
  5
1D2
330
E3
100
AcDbEntity
  8
0
  6
Continuous
100
AcDbLine
 10
152.8860115322651
 20
131.9121626506625
 30
0.0
 11
152.8608050202007
 21
131.9021979948242
 31
0.0
  0
LINE
  5
1D3
330
E3
100
AcDbEntity
  8
0
  6
Continuous
100
AcDbLine
 10
152.8608050202007
 20
131.9021979948242
 30
0.0
 11
152.8386692490172
 21
131.8927756331812
 31
0.0
  0
LINE
  5
1D4
330
E3
100
AcDbEntity
  8
0
  6
Continuous
100
AcDbLine
 10
152.8386692490172
 20
131.8927756331812
 30
0.0
 11
152.8197770749891
 21
131.883926069782
 31
0.0
  0
LINE
  5
1D5
330
E3
100
AcDbEntity
  8
0
  6
Continuous
100
AcDbLine
 10
152.8197770749891
 20
131.883926069782
 30
0.0
 11
152.804281018359
 21
131.8756764193363
 31
0.0
  0
LINE
  5
1D6
330
E3
100
AcDbEntity
  8
0
  6
Continuous
100
AcDbLine
 10
152.804281018359
 20
131.8756764193363
 30
0.0
 11
152.7923098739982
 21
131.8680470178765
 31
0.0
  0
LINE
  5
1D7
330
E3
100
AcDbEntity
  8
0
  6
Continuous
100
AcDbLine
 10
152.7923098739982
 20
131.8680470178765
 30
0.0
 11
152.7839551540522
 21
131.8610548120961
 31
0.0
  0
LINE
  5
1D8
330
E3
100
AcDbEntity
  8
0
  6
Continuous
100
AcDbLine
 10
152.7839551540522
 20
131.8610548120961
 30
0.0
 11
152.7792914047847
 21
131.8547131500369
 31
0.0
  0
LINE
  5
1D9
330
E3
100
AcDbEntity
  8
0
  6
Continuous
100
AcDbLine
 10
152.7792914047847
 20
131.8547131500369
 30
0.0
 11
152.7783613994698
 21
131.849030542117
 31
0.0
  0
LINE
  5
1DA
330
E3
100
AcDbEntity
  8
0
  6
Continuous
100
AcDbLine
 10
153.7971437959386
 20
131.8299989420206
 30
0.0
 11
153.7962137906237
 21
131.8243163341008
 31
0.0
  0
LINE
  5
1DB
330
E3
100
AcDbEntity
  8
0
  6
Continuous
100
AcDbLine
 10
153.7962137906237
 20
131.8243163341008
 30
0.0
 11
153.791550554821
 21
131.8179754569206
 31
0.0
  0
LINE
  5
1DC
330
E3
100
AcDbEntity
  8
0
  6
Continuous
100
AcDbLine
 10
153.791550554821
 20
131.8179754569206
 30
0.0
 11
153.7831966062902
 21
131.8109841111782
 31
0.0
  0
LINE
  5
1DD
330
E3
100
AcDbEntity
  8
0
  6
Continuous
100
AcDbLine
 10
153.7831966062902
 20
131.8109841111782
 30
0.0
 11
153.7712220725906
 21
131.8033547097183
 31
0.0
  0
LINE
  5
1DE
330
E3
100
AcDbEntity
  8
0
  6
Continuous
100
AcDbLine
 10
153.7712220725906
 20
131.8033547097183
 30
0.0
 11
153.7557294052993
 21
131.7951016699339
 31
0.0
  0
LINE
  5
1DF
330
E3
100
AcDbEntity
  8
0
  6
Continuous
100
AcDbLine
 10
153.7557294052993
 20
131.7951016699339
 30
0.0
 11
153.7368372312712
 21
131.7862521065347
 31
0.0
  0
LINE
  5
1E0
330
E3
100
AcDbEntity
  8
0
  6
Continuous
100
AcDbLine
 10
153.7368372312712
 20
131.7862521065347
 30
0.0
 11
153.7146980707489
 21
131.7768331342304
 31
0.0
  0
LINE
  5
1E1
330
E3
100
AcDbEntity
  8
0
  6
Continuous
100
AcDbLine
 10
153.7146980707489
 20
131.7768331342304
 30
0.0
 11
153.6894915586846
 21
131.7668684783922
 31
0.0
  0
LINE
  5
1E2
330
E3
100
AcDbEntity
  8
0
  6
Continuous
100
AcDbLine
 10
153.6894915586846
 20
131.7668684783922
 30
0.0
 11
153.661414276724
 21
131.7563988110846
 31
0.0
  0
LINE
  5
1E3
330
E3
100
AcDbEntity
  8
0
  6
Continuous
100
AcDbLine
 10
153.661414276724
 20
131.7563988110846
 30
0.0
 11
153.6306899212227
 21
131.7454614150335
 31
0.0
  0
LINE
  5
1E4
330
E3
100
AcDbEntity
  8
0
  6
Continuous
100
AcDbLine
 10
153.6306899212227
 20
131.7454614150335
 30
0.0
 11
153.5975523565524
 21
131.7341003516424
 31
0.0
  0
LINE
  5
1E5
330
E3
100
AcDbEntity
  8
0
  6
Continuous
100
AcDbLine
 10
153.5975523565524
 20
131.7341003516424
 30
0.0
 11
153.5622659511334
 21
131.7223596823146
 31
0.0
  0
LINE
  5
1E6
330
E3
100
AcDbEntity
  8
0
  6
Continuous
100
AcDbLine
 10
153.5622659511334
 20
131.7223596823146
 30
0.0
 11
153.5251086307405
 21
131.710290247131
 31
0.0
  0
LINE
  5
1E7
330
E3
100
AcDbEntity
  8
0
  6
Continuous
100
AcDbLine
 10
153.5251086307405
 20
131.710290247131
 30
0.0
 11
153.4863650998265
 21
131.6979394968335
 31
0.0
  0
LINE
  5
1E8
330
E3
100
AcDbEntity
  8
0
  6
Continuous
100
AcDbLine
 10
153.4863650998265
 20
131.6979394968335
 30
0.0
 11
153.4463403988762
 21
131.6853616608417
 31
0.0
  0
LINE
  5
1E9
330
E3
100
AcDbEntity
  8
0
  6
Continuous
100
AcDbLine
 10
153.4463403988762
 20
131.6853616608417
 30
0.0
 11
153.4053463470518
 21
131.6726177472526
 31
0.0
  0
LINE
  5
1EA
330
E3
100
AcDbEntity
  8
0
  6
Continuous
100
AcDbLine
 10
153.4053463470518
 20
131.6726177472526
 30
0.0
 11
153.3636981528543
 21
131.6597552068084
 31
0.0
  0
LINE
  5
1EB
330
E3
100
AcDbEntity
  8
0
  6
Continuous
100
AcDbLine
 10
153.3636981528543
 20
131.6597552068084
 30
0.0
 11
153.3217279714785
 21
131.6468350476058
 31
0.0
  0
LINE
  5
1EC
330
E3
100
AcDbEntity
  8
0
  6
Continuous
100
AcDbLine
 10
153.3217279714785
 20
131.6468350476058
 30
0.0
 11
153.2797544007638
 21
131.6339148884033
 31
0.0
  0
LINE
  5
1ED
330
E3
100
AcDbEntity
  8
0
  6
Continuous
100
AcDbLine
 10
153.2797544007638
 20
131.6339148884033
 30
0.0
 11
153.2381095959051
 21
131.621052347959
 31
0.0
  0
LINE
  5
1EE
330
E3
100
AcDbEntity
  8
0
  6
Continuous
100
AcDbLine
 10
153.2381095959051
 20
131.621052347959
 30
0.0
 11
153.1971155440807
 21
131.6083050450312
 31
0.0
  0
LINE
  5
1EF
330
E3
100
AcDbEntity
  8
0
  6
Continuous
100
AcDbLine
 10
153.1971155440807
 20
131.6083050450312
 30
0.0
 11
153.1570908431303
 21
131.5957305983782
 31
0.0
  0
LINE
  5
1F0
330
E3
100
AcDbEntity
  8
0
  6
Continuous
100
AcDbLine
 10
153.1570908431303
 20
131.5957305983782
 30
0.0
 11
153.1183473122163
 21
131.5833798480807
 31
0.0
  0
LINE
  5
1F1
330
E3
100
AcDbEntity
  8
0
  6
Continuous
100
AcDbLine
 10
153.1183473122163
 20
131.5833798480807
 30
0.0
 11
153.0811866024848
 21
131.571310412897
 31
0.0
  0
LINE
  5
1F2
330
E3
100
AcDbEntity
  8
0
  6
Continuous
100
AcDbLine
 10
153.0811866024848
 20
131.571310412897
 30
0.0
 11
153.0459035864044
 21
131.5595697435692
 31
0.0
  0
LINE
  5
1F3
330
E3
100
AcDbEntity
  8
0
  6
Continuous
100
AcDbLine
 10
153.0459035864044
 20
131.5595697435692
 30
0.0
 11
153.0127660217342
 21
131.5482086801781
 31
0.0
  0
LINE
  5
1F4
330
E3
100
AcDbEntity
  8
0
  6
Continuous
100
AcDbLine
 10
153.0127660217342
 20
131.5482086801781
 30
0.0
 11
152.9820382768942
 21
131.5372712841271
 31
0.0
  0
LINE
  5
1F5
330
E3
100
AcDbEntity
  8
0
  6
Continuous
100
AcDbLine
 10
152.9820382768942
 20
131.5372712841271
 30
0.0
 11
152.9539609949336
 21
131.5268016168195
 31
0.0
  0
LINE
  5
1F6
330
E3
100
AcDbEntity
  8
0
  6
Continuous
100
AcDbLine
 10
152.9539609949336
 20
131.5268016168195
 30
0.0
 11
152.9287544828692
 21
131.5168369609812
 31
0.0
  0
LINE
  5
1F7
330
E3
100
AcDbEntity
  8
0
  6
Continuous
100
AcDbLine
 10
152.9287544828692
 20
131.5168369609812
 30
0.0
 11
152.9066187116857
 21
131.5074179886769
 31
0.0
  0
LINE
  5
1F8
330
E3
100
AcDbEntity
  8
0
  6
Continuous
100
AcDbLine
 10
152.9066187116857
 20
131.5074179886769
 30
0.0
 11
152.8877265376576
 21
131.4985684252777
 31
0.0
  0
LINE
  5
1F9
330
E3
100
AcDbEntity
  8
0
  6
Continuous
100
AcDbLine
 10
152.8877265376576
 20
131.4985684252777
 30
0.0
 11
152.8722304810275
 21
131.4903153854933
 31
0.0
  0
LINE
  5
1FA
330
E3
100
AcDbEntity
  8
0
  6
Continuous
100
AcDbLine
 10
152.8722304810275
 20
131.4903153854933
 30
0.0
 11
152.8602593366667
 21
131.4826859840335
 31
0.0
  0
LINE
  5
1FB
330
E3
100
AcDbEntity
  8
0
  6
Continuous
100
AcDbLine
 10
152.8602593366667
 20
131.4826859840335
 30
0.0
 11
152.8519046167207
 21
131.4756937782531
 31
0.0
  0
LINE
  5
1FC
330
E3
100
AcDbEntity
  8
0
  6
Continuous
100
AcDbLine
 10
152.8519046167207
 20
131.4756937782531
 30
0.0
 11
152.8472406916978
 21
131.4693535945104
 31
0.0
  0
LINE
  5
1FD
330
E3
100
AcDbEntity
  8
0
  6
Continuous
100
AcDbLine
 10
152.8472406916978
 20
131.4693535945104
 30
0.0
 11
152.8463106863829
 21
131.4636709865904
 31
0.0
  0
LINE
  5
1FE
330
E3
100
AcDbEntity
  8
0
  6
Continuous
100
AcDbLine
 10
153.8650930828517
 20
131.4446393864941
 30
0.0
 11
153.8641630775368
 21
131.4389567785742
 31
0.0
  0
LINE
  5
1FF
330
E3
100
AcDbEntity
  8
0
  6
Continuous
100
AcDbLine
 10
153.8641630775368
 20
131.4389567785742
 30
0.0
 11
153.8594998417341
 21
131.4326159013941
 31
0.0
  0
LINE
  5
200
330
E3
100
AcDbEntity
  8
0
  6
Continuous
100
AcDbLine
 10
153.8594998417341
 20
131.4326159013941
 30
0.0
 11
153.8511460689587
 21
131.4256230773352
 31
0.0
  0
LINE
  5
201
330
E3
100
AcDbEntity
  8
0
  6
Continuous
100
AcDbLine
 10
153.8511460689587
 20
131.4256230773352
 30
0.0
 11
153.8391715352592
 21
131.4179936758754
 31
0.0
  0
LINE
  5
202
330
E3
100
AcDbEntity
  8
0
  6
Continuous
100
AcDbLine
 10
153.8391715352592
 20
131.4179936758754
 30
0.0
 11
153.8236788679678
 21
131.4097440254297
 31
0.0
  0
LINE
  5
203
330
E3
100
AcDbEntity
  8
0
  6
Continuous
100
AcDbLine
 10
153.8236788679678
 20
131.4097440254297
 30
0.0
 11
153.8047866939397
 21
131.4008944620305
 31
0.0
  0
LINE
  5
204
330
E3
100
AcDbEntity
  8
0
  6
Continuous
100
AcDbLine
 10
153.8047866939397
 20
131.4008944620305
 30
0.0
 11
153.7826475334175
 21
131.3914721003875
 31
0.0
  0
LINE
  5
205
330
E3
100
AcDbEntity
  8
0
  6
Continuous
100
AcDbLine
 10
153.7826475334175
 20
131.3914721003875
 30
0.0
 11
153.7574410213531
 21
131.3815074445492
 31
0.0
  0
LINE
  5
206
330
E3
100
AcDbEntity
  8
0
  6
Continuous
100
AcDbLine
 10
153.7574410213531
 20
131.3815074445492
 30
0.0
 11
153.7293637393925
 21
131.3710377772416
 31
0.0
  0
LINE
  5
207
330
E3
100
AcDbEntity
  8
0
  6
Continuous
100
AcDbLine
 10
153.7293637393925
 20
131.3710377772416
 30
0.0
 11
153.6986393838912
 21
131.3601037705293
 31
0.0
  0
LINE
  5
208
330
E3
100
AcDbEntity
  8
0
  6
Continuous
100
AcDbLine
 10
153.6986393838912
 20
131.3601037705293
 30
0.0
 11
153.6655018192209
 21
131.3487427071382
 31
0.0
  0
LINE
  5
209
330
E3
100
AcDbEntity
  8
0
  6
Continuous
100
AcDbLine
 10
153.6655018192209
 20
131.3487427071382
 30
0.0
 11
153.6302154138018
 21
131.3370020378104
 31
0.0
  0
LINE
  5
20A
330
E3
100
AcDbEntity
  8
0
  6
Continuous
100
AcDbLine
 10
153.6302154138018
 20
131.3370020378104
 30
0.0
 11
153.5930580934091
 21
131.324929213288
 31
0.0
  0
LINE
  5
20B
330
E3
100
AcDbEntity
  8
0
  6
Continuous
100
AcDbLine
 10
153.5930580934091
 20
131.324929213288
 30
0.0
 11
153.5543145624951
 21
131.3125784629905
 31
0.0
  0
LINE
  5
20C
330
E3
100
AcDbEntity
  8
0
  6
Continuous
100
AcDbLine
 10
153.5543145624951
 20
131.3125784629905
 30
0.0
 11
153.5142898615447
 21
131.3000040163375
 31
0.0
  0
LINE
  5
20D
330
E3
100
AcDbEntity
  8
0
  6
Continuous
100
AcDbLine
 10
153.5142898615447
 20
131.3000040163375
 30
0.0
 11
153.4732924203816
 21
131.2872567134096
 31
0.0
  0
LINE
  5
20E
330
E3
100
AcDbEntity
  8
0
  6
Continuous
100
AcDbLine
 10
153.4732924203816
 20
131.2872567134096
 30
0.0
 11
153.4316476155228
 21
131.2743941729654
 31
0.0
  0
LINE
  5
20F
330
E3
100
AcDbEntity
  8
0
  6
Continuous
100
AcDbLine
 10
153.4316476155228
 20
131.2743941729654
 30
0.0
 11
153.3896774341469
 21
131.2614740137628
 31
0.0
  0
LINE
  5
210
330
E3
100
AcDbEntity
  8
0
  6
Continuous
100
AcDbLine
 10
153.3896774341469
 20
131.2614740137628
 30
0.0
 11
153.3477038634323
 21
131.248557243899
 31
0.0
  0
LINE
  5
211
330
E3
100
AcDbEntity
  8
0
  6
Continuous
100
AcDbLine
 10
153.3477038634323
 20
131.248557243899
 30
0.0
 11
153.3060590585736
 21
131.2356947034548
 31
0.0
  0
LINE
  5
212
330
E3
100
AcDbEntity
  8
0
  6
Continuous
100
AcDbLine
 10
153.3060590585736
 20
131.2356947034548
 30
0.0
 11
153.2650650067492
 21
131.222947400527
 31
0.0
  0
LINE
  5
213
330
E3
100
AcDbEntity
  8
0
  6
Continuous
100
AcDbLine
 10
153.2650650067492
 20
131.222947400527
 30
0.0
 11
153.2250403057988
 21
131.2103695645352
 31
0.0
  0
LINE
  5
214
330
E3
100
AcDbEntity
  8
0
  6
Continuous
100
AcDbLine
 10
153.2250403057988
 20
131.2103695645352
 30
0.0
 11
153.1862967748849
 21
131.1980222035765
 31
0.0
  0
LINE
  5
215
330
E3
100
AcDbEntity
  8
0
  6
Continuous
100
AcDbLine
 10
153.1862967748849
 20
131.1980222035765
 30
0.0
 11
153.1491360651534
 21
131.185949379054
 31
0.0
  0
LINE
  5
216
330
E3
100
AcDbEntity
  8
0
  6
Continuous
100
AcDbLine
 10
153.1491360651534
 20
131.185949379054
 30
0.0
 11
153.113853049073
 21
131.1742087097262
 31
0.0
  0
LINE
  5
217
330
E3
100
AcDbEntity
  8
0
  6
Continuous
100
AcDbLine
 10
153.113853049073
 20
131.1742087097262
 30
0.0
 11
153.0807154844027
 21
131.1628476463351
 31
0.0
  0
LINE
  5
218
330
E3
100
AcDbEntity
  8
0
  6
Continuous
100
AcDbLine
 10
153.0807154844027
 20
131.1628476463351
 30
0.0
 11
153.0499877395627
 21
131.1519102502841
 31
0.0
  0
LINE
  5
219
330
E3
100
AcDbEntity
  8
0
  6
Continuous
100
AcDbLine
 10
153.0499877395627
 20
131.1519102502841
 30
0.0
 11
153.0219104576021
 21
131.1414405829765
 31
0.0
  0
LINE
  5
21A
330
E3
100
AcDbEntity
  8
0
  6
Continuous
100
AcDbLine
 10
153.0219104576021
 20
131.1414405829765
 30
0.0
 11
152.9967039455377
 21
131.1314793164769
 31
0.0
  0
LINE
  5
21B
330
E3
100
AcDbEntity
  8
0
  6
Continuous
100
AcDbLine
 10
152.9967039455377
 20
131.1314793164769
 30
0.0
 11
152.9745681743542
 21
131.122056954834
 31
0.0
  0
LINE
  5
21C
330
E3
100
AcDbEntity
  8
0
  6
Continuous
100
AcDbLine
 10
152.9745681743542
 20
131.122056954834
 30
0.0
 11
152.9556760003262
 21
131.1132073914347
 31
0.0
  0
LINE
  5
21D
330
E3
100
AcDbEntity
  8
0
  6
Continuous
100
AcDbLine
 10
152.9556760003262
 20
131.1132073914347
 30
0.0
 11
152.940179943696
 21
131.1049577409891
 31
0.0
  0
LINE
  5
21E
330
E3
100
AcDbEntity
  8
0
  6
Continuous
100
AcDbLine
 10
152.940179943696
 20
131.1049577409891
 30
0.0
 11
152.9282054099965
 21
131.0973249501905
 31
0.0
  0
LINE
  5
21F
330
E3
100
AcDbEntity
  8
0
  6
Continuous
100
AcDbLine
 10
152.9282054099965
 20
131.0973249501905
 30
0.0
 11
152.9198540793892
 21
131.0903361337488
 31
0.0
  0
LINE
  5
220
330
E3
100
AcDbEntity
  8
0
  6
Continuous
100
AcDbLine
 10
152.9198540793892
 20
131.0903361337488
 30
0.0
 11
152.915189978611
 21
131.0839940389839
 31
0.0
  0
LINE
  5
221
330
E3
100
AcDbEntity
  8
0
  6
Continuous
100
AcDbLine
 10
152.915189978611
 20
131.0839940389839
 30
0.0
 11
152.9142599732961
 21
131.0783114310639
 31
0.0
  0
LINE
  5
222
330
E3
100
AcDbEntity
  8
0
  6
Continuous
100
AcDbLine
 10
153.9330423697648
 20
131.0592798309676
 30
0.0
 11
153.9321123644499
 21
131.0535972230477
 31
0.0
  0
LINE
  5
223
330
E3
100
AcDbEntity
  8
0
  6
Continuous
100
AcDbLine
 10
153.9321123644499
 20
131.0535972230477
 30
0.0
 11
153.9274491286473
 21
131.0472563458676
 31
0.0
  0
LINE
  5
224
330
E3
100
AcDbEntity
  8
0
  6
Continuous
100
AcDbLine
 10
153.9274491286473
 20
131.0472563458676
 30
0.0
 11
153.9190955316272
 21
131.0402654328309
 31
0.0
  0
LINE
  5
225
330
E3
100
AcDbEntity
  8
0
  6
Continuous
100
AcDbLine
 10
153.9190955316272
 20
131.0402654328309
 30
0.0
 11
153.9071209979277
 21
131.0326360313711
 31
0.0
  0
LINE
  5
226
330
E3
100
AcDbEntity
  8
0
  6
Continuous
100
AcDbLine
 10
153.9071209979277
 20
131.0326360313711
 30
0.0
 11
153.8916283306363
 21
131.0243829915867
 31
0.0
  0
LINE
  5
227
330
E3
100
AcDbEntity
  8
0
  6
Continuous
100
AcDbLine
 10
153.8916283306363
 20
131.0243829915867
 30
0.0
 11
153.8727361566082
 21
131.0155334281875
 31
0.0
  0
LINE
  5
228
330
E3
100
AcDbEntity
  8
0
  6
Continuous
100
AcDbLine
 10
153.8727361566082
 20
131.0155334281875
 30
0.0
 11
153.850596996086
 21
131.0061110665445
 31
0.0
  0
LINE
  5
229
330
E3
100
AcDbEntity
  8
0
  6
Continuous
100
AcDbLine
 10
153.850596996086
 20
131.0061110665445
 30
0.0
 11
153.8253904840216
 21
130.996149800045
 31
0.0
  0
LINE
  5
22A
330
E3
100
AcDbEntity
  8
0
  6
Continuous
100
AcDbLine
 10
153.8253904840216
 20
130.996149800045
 30
0.0
 11
153.797313202061
 21
130.9856801327374
 31
0.0
  0
LINE
  5
22B
330
E3
100
AcDbEntity
  8
0
  6
Continuous
100
AcDbLine
 10
153.797313202061
 20
130.9856801327374
 30
0.0
 11
153.766585457221
 21
130.9747427366863
 31
0.0
  0
LINE
  5
22C
330
E3
100
AcDbEntity
  8
0
  6
Continuous
100
AcDbLine
 10
153.766585457221
 20
130.9747427366863
 30
0.0
 11
153.7334512818894
 21
130.9633816732952
 31
0.0
  0
LINE
  5
22D
330
E3
100
AcDbEntity
  8
0
  6
Continuous
100
AcDbLine
 10
153.7334512818894
 20
130.9633816732952
 30
0.0
 11
153.6981648764704
 21
130.9516410039674
 31
0.0
  0
LINE
  5
22E
330
E3
100
AcDbEntity
  8
0
  6
Continuous
100
AcDbLine
 10
153.6981648764704
 20
130.9516410039674
 30
0.0
 11
153.6610075560775
 21
130.9395715687837
 31
0.0
  0
LINE
  5
22F
330
E3
100
AcDbEntity
  8
0
  6
Continuous
100
AcDbLine
 10
153.6610075560775
 20
130.9395715687837
 30
0.0
 11
153.6222640251636
 21
130.9272208184862
 31
0.0
  0
LINE
  5
230
330
E3
100
AcDbEntity
  8
0
  6
Continuous
100
AcDbLine
 10
153.6222640251636
 20
130.9272208184862
 30
0.0
 11
153.5822393242132
 21
130.9146429824945
 31
0.0
  0
LINE
  5
231
330
E3
100
AcDbEntity
  8
0
  6
Continuous
100
AcDbLine
 10
153.5822393242132
 20
130.9146429824945
 30
0.0
 11
153.5412418830501
 21
130.9018956795667
 31
0.0
  0
LINE
  5
232
330
E3
100
AcDbEntity
  8
0
  6
Continuous
100
AcDbLine
 10
153.5412418830501
 20
130.9018956795667
 30
0.0
 11
153.4995970781914
 21
130.8890365284611
 31
0.0
  0
LINE
  5
233
330
E3
100
AcDbEntity
  8
0
  6
Continuous
100
AcDbLine
 10
153.4995970781914
 20
130.8890365284611
 30
0.0
 11
153.4576268968155
 21
130.8761163692586
 31
0.0
  0
LINE
  5
234
330
E3
100
AcDbEntity
  8
0
  6
Continuous
100
AcDbLine
 10
153.4576268968155
 20
130.8761163692586
 30
0.0
 11
153.4156533261008
 21
130.8631962100561
 31
0.0
  0
LINE
  5
235
330
E3
100
AcDbEntity
  8
0
  6
Continuous
100
AcDbLine
 10
153.4156533261008
 20
130.8631962100561
 30
0.0
 11
153.3740085212421
 21
130.8503336696118
 31
0.0
  0
LINE
  5
236
330
E3
100
AcDbEntity
  8
0
  6
Continuous
100
AcDbLine
 10
153.3740085212421
 20
130.8503336696118
 30
0.0
 11
153.3330144694177
 21
130.837586366684
 31
0.0
  0
LINE
  5
237
330
E3
100
AcDbEntity
  8
0
  6
Continuous
100
AcDbLine
 10
153.3330144694177
 20
130.837586366684
 30
0.0
 11
153.2929897684674
 21
130.825011920031
 31
0.0
  0
LINE
  5
238
330
E3
100
AcDbEntity
  8
0
  6
Continuous
100
AcDbLine
 10
153.2929897684674
 20
130.825011920031
 30
0.0
 11
153.2542462375534
 21
130.8126611697335
 31
0.0
  0
LINE
  5
239
330
E3
100
AcDbEntity
  8
0
  6
Continuous
100
AcDbLine
 10
153.2542462375534
 20
130.8126611697335
 30
0.0
 11
153.2170855278218
 21
130.8005917345498
 31
0.0
  0
LINE
  5
23A
330
E3
100
AcDbEntity
  8
0
  6
Continuous
100
AcDbLine
 10
153.2170855278218
 20
130.8005917345498
 30
0.0
 11
153.1817991224028
 21
130.788851065222
 31
0.0
  0
LINE
  5
23B
330
E3
100
AcDbEntity
  8
0
  6
Continuous
100
AcDbLine
 10
153.1817991224028
 20
130.788851065222
 30
0.0
 11
153.1486649470712
 21
130.7774900018309
 31
0.0
  0
LINE
  5
23C
330
E3
100
AcDbEntity
  8
0
  6
Continuous
100
AcDbLine
 10
153.1486649470712
 20
130.7774900018309
 30
0.0
 11
153.1179372022312
 21
130.7665526057798
 31
0.0
  0
LINE
  5
23D
330
E3
100
AcDbEntity
  8
0
  6
Continuous
100
AcDbLine
 10
153.1179372022312
 20
130.7665526057798
 30
0.0
 11
153.0898599202706
 21
130.7560829384722
 31
0.0
  0
LINE
  5
23E
330
E3
100
AcDbEntity
  8
0
  6
Continuous
100
AcDbLine
 10
153.0898599202706
 20
130.7560829384722
 30
0.0
 11
153.0646534082063
 21
130.746118282634
 31
0.0
  0
LINE
  5
23F
330
E3
100
AcDbEntity
  8
0
  6
Continuous
100
AcDbLine
 10
153.0646534082063
 20
130.746118282634
 30
0.0
 11
153.0425176370227
 21
130.736695920991
 31
0.0
  0
LINE
  5
240
330
E3
100
AcDbEntity
  8
0
  6
Continuous
100
AcDbLine
 10
153.0425176370227
 20
130.736695920991
 30
0.0
 11
153.0236254629946
 21
130.7278463575918
 31
0.0
  0
LINE
  5
241
330
E3
100
AcDbEntity
  8
0
  6
Continuous
100
AcDbLine
 10
153.0236254629946
 20
130.7278463575918
 30
0.0
 11
153.0081294063646
 21
130.7195967071461
 31
0.0
  0
LINE
  5
242
330
E3
100
AcDbEntity
  8
0
  6
Continuous
100
AcDbLine
 10
153.0081294063646
 20
130.7195967071461
 30
0.0
 11
152.996154872665
 21
130.7119673056862
 31
0.0
  0
LINE
  5
243
330
E3
100
AcDbEntity
  8
0
  6
Continuous
100
AcDbLine
 10
152.996154872665
 20
130.7119673056862
 30
0.0
 11
152.9878035420577
 21
130.7049750999059
 31
0.0
  0
LINE
  5
244
330
E3
100
AcDbEntity
  8
0
  6
Continuous
100
AcDbLine
 10
152.9878035420577
 20
130.7049750999059
 30
0.0
 11
152.9831392655241
 21
130.6986344834573
 31
0.0
  0
LINE
  5
245
330
E3
100
AcDbEntity
  8
0
  6
Continuous
100
AcDbLine
 10
152.9831392655241
 20
130.6986344834573
 30
0.0
 11
152.9822092602092
 21
130.6929518755374
 31
0.0
  0
LINE
  5
246
330
E3
100
AcDbEntity
  8
0
  6
Continuous
100
AcDbLine
 10
154.000991656678
 20
130.6739202754411
 30
0.0
 11
154.0000616513631
 21
130.6682376675212
 31
0.0
  0
LINE
  5
247
330
E3
100
AcDbEntity
  8
0
  6
Continuous
100
AcDbLine
 10
154.0000616513631
 20
130.6682376675212
 30
0.0
 11
153.9953984155604
 21
130.6618967903411
 31
0.0
  0
LINE
  5
248
330
E3
100
AcDbEntity
  8
0
  6
Continuous
100
AcDbLine
 10
153.9953984155604
 20
130.6618967903411
 30
0.0
 11
153.9870449942957
 21
130.654904398988
 31
0.0
  0
LINE
  5
249
330
E3
100
AcDbEntity
  8
0
  6
Continuous
100
AcDbLine
 10
153.9870449942957
 20
130.654904398988
 30
0.0
 11
153.9750704605962
 21
130.6472749975281
 31
0.0
  0
LINE
  5
24A
330
E3
100
AcDbEntity
  8
0
  6
Continuous
100
AcDbLine
 10
153.9750704605962
 20
130.6472749975281
 30
0.0
 11
153.9595744039661
 21
130.6390253470825
 31
0.0
  0
LINE
  5
24B
330
E3
100
AcDbEntity
  8
0
  6
Continuous
100
AcDbLine
 10
153.9595744039661
 20
130.6390253470825
 30
0.0
 11
153.9406856192767
 21
130.6301757836833
 31
0.0
  0
LINE
  5
24C
330
E3
100
AcDbEntity
  8
0
  6
Continuous
100
AcDbLine
 10
153.9406856192767
 20
130.6301757836833
 30
0.0
 11
153.9185464587544
 21
130.6207534220403
 31
0.0
  0
LINE
  5
24D
330
E3
100
AcDbEntity
  8
0
  6
Continuous
100
AcDbLine
 10
153.9185464587544
 20
130.6207534220403
 30
0.0
 11
153.8933399466901
 21
130.610788766202
 31
0.0
  0
LINE
  5
24E
330
E3
100
AcDbEntity
  8
0
  6
Continuous
100
AcDbLine
 10
153.8933399466901
 20
130.610788766202
 30
0.0
 11
153.8652626647296
 21
130.6003190988944
 31
0.0
  0
LINE
  5
24F
330
E3
100
AcDbEntity
  8
0
  6
Continuous
100
AcDbLine
 10
153.8652626647296
 20
130.6003190988944
 30
0.0
 11
153.8345349198895
 21
130.5893850921821
 31
0.0
  0
LINE
  5
250
330
E3
100
AcDbEntity
  8
0
  6
Continuous
100
AcDbLine
 10
153.8345349198895
 20
130.5893850921821
 30
0.0
 11
153.801400744558
 21
130.5780206394523
 31
0.0
  0
LINE
  5
251
330
E3
100
AcDbEntity
  8
0
  6
Continuous
100
AcDbLine
 10
153.801400744558
 20
130.5780206394523
 30
0.0
 11
153.7661143391389
 21
130.5662799701244
 31
0.0
  0
LINE
  5
252
330
E3
100
AcDbEntity
  8
0
  6
Continuous
100
AcDbLine
 10
153.7661143391389
 20
130.5662799701244
 30
0.0
 11
153.7289536294074
 21
130.5542105349408
 31
0.0
  0
LINE
  5
253
330
E3
100
AcDbEntity
  8
0
  6
Continuous
100
AcDbLine
 10
153.7289536294074
 20
130.5542105349408
 30
0.0
 11
153.6902134878321
 21
130.5418597846433
 31
0.0
  0
LINE
  5
254
330
E3
100
AcDbEntity
  8
0
  6
Continuous
100
AcDbLine
 10
153.6902134878321
 20
130.5418597846433
 30
0.0
 11
153.6501887868818
 21
130.5292853379902
 31
0.0
  0
LINE
  5
255
330
E3
100
AcDbEntity
  8
0
  6
Continuous
100
AcDbLine
 10
153.6501887868818
 20
130.5292853379902
 30
0.0
 11
153.6091913457186
 21
130.5165380350624
 31
0.0
  0
LINE
  5
256
330
E3
100
AcDbEntity
  8
0
  6
Continuous
100
AcDbLine
 10
153.6091913457186
 20
130.5165380350624
 30
0.0
 11
153.5675465408599
 21
130.5036754946182
 31
0.0
  0
LINE
  5
257
330
E3
100
AcDbEntity
  8
0
  6
Continuous
100
AcDbLine
 10
153.5675465408599
 20
130.5036754946182
 30
0.0
 11
153.525576359484
 21
130.4907553354156
 31
0.0
  0
LINE
  5
258
330
E3
100
AcDbEntity
  8
0
  6
Continuous
100
AcDbLine
 10
153.525576359484
 20
130.4907553354156
 30
0.0
 11
153.4836027887694
 21
130.4778351762131
 31
0.0
  0
LINE
  5
259
330
E3
100
AcDbEntity
  8
0
  6
Continuous
100
AcDbLine
 10
153.4836027887694
 20
130.4778351762131
 30
0.0
 11
153.4419579839106
 21
130.4649760251075
 31
0.0
  0
LINE
  5
25A
330
E3
100
AcDbEntity
  8
0
  6
Continuous
100
AcDbLine
 10
153.4419579839106
 20
130.4649760251075
 30
0.0
 11
153.4009639320862
 21
130.4522287221798
 31
0.0
  0
LINE
  5
25B
330
E3
100
AcDbEntity
  8
0
  6
Continuous
100
AcDbLine
 10
153.4009639320862
 20
130.4522287221798
 30
0.0
 11
153.3609392311359
 21
130.439650886188
 31
0.0
  0
LINE
  5
25C
330
E3
100
AcDbEntity
  8
0
  6
Continuous
100
AcDbLine
 10
153.3609392311359
 20
130.439650886188
 30
0.0
 11
153.3221957002219
 21
130.4273001358905
 31
0.0
  0
LINE
  5
25D
330
E3
100
AcDbEntity
  8
0
  6
Continuous
100
AcDbLine
 10
153.3221957002219
 20
130.4273001358905
 30
0.0
 11
153.2850349904904
 21
130.4152307007068
 31
0.0
  0
LINE
  5
25E
330
E3
100
AcDbEntity
  8
0
  6
Continuous
100
AcDbLine
 10
153.2850349904904
 20
130.4152307007068
 30
0.0
 11
153.2497485850713
 21
130.403490031379
 31
0.0
  0
LINE
  5
25F
330
E3
100
AcDbEntity
  8
0
  6
Continuous
100
AcDbLine
 10
153.2497485850713
 20
130.403490031379
 30
0.0
 11
153.2166144097397
 21
130.3921289679879
 31
0.0
  0
LINE
  5
260
330
E3
100
AcDbEntity
  8
0
  6
Continuous
100
AcDbLine
 10
153.2166144097397
 20
130.3921289679879
 30
0.0
 11
153.1858866648997
 21
130.3811915719369
 31
0.0
  0
LINE
  5
261
330
E3
100
AcDbEntity
  8
0
  6
Continuous
100
AcDbLine
 10
153.1858866648997
 20
130.3811915719369
 30
0.0
 11
153.1578093829391
 21
130.3707219046292
 31
0.0
  0
LINE
  5
262
330
E3
100
AcDbEntity
  8
0
  6
Continuous
100
AcDbLine
 10
153.1578093829391
 20
130.3707219046292
 30
0.0
 11
153.1326028708748
 21
130.3607606381297
 31
0.0
  0
LINE
  5
263
330
E3
100
AcDbEntity
  8
0
  6
Continuous
100
AcDbLine
 10
153.1326028708748
 20
130.3607606381297
 30
0.0
 11
153.1104670996912
 21
130.3513382764867
 31
0.0
  0
LINE
  5
264
330
E3
100
AcDbEntity
  8
0
  6
Continuous
100
AcDbLine
 10
153.1104670996912
 20
130.3513382764867
 30
0.0
 11
153.0915749256632
 21
130.3424887130875
 31
0.0
  0
LINE
  5
265
330
E3
100
AcDbEntity
  8
0
  6
Continuous
100
AcDbLine
 10
153.0915749256632
 20
130.3424887130875
 30
0.0
 11
153.076078869033
 21
130.3342356733031
 31
0.0
  0
LINE
  5
266
330
E3
100
AcDbEntity
  8
0
  6
Continuous
100
AcDbLine
 10
153.076078869033
 20
130.3342356733031
 30
0.0
 11
153.0641043353336
 21
130.3266062718433
 31
0.0
  0
LINE
  5
267
330
E3
100
AcDbEntity
  8
0
  6
Continuous
100
AcDbLine
 10
153.0641043353336
 20
130.3266062718433
 30
0.0
 11
153.0557530047262
 21
130.3196174554016
 31
0.0
  0
LINE
  5
268
330
E3
100
AcDbEntity
  8
0
  6
Continuous
100
AcDbLine
 10
153.0557530047262
 20
130.3196174554016
 30
0.0
 11
153.0510885524373
 21
130.3132749279308
 31
0.0
  0
LINE
  5
269
330
E3
100
AcDbEntity
  8
0
  6
Continuous
100
AcDbLine
 10
153.0510885524373
 20
130.3132749279308
 30
0.0
 11
153.0501585471224
 21
130.3075923200109
 31
0.0
  0
LINE
  5
26A
330
E3
100
AcDbEntity
  8
0
  6
Continuous
100
AcDbLine
 10
154.0689409435912
 20
130.2885607199146
 30
0.0
 11
154.0680109382763
 21
130.2828781119947
 31
0.0
  0
LINE
  5
26B
330
E3
100
AcDbEntity
  8
0
  6
Continuous
100
AcDbLine
 10
154.0680109382763
 20
130.2828781119947
 30
0.0
 11
154.0633477024736
 21
130.2765372348146
 31
0.0
  0
LINE
  5
26C
330
E3
100
AcDbEntity
  8
0
  6
Continuous
100
AcDbLine
 10
154.0633477024736
 20
130.2765372348146
 30
0.0
 11
154.0549944569642
 21
130.2695467544837
 31
0.0
  0
LINE
  5
26D
330
E3
100
AcDbEntity
  8
0
  6
Continuous
100
AcDbLine
 10
154.0549944569642
 20
130.2695467544837
 30
0.0
 11
154.0430199232647
 21
130.2619173530239
 31
0.0
  0
LINE
  5
26E
330
E3
100
AcDbEntity
  8
0
  6
Continuous
100
AcDbLine
 10
154.0430199232647
 20
130.2619173530239
 30
0.0
 11
154.0275238666345
 21
130.2536643132395
 31
0.0
  0
LINE
  5
26F
330
E3
100
AcDbEntity
  8
0
  6
Continuous
100
AcDbLine
 10
154.0275238666345
 20
130.2536643132395
 30
0.0
 11
154.0086350819452
 21
130.2448147498403
 31
0.0
  0
LINE
  5
270
330
E3
100
AcDbEntity
  8
0
  6
Continuous
100
AcDbLine
 10
154.0086350819452
 20
130.2448147498403
 30
0.0
 11
153.986495921423
 21
130.2353923881973
 31
0.0
  0
LINE
  5
271
330
E3
100
AcDbEntity
  8
0
  6
Continuous
100
AcDbLine
 10
153.986495921423
 20
130.2353923881973
 30
0.0
 11
153.9612894093586
 21
130.2254311216977
 31
0.0
  0
LINE
  5
272
330
E3
100
AcDbEntity
  8
0
  6
Continuous
100
AcDbLine
 10
153.9612894093586
 20
130.2254311216977
 30
0.0
 11
153.933212127398
 21
130.2149614543901
 31
0.0
  0
LINE
  5
273
330
E3
100
AcDbEntity
  8
0
  6
Continuous
100
AcDbLine
 10
153.933212127398
 20
130.2149614543901
 30
0.0
 11
153.902484382558
 21
130.2040240583391
 31
0.0
  0
LINE
  5
274
330
E3
100
AcDbEntity
  8
0
  6
Continuous
100
AcDbLine
 10
153.902484382558
 20
130.2040240583391
 30
0.0
 11
153.8693502072265
 21
130.192662994948
 31
0.0
  0
LINE
  5
275
330
E3
100
AcDbEntity
  8
0
  6
Continuous
100
AcDbLine
 10
153.8693502072265
 20
130.192662994948
 30
0.0
 11
153.8340638018074
 21
130.1809223256202
 31
0.0
  0
LINE
  5
276
330
E3
100
AcDbEntity
  8
0
  6
Continuous
100
AcDbLine
 10
153.8340638018074
 20
130.1809223256202
 30
0.0
 11
153.7969030920758
 21
130.1688528904365
 31
0.0
  0
LINE
  5
277
330
E3
100
AcDbEntity
  8
0
  6
Continuous
100
AcDbLine
 10
153.7969030920758
 20
130.1688528904365
 30
0.0
 11
153.7581629505006
 21
130.156502140139
 31
0.0
  0
LINE
  5
278
330
E3
100
AcDbEntity
  8
0
  6
Continuous
100
AcDbLine
 10
153.7581629505006
 20
130.156502140139
 30
0.0
 11
153.7181382495502
 21
130.1439243041472
 31
0.0
  0
LINE
  5
279
330
E3
100
AcDbEntity
  8
0
  6
Continuous
100
AcDbLine
 10
153.7181382495502
 20
130.1439243041472
 30
0.0
 11
153.6771408083871
 21
130.1311770012195
 31
0.0
  0
LINE
  5
27A
330
E3
100
AcDbEntity
  8
0
  6
Continuous
100
AcDbLine
 10
153.6771408083871
 20
130.1311770012195
 30
0.0
 11
153.6354960035284
 21
130.1183178501139
 31
0.0
  0
LINE
  5
27B
330
E3
100
AcDbEntity
  8
0
  6
Continuous
100
AcDbLine
 10
153.6354960035284
 20
130.1183178501139
 30
0.0
 11
153.5935258221525
 21
130.1053976909114
 31
0.0
  0
LINE
  5
27C
330
E3
100
AcDbEntity
  8
0
  6
Continuous
100
AcDbLine
 10
153.5935258221525
 20
130.1053976909114
 30
0.0
 11
153.5515522514378
 21
130.0924775317089
 31
0.0
  0
LINE
  5
27D
330
E3
100
AcDbEntity
  8
0
  6
Continuous
100
AcDbLine
 10
153.5515522514378
 20
130.0924775317089
 30
0.0
 11
153.5099074465791
 21
130.0796149912645
 31
0.0
  0
LINE
  5
27E
330
E3
100
AcDbEntity
  8
0
  6
Continuous
100
AcDbLine
 10
153.5099074465791
 20
130.0796149912645
 30
0.0
 11
153.4689133947547
 21
130.0668676883368
 31
0.0
  0
LINE
  5
27F
330
E3
100
AcDbEntity
  8
0
  6
Continuous
100
AcDbLine
 10
153.4689133947547
 20
130.0668676883368
 30
0.0
 11
153.4288886938044
 21
130.0542932416838
 31
0.0
  0
LINE
  5
280
330
E3
100
AcDbEntity
  8
0
  6
Continuous
100
AcDbLine
 10
153.4288886938044
 20
130.0542932416838
 30
0.0
 11
153.3901451628904
 21
130.0419424913862
 31
0.0
  0
LINE
  5
281
330
E3
100
AcDbEntity
  8
0
  6
Continuous
100
AcDbLine
 10
153.3901451628904
 20
130.0419424913862
 30
0.0
 11
153.3529844531589
 21
130.0298730562025
 31
0.0
  0
LINE
  5
282
330
E3
100
AcDbEntity
  8
0
  6
Continuous
100
AcDbLine
 10
153.3529844531589
 20
130.0298730562025
 30
0.0
 11
153.3176980477398
 21
130.0181323868748
 31
0.0
  0
LINE
  5
283
330
E3
100
AcDbEntity
  8
0
  6
Continuous
100
AcDbLine
 10
153.3176980477398
 20
130.0181323868748
 30
0.0
 11
153.2845638724082
 21
130.006767934145
 31
0.0
  0
LINE
  5
284
330
E3
100
AcDbEntity
  8
0
  6
Continuous
100
AcDbLine
 10
153.2845638724082
 20
130.006767934145
 30
0.0
 11
153.2538361275682
 21
129.9958339274326
 31
0.0
  0
LINE
  5
285
330
E3
100
AcDbEntity
  8
0
  6
Continuous
100
AcDbLine
 10
153.2538361275682
 20
129.9958339274326
 30
0.0
 11
153.2257588456076
 21
129.985364260125
 31
0.0
  0
LINE
  5
286
330
E3
100
AcDbEntity
  8
0
  6
Continuous
100
AcDbLine
 10
153.2257588456076
 20
129.985364260125
 30
0.0
 11
153.2005523335433
 21
129.9753996042868
 31
0.0
  0
LINE
  5
287
330
E3
100
AcDbEntity
  8
0
  6
Continuous
100
AcDbLine
 10
153.2005523335433
 20
129.9753996042868
 30
0.0
 11
153.1784165623597
 21
129.9659772426438
 31
0.0
  0
LINE
  5
288
330
E3
100
AcDbEntity
  8
0
  6
Continuous
100
AcDbLine
 10
153.1784165623597
 20
129.9659772426438
 30
0.0
 11
153.1595243883317
 21
129.9571276792446
 31
0.0
  0
LINE
  5
289
330
E3
100
AcDbEntity
  8
0
  6
Continuous
100
AcDbLine
 10
153.1595243883317
 20
129.9571276792446
 30
0.0
 11
153.1440283317016
 21
129.9488780287989
 31
0.0
  0
LINE
  5
28A
330
E3
100
AcDbEntity
  8
0
  6
Continuous
100
AcDbLine
 10
153.1440283317016
 20
129.9488780287989
 30
0.0
 11
153.132053798002
 21
129.941248627339
 31
0.0
  0
LINE
  5
28B
330
E3
100
AcDbEntity
  8
0
  6
Continuous
100
AcDbLine
 10
153.132053798002
 20
129.941248627339
 30
0.0
 11
153.1237024673948
 21
129.9342564215586
 31
0.0
  0
LINE
  5
28C
330
E3
100
AcDbEntity
  8
0
  6
Continuous
100
AcDbLine
 10
153.1237024673948
 20
129.9342564215586
 30
0.0
 11
153.1190378393504
 21
129.9279153724043
 31
0.0
  0
LINE
  5
28D
330
E3
100
AcDbEntity
  8
0
  6
Continuous
100
AcDbLine
 10
153.1190378393504
 20
129.9279153724043
 30
0.0
 11
153.1181078340355
 21
129.9222327644844
 31
0.0
  0
LINE
  5
28E
330
E3
100
AcDbEntity
  8
0
  6
Continuous
100
AcDbLine
 10
154.1368902305043
 20
129.9032011643881
 30
0.0
 11
154.1359602251894
 21
129.8975185564682
 31
0.0
  0
LINE
  5
28F
330
E3
100
AcDbEntity
  8
0
  6
Continuous
100
AcDbLine
 10
154.1359602251894
 20
129.8975185564682
 30
0.0
 11
154.1312969893867
 21
129.891177679288
 31
0.0
  0
LINE
  5
290
330
E3
100
AcDbEntity
  8
0
  6
Continuous
100
AcDbLine
 10
154.1312969893867
 20
129.891177679288
 30
0.0
 11
154.1229439196327
 21
129.8841857206407
 31
0.0
  0
LINE
  5
291
330
E3
100
AcDbEntity
  8
0
  6
Continuous
100
AcDbLine
 10
154.1229439196327
 20
129.8841857206407
 30
0.0
 11
154.1109693859332
 21
129.8765563191809
 31
0.0
  0
LINE
  5
292
330
E3
100
AcDbEntity
  8
0
  6
Continuous
100
AcDbLine
 10
154.1109693859332
 20
129.8765563191809
 30
0.0
 11
154.0954733293031
 21
129.8683066687352
 31
0.0
  0
LINE
  5
293
330
E3
100
AcDbEntity
  8
0
  6
Continuous
100
AcDbLine
 10
154.0954733293031
 20
129.8683066687352
 30
0.0
 11
154.0765845446138
 21
129.859457105336
 31
0.0
  0
LINE
  5
294
330
E3
100
AcDbEntity
  8
0
  6
Continuous
100
AcDbLine
 10
154.0765845446138
 20
129.859457105336
 30
0.0
 11
154.0544453840915
 21
129.850034743693
 31
0.0
  0
LINE
  5
295
330
E3
100
AcDbEntity
  8
0
  6
Continuous
100
AcDbLine
 10
154.0544453840915
 20
129.850034743693
 30
0.0
 11
154.0292388720271
 21
129.8400700878548
 31
0.0
  0
LINE
  5
296
330
E3
100
AcDbEntity
  8
0
  6
Continuous
100
AcDbLine
 10
154.0292388720271
 20
129.8400700878548
 30
0.0
 11
154.0011615900665
 21
129.8296004205472
 31
0.0
  0
LINE
  5
297
330
E3
100
AcDbEntity
  8
0
  6
Continuous
100
AcDbLine
 10
154.0011615900665
 20
129.8296004205472
 30
0.0
 11
153.9704338452265
 21
129.8186630244961
 31
0.0
  0
LINE
  5
298
330
E3
100
AcDbEntity
  8
0
  6
Continuous
100
AcDbLine
 10
153.9704338452265
 20
129.8186630244961
 30
0.0
 11
153.9372996698949
 21
129.807301961105
 31
0.0
  0
LINE
  5
299
330
E3
100
AcDbEntity
  8
0
  6
Continuous
100
AcDbLine
 10
153.9372996698949
 20
129.807301961105
 30
0.0
 11
153.9020132644759
 21
129.7955612917772
 31
0.0
  0
LINE
  5
29A
330
E3
100
AcDbEntity
  8
0
  6
Continuous
100
AcDbLine
 10
153.9020132644759
 20
129.7955612917772
 30
0.0
 11
153.8648525547443
 21
129.7834918565935
 31
0.0
  0
LINE
  5
29B
330
E3
100
AcDbEntity
  8
0
  6
Continuous
100
AcDbLine
 10
153.8648525547443
 20
129.7834918565935
 30
0.0
 11
153.8261124131691
 21
129.771141106296
 31
0.0
  0
LINE
  5
29C
330
E3
100
AcDbEntity
  8
0
  6
Continuous
100
AcDbLine
 10
153.8261124131691
 20
129.771141106296
 30
0.0
 11
153.78608432288
 21
129.758566659643
 31
0.0
  0
LINE
  5
29D
330
E3
100
AcDbEntity
  8
0
  6
Continuous
100
AcDbLine
 10
153.78608432288
 20
129.758566659643
 30
0.0
 11
153.7450902710556
 21
129.7458193567152
 31
0.0
  0
LINE
  5
29E
330
E3
100
AcDbEntity
  8
0
  6
Continuous
100
AcDbLine
 10
153.7450902710556
 20
129.7458193567152
 30
0.0
 11
153.7034454661969
 21
129.7329568162709
 31
0.0
  0
LINE
  5
29F
330
E3
100
AcDbEntity
  8
0
  6
Continuous
100
AcDbLine
 10
153.7034454661969
 20
129.7329568162709
 30
0.0
 11
153.661475284821
 21
129.7200366570684
 31
0.0
  0
LINE
  5
2A0
330
E3
100
AcDbEntity
  8
0
  6
Continuous
100
AcDbLine
 10
153.661475284821
 20
129.7200366570684
 30
0.0
 11
153.6195017141064
 21
129.7071164978659
 31
0.0
  0
LINE
  5
2A1
330
E3
100
AcDbEntity
  8
0
  6
Continuous
100
AcDbLine
 10
153.6195017141064
 20
129.7071164978659
 30
0.0
 11
153.5778569092476
 21
129.6942573467603
 31
0.0
  0
LINE
  5
2A2
330
E3
100
AcDbEntity
  8
0
  6
Continuous
100
AcDbLine
 10
153.5778569092476
 20
129.6942573467603
 30
0.0
 11
153.5368628574232
 21
129.6815100438325
 31
0.0
  0
LINE
  5
2A3
330
E3
100
AcDbEntity
  8
0
  6
Continuous
100
AcDbLine
 10
153.5368628574232
 20
129.6815100438325
 30
0.0
 11
153.4968381564728
 21
129.6689322078408
 31
0.0
  0
LINE
  5
2A4
330
E3
100
AcDbEntity
  8
0
  6
Continuous
100
AcDbLine
 10
153.4968381564728
 20
129.6689322078408
 30
0.0
 11
153.4580946255589
 21
129.6565814575433
 31
0.0
  0
LINE
  5
2A5
330
E3
100
AcDbEntity
  8
0
  6
Continuous
100
AcDbLine
 10
153.4580946255589
 20
129.6565814575433
 30
0.0
 11
153.4209339158274
 21
129.6445120223596
 31
0.0
  0
LINE
  5
2A6
330
E3
100
AcDbEntity
  8
0
  6
Continuous
100
AcDbLine
 10
153.4209339158274
 20
129.6445120223596
 30
0.0
 11
153.3856475104083
 21
129.6327713530318
 31
0.0
  0
LINE
  5
2A7
330
E3
100
AcDbEntity
  8
0
  6
Continuous
100
AcDbLine
 10
153.3856475104083
 20
129.6327713530318
 30
0.0
 11
153.3525133350767
 21
129.6214102896407
 31
0.0
  0
LINE
  5
2A8
330
E3
100
AcDbEntity
  8
0
  6
Continuous
100
AcDbLine
 10
153.3525133350767
 20
129.6214102896407
 30
0.0
 11
153.3217855902367
 21
129.6104728935896
 31
0.0
  0
LINE
  5
2A9
330
E3
100
AcDbEntity
  8
0
  6
Continuous
100
AcDbLine
 10
153.3217855902367
 20
129.6104728935896
 30
0.0
 11
153.2937083082761
 21
129.600003226282
 31
0.0
  0
LINE
  5
2AA
330
E3
100
AcDbEntity
  8
0
  6
Continuous
100
AcDbLine
 10
153.2937083082761
 20
129.600003226282
 30
0.0
 11
153.2685017962118
 21
129.5900419597825
 31
0.0
  0
LINE
  5
2AB
330
E3
100
AcDbEntity
  8
0
  6
Continuous
100
AcDbLine
 10
153.2685017962118
 20
129.5900419597825
 30
0.0
 11
153.2463626356895
 21
129.5806195981395
 31
0.0
  0
LINE
  5
2AC
330
E3
100
AcDbEntity
  8
0
  6
Continuous
100
AcDbLine
 10
153.2463626356895
 20
129.5806195981395
 30
0.0
 11
153.2274738510002
 21
129.5717700347403
 31
0.0
  0
LINE
  5
2AD
330
E3
100
AcDbEntity
  8
0
  6
Continuous
100
AcDbLine
 10
153.2274738510002
 20
129.5717700347403
 30
0.0
 11
153.2119777943701
 21
129.5635169949559
 31
0.0
  0
LINE
  5
2AE
330
E3
100
AcDbEntity
  8
0
  6
Continuous
100
AcDbLine
 10
153.2119777943701
 20
129.5635169949559
 30
0.0
 11
153.2000032606706
 21
129.555887593496
 31
0.0
  0
LINE
  5
2AF
330
E3
100
AcDbEntity
  8
0
  6
Continuous
100
AcDbLine
 10
153.2000032606706
 20
129.555887593496
 30
0.0
 11
153.1916519300632
 21
129.5488953877157
 31
0.0
  0
LINE
  5
2B0
330
E3
100
AcDbEntity
  8
0
  6
Continuous
100
AcDbLine
 10
153.1916519300632
 20
129.5488953877157
 30
0.0
 11
153.1869871262635
 21
129.5425558168778
 31
0.0
  0
LINE
  5
2B1
330
E3
100
AcDbEntity
  8
0
  6
Continuous
100
AcDbLine
 10
153.1869871262635
 20
129.5425558168778
 30
0.0
 11
153.1860571209487
 21
129.5368732089579
 31
0.0
  0
LINE
  5
2B2
330
E3
100
AcDbEntity
  8
0
  6
Continuous
100
AcDbLine
 10
154.2048395174174
 20
129.5178416088615
 30
0.0
 11
154.2039095121025
 21
129.5121590009417
 31
0.0
  0
LINE
  5
2B3
330
E3
100
AcDbEntity
  8
0
  6
Continuous
100
AcDbLine
 10
154.2039095121025
 20
129.5121590009417
 30
0.0
 11
154.1992462762998
 21
129.5058181237615
 31
0.0
  0
LINE
  5
2B4
330
E3
100
AcDbEntity
  8
0
  6
Continuous
100
AcDbLine
 10
154.1992462762998
 20
129.5058181237615
 30
0.0
 11
154.1908933823012
 21
129.4988280761365
 31
0.0
  0
LINE
  5
2B5
330
E3
100
AcDbEntity
  8
0
  6
Continuous
100
AcDbLine
 10
154.1908933823012
 20
129.4988280761365
 30
0.0
 11
154.1789188486017
 21
129.4911952853379
 31
0.0
  0
LINE
  5
2B6
330
E3
100
AcDbEntity
  8
0
  6
Continuous
100
AcDbLine
 10
154.1789188486017
 20
129.4911952853379
 30
0.0
 11
154.1634227919716
 21
129.4829456348923
 31
0.0
  0
LINE
  5
2B7
330
E3
100
AcDbEntity
  8
0
  6
Continuous
100
AcDbLine
 10
154.1634227919716
 20
129.4829456348923
 30
0.0
 11
154.1445340072823
 21
129.4740960714931
 31
0.0
  0
LINE
  5
2B8
330
E3
100
AcDbEntity
  8
0
  6
Continuous
100
AcDbLine
 10
154.1445340072823
 20
129.4740960714931
 30
0.0
 11
154.12239484676
 21
129.4646737098501
 31
0.0
  0
LINE
  5
2B9
330
E3
100
AcDbEntity
  8
0
  6
Continuous
100
AcDbLine
 10
154.12239484676
 20
129.4646737098501
 30
0.0
 11
154.0971883346957
 21
129.4547124433505
 31
0.0
  0
LINE
  5
2BA
330
E3
100
AcDbEntity
  8
0
  6
Continuous
100
AcDbLine
 10
154.0971883346957
 20
129.4547124433505
 30
0.0
 11
154.0691110527351
 21
129.4442427760429
 31
0.0
  0
LINE
  5
2BB
330
E3
100
AcDbEntity
  8
0
  6
Continuous
100
AcDbLine
 10
154.0691110527351
 20
129.4442427760429
 30
0.0
 11
154.038383307895
 21
129.4333053799919
 31
0.0
  0
LINE
  5
2BC
330
E3
100
AcDbEntity
  8
0
  6
Continuous
100
AcDbLine
 10
154.038383307895
 20
129.4333053799919
 30
0.0
 11
154.0052491325635
 21
129.4219443166008
 31
0.0
  0
LINE
  5
2BD
330
E3
100
AcDbEntity
  8
0
  6
Continuous
100
AcDbLine
 10
154.0052491325635
 20
129.4219443166008
 30
0.0
 11
153.9699627271443
 21
129.410203647273
 31
0.0
  0
LINE
  5
2BE
330
E3
100
AcDbEntity
  8
0
  6
Continuous
100
AcDbLine
 10
153.9699627271443
 20
129.410203647273
 30
0.0
 11
153.9328020174129
 21
129.3981308227506
 31
0.0
  0
LINE
  5
2BF
330
E3
100
AcDbEntity
  8
0
  6
Continuous
100
AcDbLine
 10
153.9328020174129
 20
129.3981308227506
 30
0.0
 11
153.8940584864989
 21
129.3857834617918
 31
0.0
  0
LINE
  5
2C0
330
E3
100
AcDbEntity
  8
0
  6
Continuous
100
AcDbLine
 10
153.8940584864989
 20
129.3857834617918
 30
0.0
 11
153.8540337855485
 21
129.3732056258
 31
0.0
  0
LINE
  5
2C1
330
E3
100
AcDbEntity
  8
0
  6
Continuous
100
AcDbLine
 10
153.8540337855485
 20
129.3732056258
 30
0.0
 11
153.8130397337241
 21
129.3604583228722
 31
0.0
  0
LINE
  5
2C2
330
E3
100
AcDbEntity
  8
0
  6
Continuous
100
AcDbLine
 10
153.8130397337241
 20
129.3604583228722
 30
0.0
 11
153.7713949288654
 21
129.347595782428
 31
0.0
  0
LINE
  5
2C3
330
E3
100
AcDbEntity
  8
0
  6
Continuous
100
AcDbLine
 10
153.7713949288654
 20
129.347595782428
 30
0.0
 11
153.7294213581508
 21
129.3346790125642
 31
0.0
  0
LINE
  5
2C4
330
E3
100
AcDbEntity
  8
0
  6
Continuous
100
AcDbLine
 10
153.7294213581508
 20
129.3346790125642
 30
0.0
 11
153.6874511767749
 21
129.3217588533616
 31
0.0
  0
LINE
  5
2C5
330
E3
100
AcDbEntity
  8
0
  6
Continuous
100
AcDbLine
 10
153.6874511767749
 20
129.3217588533616
 30
0.0
 11
153.6458063719162
 21
129.3088963129173
 31
0.0
  0
LINE
  5
2C6
330
E3
100
AcDbEntity
  8
0
  6
Continuous
100
AcDbLine
 10
153.6458063719162
 20
129.3088963129173
 30
0.0
 11
153.6048123200917
 21
129.2961490099896
 31
0.0
  0
LINE
  5
2C7
330
E3
100
AcDbEntity
  8
0
  6
Continuous
100
AcDbLine
 10
153.6048123200917
 20
129.2961490099896
 30
0.0
 11
153.5647842298027
 21
129.2835745633365
 31
0.0
  0
LINE
  5
2C8
330
E3
100
AcDbEntity
  8
0
  6
Continuous
100
AcDbLine
 10
153.5647842298027
 20
129.2835745633365
 30
0.0
 11
153.5260440882274
 21
129.271223813039
 31
0.0
  0
LINE
  5
2C9
330
E3
100
AcDbEntity
  8
0
  6
Continuous
100
AcDbLine
 10
153.5260440882274
 20
129.271223813039
 30
0.0
 11
153.4888833784959
 21
129.2591509885166
 31
0.0
  0
LINE
  5
2CA
330
E3
100
AcDbEntity
  8
0
  6
Continuous
100
AcDbLine
 10
153.4888833784959
 20
129.2591509885166
 30
0.0
 11
153.4535969730768
 21
129.2474103191888
 31
0.0
  0
LINE
  5
2CB
330
E3
100
AcDbEntity
  8
0
  6
Continuous
100
AcDbLine
 10
153.4535969730768
 20
129.2474103191888
 30
0.0
 11
153.4204627977452
 21
129.2360492557977
 31
0.0
  0
LINE
  5
2CC
330
E3
100
AcDbEntity
  8
0
  6
Continuous
100
AcDbLine
 10
153.4204627977452
 20
129.2360492557977
 30
0.0
 11
153.3897350529052
 21
129.2251152490854
 31
0.0
  0
LINE
  5
2CD
330
E3
100
AcDbEntity
  8
0
  6
Continuous
100
AcDbLine
 10
153.3897350529052
 20
129.2251152490854
 30
0.0
 11
153.3616577709446
 21
129.2146455817778
 31
0.0
  0
LINE
  5
2CE
330
E3
100
AcDbEntity
  8
0
  6
Continuous
100
AcDbLine
 10
153.3616577709446
 20
129.2146455817778
 30
0.0
 11
153.3364512588803
 21
129.2046809259395
 31
0.0
  0
LINE
  5
2CF
330
E3
100
AcDbEntity
  8
0
  6
Continuous
100
AcDbLine
 10
153.3364512588803
 20
129.2046809259395
 30
0.0
 11
153.314312098358
 21
129.1952585642965
 31
0.0
  0
LINE
  5
2D0
330
E3
100
AcDbEntity
  8
0
  6
Continuous
100
AcDbLine
 10
153.314312098358
 20
129.1952585642965
 30
0.0
 11
153.2954233136687
 21
129.1864090008973
 31
0.0
  0
LINE
  5
2D1
330
E3
100
AcDbEntity
  8
0
  6
Continuous
100
AcDbLine
 10
153.2954233136687
 20
129.1864090008973
 30
0.0
 11
153.2799272570385
 21
129.1781593504516
 31
0.0
  0
LINE
  5
2D2
330
E3
100
AcDbEntity
  8
0
  6
Continuous
100
AcDbLine
 10
153.2799272570385
 20
129.1781593504516
 30
0.0
 11
153.2679527233391
 21
129.1705299489918
 31
0.0
  0
LINE
  5
2D3
330
E3
100
AcDbEntity
  8
0
  6
Continuous
100
AcDbLine
 10
153.2679527233391
 20
129.1705299489918
 30
0.0
 11
153.2595980033931
 21
129.1635377432114
 31
0.0
  0
LINE
  5
2D4
330
E3
100
AcDbEntity
  8
0
  6
Continuous
100
AcDbLine
 10
153.2595980033931
 20
129.1635377432114
 30
0.0
 11
153.2549364131767
 21
129.1571962613513
 31
0.0
  0
LINE
  5
2D5
330
E3
100
AcDbEntity
  8
0
  6
Continuous
100
AcDbLine
 10
153.2549364131767
 20
129.1571962613513
 30
0.0
 11
153.2540064078618
 21
129.1515136534314
 31
0.0
  0
LINE
  5
2D6
330
E3
100
AcDbEntity
  8
0
  6
Continuous
100
AcDbLine
 10
154.2727888043306
 20
129.1324820533351
 30
0.0
 11
154.2718587990157
 21
129.1267994454151
 31
0.0
  0
LINE
  5
2D7
330
E3
100
AcDbEntity
  8
0
  6
Continuous
100
AcDbLine
 10
154.2718587990157
 20
129.1267994454151
 30
0.0
 11
154.267195563213
 21
129.120458568235
 31
0.0
  0
LINE
  5
2D8
330
E3
100
AcDbEntity
  8
0
  6
Continuous
100
AcDbLine
 10
154.267195563213
 20
129.120458568235
 30
0.0
 11
154.2588428449697
 21
129.1134670422935
 31
0.0
  0
LINE
  5
2D9
330
E3
100
AcDbEntity
  8
0
  6
Continuous
100
AcDbLine
 10
154.2588428449697
 20
129.1134670422935
 30
0.0
 11
154.2468683112702
 21
129.1058376408337
 31
0.0
  0
LINE
  5
2DA
330
E3
100
AcDbEntity
  8
0
  6
Continuous
100
AcDbLine
 10
154.2468683112702
 20
129.1058376408337
 30
0.0
 11
154.2313722546401
 21
129.0975846010493
 31
0.0
  0
LINE
  5
2DB
330
E3
100
AcDbEntity
  8
0
  6
Continuous
100
AcDbLine
 10
154.2313722546401
 20
129.0975846010493
 30
0.0
 11
154.2124800806121
 21
129.0887350376501
 31
0.0
  0
LINE
  5
2DC
330
E3
100
AcDbEntity
  8
0
  6
Continuous
100
AcDbLine
 10
154.2124800806121
 20
129.0887350376501
 30
0.0
 11
154.1903443094285
 21
129.0793160653458
 31
0.0
  0
LINE
  5
2DD
330
E3
100
AcDbEntity
  8
0
  6
Continuous
100
AcDbLine
 10
154.1903443094285
 20
129.0793160653458
 30
0.0
 11
154.1651377973641
 21
129.0693514095075
 31
0.0
  0
LINE
  5
2DE
330
E3
100
AcDbEntity
  8
0
  6
Continuous
100
AcDbLine
 10
154.1651377973641
 20
129.0693514095075
 30
0.0
 11
154.1370605154035
 21
129.0588817421999
 31
0.0
  0
LINE
  5
2DF
330
E3
100
AcDbEntity
  8
0
  6
Continuous
100
AcDbLine
 10
154.1370605154035
 20
129.0588817421999
 30
0.0
 11
154.1063327705635
 21
129.0479443461489
 31
0.0
  0
LINE
  5
2E0
330
E3
100
AcDbEntity
  8
0
  6
Continuous
100
AcDbLine
 10
154.1063327705635
 20
129.0479443461489
 30
0.0
 11
154.073198595232
 21
129.0365832827578
 31
0.0
  0
LINE
  5
2E1
330
E3
100
AcDbEntity
  8
0
  6
Continuous
100
AcDbLine
 10
154.073198595232
 20
129.0365832827578
 30
0.0
 11
154.0379121898129
 21
129.02484261343
 31
0.0
  0
LINE
  5
2E2
330
E3
100
AcDbEntity
  8
0
  6
Continuous
100
AcDbLine
 10
154.0379121898129
 20
129.02484261343
 30
0.0
 11
154.0007514800814
 21
129.0127731782463
 31
0.0
  0
LINE
  5
2E3
330
E3
100
AcDbEntity
  8
0
  6
Continuous
100
AcDbLine
 10
154.0007514800814
 20
129.0127731782463
 30
0.0
 11
153.9620079491674
 21
129.0004224279488
 31
0.0
  0
LINE
  5
2E4
330
E3
100
AcDbEntity
  8
0
  6
Continuous
100
AcDbLine
 10
153.9620079491674
 20
129.0004224279488
 30
0.0
 11
153.921983248217
 21
128.9878479812958
 31
0.0
  0
LINE
  5
2E5
330
E3
100
AcDbEntity
  8
0
  6
Continuous
100
AcDbLine
 10
153.921983248217
 20
128.9878479812958
 30
0.0
 11
153.8809891963926
 21
128.975100678368
 31
0.0
  0
LINE
  5
2E6
330
E3
100
AcDbEntity
  8
0
  6
Continuous
100
AcDbLine
 10
153.8809891963926
 20
128.975100678368
 30
0.0
 11
153.8393443915339
 21
128.9622381379237
 31
0.0
  0
LINE
  5
2E7
330
E3
100
AcDbEntity
  8
0
  6
Continuous
100
AcDbLine
 10
153.8393443915339
 20
128.9622381379237
 30
0.0
 11
153.7973708208193
 21
128.9493179787212
 31
0.0
  0
LINE
  5
2E8
330
E3
100
AcDbEntity
  8
0
  6
Continuous
100
AcDbLine
 10
153.7973708208193
 20
128.9493179787212
 30
0.0
 11
153.7554006394434
 21
128.9363978195186
 31
0.0
  0
LINE
  5
2E9
330
E3
100
AcDbEntity
  8
0
  6
Continuous
100
AcDbLine
 10
153.7554006394434
 20
128.9363978195186
 30
0.0
 11
153.7137558345846
 21
128.9235352790743
 31
0.0
  0
LINE
  5
2EA
330
E3
100
AcDbEntity
  8
0
  6
Continuous
100
AcDbLine
 10
153.7137558345846
 20
128.9235352790743
 30
0.0
 11
153.6727583934215
 21
128.9107913654853
 31
0.0
  0
LINE
  5
2EB
330
E3
100
AcDbEntity
  8
0
  6
Continuous
100
AcDbLine
 10
153.6727583934215
 20
128.9107913654853
 30
0.0
 11
153.6327336924712
 21
128.8982135294935
 31
0.0
  0
LINE
  5
2EC
330
E3
100
AcDbEntity
  8
0
  6
Continuous
100
AcDbLine
 10
153.6327336924712
 20
128.8982135294935
 30
0.0
 11
153.5939935508959
 21
128.8858627791961
 31
0.0
  0
LINE
  5
2ED
330
E3
100
AcDbEntity
  8
0
  6
Continuous
100
AcDbLine
 10
153.5939935508959
 20
128.8858627791961
 30
0.0
 11
153.5568328411644
 21
128.8737933440124
 31
0.0
  0
LINE
  5
2EE
330
E3
100
AcDbEntity
  8
0
  6
Continuous
100
AcDbLine
 10
153.5568328411644
 20
128.8737933440124
 30
0.0
 11
153.5215464357453
 21
128.8620526746846
 31
0.0
  0
LINE
  5
2EF
330
E3
100
AcDbEntity
  8
0
  6
Continuous
100
AcDbLine
 10
153.5215464357453
 20
128.8620526746846
 30
0.0
 11
153.4884122604137
 21
128.8506916112935
 31
0.0
  0
LINE
  5
2F0
330
E3
100
AcDbEntity
  8
0
  6
Continuous
100
AcDbLine
 10
153.4884122604137
 20
128.8506916112935
 30
0.0
 11
153.4576845155737
 21
128.8397542152424
 31
0.0
  0
LINE
  5
2F1
330
E3
100
AcDbEntity
  8
0
  6
Continuous
100
AcDbLine
 10
153.4576845155737
 20
128.8397542152424
 30
0.0
 11
153.4296072336131
 21
128.8292845479348
 31
0.0
  0
LINE
  5
2F2
330
E3
100
AcDbEntity
  8
0
  6
Continuous
100
AcDbLine
 10
153.4296072336131
 20
128.8292845479348
 30
0.0
 11
153.4044007215488
 21
128.8193198920966
 31
0.0
  0
LINE
  5
2F3
330
E3
100
AcDbEntity
  8
0
  6
Continuous
100
AcDbLine
 10
153.4044007215488
 20
128.8193198920966
 30
0.0
 11
153.3822615610265
 21
128.8099009197923
 31
0.0
  0
LINE
  5
2F4
330
E3
100
AcDbEntity
  8
0
  6
Continuous
100
AcDbLine
 10
153.3822615610265
 20
128.8099009197923
 30
0.0
 11
153.3633727763372
 21
128.8010513563931
 31
0.0
  0
LINE
  5
2F5
330
E3
100
AcDbEntity
  8
0
  6
Continuous
100
AcDbLine
 10
153.3633727763372
 20
128.8010513563931
 30
0.0
 11
153.3478767197071
 21
128.7927983166087
 31
0.0
  0
LINE
  5
2F6
330
E3
100
AcDbEntity
  8
0
  6
Continuous
100
AcDbLine
 10
153.3478767197071
 20
128.7927983166087
 30
0.0
 11
153.3359021860076
 21
128.7851689151488
 31
0.0
  0
LINE
  5
2F7
330
E3
100
AcDbEntity
  8
0
  6
Continuous
100
AcDbLine
 10
153.3359021860076
 20
128.7851689151488
 30
0.0
 11
153.3275474660615
 21
128.7781767093684
 31
0.0
  0
LINE
  5
2F8
330
E3
100
AcDbEntity
  8
0
  6
Continuous
100
AcDbLine
 10
153.3275474660615
 20
128.7781767093684
 30
0.0
 11
153.3228857000898
 21
128.7718367058248
 31
0.0
  0
LINE
  5
2F9
330
E3
100
AcDbEntity
  8
0
  6
Continuous
100
AcDbLine
 10
153.3228857000898
 20
128.7718367058248
 30
0.0
 11
153.321955694775
 21
128.7661540979048
 31
0.0
  0
LINE
  5
2FA
330
E3
100
AcDbEntity
  8
0
  6
Continuous
100
AcDbLine
 10
154.3407380912437
 20
128.7471224978085
 30
0.0
 11
154.3398080859289
 21
128.7414398898886
 31
0.0
  0
LINE
  5
2FB
330
E3
100
AcDbEntity
  8
0
  6
Continuous
100
AcDbLine
 10
154.3398080859289
 20
128.7414398898886
 30
0.0
 11
154.3351448501261
 21
128.7350990127085
 31
0.0
  0
LINE
  5
2FC
330
E3
100
AcDbEntity
  8
0
  6
Continuous
100
AcDbLine
 10
154.3351448501261
 20
128.7350990127085
 30
0.0
 11
154.3267923076382
 21
128.7281060084506
 31
0.0
  0
LINE
  5
2FD
330
E3
100
AcDbEntity
  8
0
  6
Continuous
100
AcDbLine
 10
154.3267923076382
 20
128.7281060084506
 30
0.0
 11
154.3148177739387
 21
128.7204766069907
 31
0.0
  0
LINE
  5
2FE
330
E3
100
AcDbEntity
  8
0
  6
Continuous
100
AcDbLine
 10
154.3148177739387
 20
128.7204766069907
 30
0.0
 11
154.2993217173086
 21
128.712226956545
 31
0.0
  0
LINE
  5
2FF
330
E3
100
AcDbEntity
  8
0
  6
Continuous
100
AcDbLine
 10
154.2993217173086
 20
128.712226956545
 30
0.0
 11
154.2804295432806
 21
128.7033773931458
 31
0.0
  0
LINE
  5
300
330
E3
100
AcDbEntity
  8
0
  6
Continuous
100
AcDbLine
 10
154.2804295432806
 20
128.7033773931458
 30
0.0
 11
154.258293772097
 21
128.6939550315028
 31
0.0
  0
LINE
  5
301
330
E3
100
AcDbEntity
  8
0
  6
Continuous
100
AcDbLine
 10
154.258293772097
 20
128.6939550315028
 30
0.0
 11
154.2330872600326
 21
128.6839903756646
 31
0.0
  0
LINE
  5
302
330
E3
100
AcDbEntity
  8
0
  6
Continuous
100
AcDbLine
 10
154.2330872600326
 20
128.6839903756646
 30
0.0
 11
154.2050099780721
 21
128.673520708357
 31
0.0
  0
LINE
  5
303
330
E3
100
AcDbEntity
  8
0
  6
Continuous
100
AcDbLine
 10
154.2050099780721
 20
128.673520708357
 30
0.0
 11
154.1742822332321
 21
128.6625867016446
 31
0.0
  0
LINE
  5
304
330
E3
100
AcDbEntity
  8
0
  6
Continuous
100
AcDbLine
 10
154.1742822332321
 20
128.6625867016446
 30
0.0
 11
154.1411480579005
 21
128.6512256382535
 31
0.0
  0
LINE
  5
305
330
E3
100
AcDbEntity
  8
0
  6
Continuous
100
AcDbLine
 10
154.1411480579005
 20
128.6512256382535
 30
0.0
 11
154.1058616524814
 21
128.6394849689258
 31
0.0
  0
LINE
  5
306
330
E3
100
AcDbEntity
  8
0
  6
Continuous
100
AcDbLine
 10
154.1058616524814
 20
128.6394849689258
 30
0.0
 11
154.0687009427499
 21
128.6274121444033
 31
0.0
  0
LINE
  5
307
330
E3
100
AcDbEntity
  8
0
  6
Continuous
100
AcDbLine
 10
154.0687009427499
 20
128.6274121444033
 30
0.0
 11
154.0299574118359
 21
128.6150613941058
 31
0.0
  0
LINE
  5
308
330
E3
100
AcDbEntity
  8
0
  6
Continuous
100
AcDbLine
 10
154.0299574118359
 20
128.6150613941058
 30
0.0
 11
153.9899327108855
 21
128.6024869474528
 31
0.0
  0
LINE
  5
309
330
E3
100
AcDbEntity
  8
0
  6
Continuous
100
AcDbLine
 10
153.9899327108855
 20
128.6024869474528
 30
0.0
 11
153.9489386590612
 21
128.589739644525
 31
0.0
  0
LINE
  5
30A
330
E3
100
AcDbEntity
  8
0
  6
Continuous
100
AcDbLine
 10
153.9489386590612
 20
128.589739644525
 30
0.0
 11
153.9072938542024
 21
128.5768771040808
 31
0.0
  0
LINE
  5
30B
330
E3
100
AcDbEntity
  8
0
  6
Continuous
100
AcDbLine
 10
153.9072938542024
 20
128.5768771040808
 30
0.0
 11
153.8653202834878
 21
128.5639569448782
 31
0.0
  0
LINE
  5
30C
330
E3
100
AcDbEntity
  8
0
  6
Continuous
100
AcDbLine
 10
153.8653202834878
 20
128.5639569448782
 30
0.0
 11
153.8233501021119
 21
128.5510401750144
 31
0.0
  0
LINE
  5
30D
330
E3
100
AcDbEntity
  8
0
  6
Continuous
100
AcDbLine
 10
153.8233501021119
 20
128.5510401750144
 30
0.0
 11
153.7817052972532
 21
128.5381776345701
 31
0.0
  0
LINE
  5
30E
330
E3
100
AcDbEntity
  8
0
  6
Continuous
100
AcDbLine
 10
153.7817052972532
 20
128.5381776345701
 30
0.0
 11
153.74070785609
 21
128.5254303316423
 31
0.0
  0
LINE
  5
30F
330
E3
100
AcDbEntity
  8
0
  6
Continuous
100
AcDbLine
 10
153.74070785609
 20
128.5254303316423
 30
0.0
 11
153.7006831551397
 21
128.5128524956505
 31
0.0
  0
LINE
  5
310
330
E3
100
AcDbEntity
  8
0
  6
Continuous
100
AcDbLine
 10
153.7006831551397
 20
128.5128524956505
 30
0.0
 11
153.6619430135644
 21
128.5005051346918
 31
0.0
  0
LINE
  5
311
330
E3
100
AcDbEntity
  8
0
  6
Continuous
100
AcDbLine
 10
153.6619430135644
 20
128.5005051346918
 30
0.0
 11
153.6247823038329
 21
128.4884323101694
 31
0.0
  0
LINE
  5
312
330
E3
100
AcDbEntity
  8
0
  6
Continuous
100
AcDbLine
 10
153.6247823038329
 20
128.4884323101694
 30
0.0
 11
153.5894958984138
 21
128.4766916408416
 31
0.0
  0
LINE
  5
313
330
E3
100
AcDbEntity
  8
0
  6
Continuous
100
AcDbLine
 10
153.5894958984138
 20
128.4766916408416
 30
0.0
 11
153.5563617230822
 21
128.4653305774505
 31
0.0
  0
LINE
  5
314
330
E3
100
AcDbEntity
  8
0
  6
Continuous
100
AcDbLine
 10
153.5563617230822
 20
128.4653305774505
 30
0.0
 11
153.5256339782422
 21
128.4543931813994
 31
0.0
  0
LINE
  5
315
330
E3
100
AcDbEntity
  8
0
  6
Continuous
100
AcDbLine
 10
153.5256339782422
 20
128.4543931813994
 30
0.0
 11
153.4975566962816
 21
128.4439269034305
 31
0.0
  0
LINE
  5
316
330
E3
100
AcDbEntity
  8
0
  6
Continuous
100
AcDbLine
 10
153.4975566962816
 20
128.4439269034305
 30
0.0
 11
153.4723501842173
 21
128.4339622475923
 31
0.0
  0
LINE
  5
317
330
E3
100
AcDbEntity
  8
0
  6
Continuous
100
AcDbLine
 10
153.4723501842173
 20
128.4339622475923
 30
0.0
 11
153.450211023695
 21
128.4245398859493
 31
0.0
  0
LINE
  5
318
330
E3
100
AcDbEntity
  8
0
  6
Continuous
100
AcDbLine
 10
153.450211023695
 20
128.4245398859493
 30
0.0
 11
153.4313222390057
 21
128.4156903225501
 31
0.0
  0
LINE
  5
319
330
E3
100
AcDbEntity
  8
0
  6
Continuous
100
AcDbLine
 10
153.4313222390057
 20
128.4156903225501
 30
0.0
 11
153.4158261823756
 21
128.4074406721044
 31
0.0
  0
LINE
  5
31A
330
E3
100
AcDbEntity
  8
0
  6
Continuous
100
AcDbLine
 10
153.4158261823756
 20
128.4074406721044
 30
0.0
 11
153.4038516486761
 21
128.3998112706446
 31
0.0
  0
LINE
  5
31B
330
E3
100
AcDbEntity
  8
0
  6
Continuous
100
AcDbLine
 10
153.4038516486761
 20
128.3998112706446
 30
0.0
 11
153.3954969287301
 21
128.3928190648642
 31
0.0
  0
LINE
  5
31C
330
E3
100
AcDbEntity
  8
0
  6
Continuous
100
AcDbLine
 10
153.3954969287301
 20
128.3928190648642
 30
0.0
 11
153.390834987003
 21
128.3864771502982
 31
0.0
  0
LINE
  5
31D
330
E3
100
AcDbEntity
  8
0
  6
Continuous
100
AcDbLine
 10
153.390834987003
 20
128.3864771502982
 30
0.0
 11
153.3899049816881
 21
128.3807945423783
 31
0.0
  0
LINE
  5
31E
330
E3
100
AcDbEntity
  8
0
  6
Continuous
100
AcDbLine
 10
154.4086873781569
 20
128.361762942282
 30
0.0
 11
154.407757372842
 21
128.3560803343621
 31
0.0
  0
LINE
  5
31F
330
E3
100
AcDbEntity
  8
0
  6
Continuous
100
AcDbLine
 10
154.407757372842
 20
128.3560803343621
 30
0.0
 11
154.4030941370393
 21
128.349739457182
 31
0.0
  0
LINE
  5
320
330
E3
100
AcDbEntity
  8
0
  6
Continuous
100
AcDbLine
 10
154.4030941370393
 20
128.349739457182
 30
0.0
 11
154.3947417703067
 21
128.3427483639463
 31
0.0
  0
LINE
  5
321
330
E3
100
AcDbEntity
  8
0
  6
Continuous
100
AcDbLine
 10
154.3947417703067
 20
128.3427483639463
 30
0.0
 11
154.3827672366072
 21
128.3351189624865
 31
0.0
  0
LINE
  5
322
330
E3
100
AcDbEntity
  8
0
  6
Continuous
100
AcDbLine
 10
154.3827672366072
 20
128.3351189624865
 30
0.0
 11
154.3672711799771
 21
128.3268659227021
 31
0.0
  0
LINE
  5
323
330
E3
100
AcDbEntity
  8
0
  6
Continuous
100
AcDbLine
 10
154.3672711799771
 20
128.3268659227021
 30
0.0
 11
154.3483790059491
 21
128.3180163593028
 31
0.0
  0
LINE
  5
324
330
E3
100
AcDbEntity
  8
0
  6
Continuous
100
AcDbLine
 10
154.3483790059491
 20
128.3180163593028
 30
0.0
 11
154.3262432347655
 21
128.3085939976598
 31
0.0
  0
LINE
  5
325
330
E3
100
AcDbEntity
  8
0
  6
Continuous
100
AcDbLine
 10
154.3262432347655
 20
128.3085939976598
 30
0.0
 11
154.3010367227012
 21
128.2986327311603
 31
0.0
  0
LINE
  5
326
330
E3
100
AcDbEntity
  8
0
  6
Continuous
100
AcDbLine
 10
154.3010367227012
 20
128.2986327311603
 30
0.0
 11
154.2729594407406
 21
128.2881630638527
 31
0.0
  0
LINE
  5
327
330
E3
100
AcDbEntity
  8
0
  6
Continuous
100
AcDbLine
 10
154.2729594407406
 20
128.2881630638527
 30
0.0
 11
154.2422316959006
 21
128.2772256678017
 31
0.0
  0
LINE
  5
328
330
E3
100
AcDbEntity
  8
0
  6
Continuous
100
AcDbLine
 10
154.2422316959006
 20
128.2772256678017
 30
0.0
 11
154.209097520569
 21
128.2658646044106
 31
0.0
  0
LINE
  5
329
330
E3
100
AcDbEntity
  8
0
  6
Continuous
100
AcDbLine
 10
154.209097520569
 20
128.2658646044106
 30
0.0
 11
154.1738111151499
 21
128.2541239350828
 31
0.0
  0
LINE
  5
32A
330
E3
100
AcDbEntity
  8
0
  6
Continuous
100
AcDbLine
 10
154.1738111151499
 20
128.2541239350828
 30
0.0
 11
154.1366504054184
 21
128.2420544998991
 31
0.0
  0
LINE
  5
32B
330
E3
100
AcDbEntity
  8
0
  6
Continuous
100
AcDbLine
 10
154.1366504054184
 20
128.2420544998991
 30
0.0
 11
154.0979068745044
 21
128.2297037496016
 31
0.0
  0
LINE
  5
32C
330
E3
100
AcDbEntity
  8
0
  6
Continuous
100
AcDbLine
 10
154.0979068745044
 20
128.2297037496016
 30
0.0
 11
154.057882173554
 21
128.2171259136098
 31
0.0
  0
LINE
  5
32D
330
E3
100
AcDbEntity
  8
0
  6
Continuous
100
AcDbLine
 10
154.057882173554
 20
128.2171259136098
 30
0.0
 11
154.0168881217296
 21
128.204378610682
 31
0.0
  0
LINE
  5
32E
330
E3
100
AcDbEntity
  8
0
  6
Continuous
100
AcDbLine
 10
154.0168881217296
 20
128.204378610682
 30
0.0
 11
153.9752433168709
 21
128.1915194595765
 31
0.0
  0
LINE
  5
32F
330
E3
100
AcDbEntity
  8
0
  6
Continuous
100
AcDbLine
 10
153.9752433168709
 20
128.1915194595765
 30
0.0
 11
153.9332697461563
 21
128.1785993003739
 31
0.0
  0
LINE
  5
330
330
E3
100
AcDbEntity
  8
0
  6
Continuous
100
AcDbLine
 10
153.9332697461563
 20
128.1785993003739
 30
0.0
 11
153.8912995647804
 21
128.1656791411714
 31
0.0
  0
LINE
  5
331
330
E3
100
AcDbEntity
  8
0
  6
Continuous
100
AcDbLine
 10
153.8912995647804
 20
128.1656791411714
 30
0.0
 11
153.8496547599217
 21
128.1528166007271
 31
0.0
  0
LINE
  5
332
330
E3
100
AcDbEntity
  8
0
  6
Continuous
100
AcDbLine
 10
153.8496547599217
 20
128.1528166007271
 30
0.0
 11
153.8086573187585
 21
128.1400692977993
 31
0.0
  0
LINE
  5
333
330
E3
100
AcDbEntity
  8
0
  6
Continuous
100
AcDbLine
 10
153.8086573187585
 20
128.1400692977993
 30
0.0
 11
153.7686326178082
 21
128.1274948511463
 31
0.0
  0
LINE
  5
334
330
E3
100
AcDbEntity
  8
0
  6
Continuous
100
AcDbLine
 10
153.7686326178082
 20
128.1274948511463
 30
0.0
 11
153.7298890868942
 21
128.1151441008488
 31
0.0
  0
LINE
  5
335
330
E3
100
AcDbEntity
  8
0
  6
Continuous
100
AcDbLine
 10
153.7298890868942
 20
128.1151441008488
 30
0.0
 11
153.6927317665014
 21
128.1030746656651
 31
0.0
  0
LINE
  5
336
330
E3
100
AcDbEntity
  8
0
  6
Continuous
100
AcDbLine
 10
153.6927317665014
 20
128.1030746656651
 30
0.0
 11
153.6574453610823
 21
128.0913339963373
 31
0.0
  0
LINE
  5
337
330
E3
100
AcDbEntity
  8
0
  6
Continuous
100
AcDbLine
 10
153.6574453610823
 20
128.0913339963373
 30
0.0
 11
153.6243111857508
 21
128.0799729329462
 31
0.0
  0
LINE
  5
338
330
E3
100
AcDbEntity
  8
0
  6
Continuous
100
AcDbLine
 10
153.6243111857508
 20
128.0799729329462
 30
0.0
 11
153.5935834409107
 21
128.0690355368952
 31
0.0
  0
LINE
  5
339
330
E3
100
AcDbEntity
  8
0
  6
Continuous
100
AcDbLine
 10
153.5935834409107
 20
128.0690355368952
 30
0.0
 11
153.5655061589501
 21
128.0585658695876
 31
0.0
  0
LINE
  5
33A
330
E3
100
AcDbEntity
  8
0
  6
Continuous
100
AcDbLine
 10
153.5655061589501
 20
128.0585658695876
 30
0.0
 11
153.5402996468858
 21
128.0486012137493
 31
0.0
  0
LINE
  5
33B
330
E3
100
AcDbEntity
  8
0
  6
Continuous
100
AcDbLine
 10
153.5402996468858
 20
128.0486012137493
 30
0.0
 11
153.5181604863635
 21
128.0391788521063
 31
0.0
  0
LINE
  5
33C
330
E3
100
AcDbEntity
  8
0
  6
Continuous
100
AcDbLine
 10
153.5181604863635
 20
128.0391788521063
 30
0.0
 11
153.4992683123355
 21
128.0303292887071
 31
0.0
  0
LINE
  5
33D
330
E3
100
AcDbEntity
  8
0
  6
Continuous
100
AcDbLine
 10
153.4992683123355
 20
128.0303292887071
 30
0.0
 11
153.4837756450441
 21
128.0220796382614
 31
0.0
  0
LINE
  5
33E
330
E3
100
AcDbEntity
  8
0
  6
Continuous
100
AcDbLine
 10
153.4837756450441
 20
128.0220796382614
 30
0.0
 11
153.4718011113446
 21
128.0144502368016
 31
0.0
  0
LINE
  5
33F
330
E3
100
AcDbEntity
  8
0
  6
Continuous
100
AcDbLine
 10
153.4718011113446
 20
128.0144502368016
 30
0.0
 11
153.4634463913985
 21
128.0074580310212
 31
0.0
  0
LINE
  5
340
330
E3
100
AcDbEntity
  8
0
  6
Continuous
100
AcDbLine
 10
153.4634463913985
 20
128.0074580310212
 30
0.0
 11
153.4587842739161
 21
128.0011175947717
 31
0.0
  0
LINE
  5
341
330
E3
100
AcDbEntity
  8
0
  6
Continuous
100
AcDbLine
 10
153.4587842739161
 20
128.0011175947717
 30
0.0
 11
153.4578542686013
 21
127.9954349868518
 31
0.0
  0
LINE
  5
342
330
E3
100
AcDbEntity
  8
0
  6
Continuous
100
AcDbLine
 10
154.4766366650701
 20
127.9764033867555
 30
0.0
 11
154.4757066597552
 21
127.9707207788356
 31
0.0
  0
LINE
  5
343
330
E3
100
AcDbEntity
  8
0
  6
Continuous
100
AcDbLine
 10
154.4757066597552
 20
127.9707207788356
 30
0.0
 11
154.4710434239525
 21
127.9643799016555
 31
0.0
  0
LINE
  5
344
330
E3
100
AcDbEntity
  8
0
  6
Continuous
100
AcDbLine
 10
154.4710434239525
 20
127.9643799016555
 30
0.0
 11
154.4626912329752
 21
127.9573873301033
 31
0.0
  0
LINE
  5
345
330
E3
100
AcDbEntity
  8
0
  6
Continuous
100
AcDbLine
 10
154.4626912329752
 20
127.9573873301033
 30
0.0
 11
154.4507166992757
 21
127.9497579286435
 31
0.0
  0
LINE
  5
346
330
E3
100
AcDbEntity
  8
0
  6
Continuous
100
AcDbLine
 10
154.4507166992757
 20
127.9497579286435
 30
0.0
 11
154.4352206426456
 21
127.9415082781978
 31
0.0
  0
LINE
  5
347
330
E3
100
AcDbEntity
  8
0
  6
Continuous
100
AcDbLine
 10
154.4352206426456
 20
127.9415082781978
 30
0.0
 11
154.4163284686176
 21
127.9326587147986
 31
0.0
  0
LINE
  5
348
330
E3
100
AcDbEntity
  8
0
  6
Continuous
100
AcDbLine
 10
154.4163284686176
 20
127.9326587147986
 30
0.0
 11
154.394192697434
 21
127.9232363531556
 31
0.0
  0
LINE
  5
349
330
E3
100
AcDbEntity
  8
0
  6
Continuous
100
AcDbLine
 10
154.394192697434
 20
127.9232363531556
 30
0.0
 11
154.3689861853697
 21
127.9132716973173
 31
0.0
  0
LINE
  5
34A
330
E3
100
AcDbEntity
  8
0
  6
Continuous
100
AcDbLine
 10
154.3689861853697
 20
127.9132716973173
 30
0.0
 11
154.3409089034091
 21
127.9028020300097
 31
0.0
  0
LINE
  5
34B
330
E3
100
AcDbEntity
  8
0
  6
Continuous
100
AcDbLine
 10
154.3409089034091
 20
127.9028020300097
 30
0.0
 11
154.3101811585691
 21
127.8918680232974
 31
0.0
  0
LINE
  5
34C
330
E3
100
AcDbEntity
  8
0
  6
Continuous
100
AcDbLine
 10
154.3101811585691
 20
127.8918680232974
 30
0.0
 11
154.2770435938988
 21
127.8805035705676
 31
0.0
  0
LINE
  5
34D
330
E3
100
AcDbEntity
  8
0
  6
Continuous
100
AcDbLine
 10
154.2770435938988
 20
127.8805035705676
 30
0.0
 11
154.2417605778184
 21
127.8687662905785
 31
0.0
  0
LINE
  5
34E
330
E3
100
AcDbEntity
  8
0
  6
Continuous
100
AcDbLine
 10
154.2417605778184
 20
127.8687662905785
 30
0.0
 11
154.2045998680869
 21
127.8566934660561
 31
0.0
  0
LINE
  5
34F
330
E3
100
AcDbEntity
  8
0
  6
Continuous
100
AcDbLine
 10
154.2045998680869
 20
127.8566934660561
 30
0.0
 11
154.1658563371729
 21
127.8443427157586
 31
0.0
  0
LINE
  5
350
330
E3
100
AcDbEntity
  8
0
  6
Continuous
100
AcDbLine
 10
154.1658563371729
 20
127.8443427157586
 30
0.0
 11
154.1258316362226
 21
127.8317682691056
 31
0.0
  0
LINE
  5
351
330
E3
100
AcDbEntity
  8
0
  6
Continuous
100
AcDbLine
 10
154.1258316362226
 20
127.8317682691056
 30
0.0
 11
154.0848375843981
 21
127.8190209661778
 31
0.0
  0
LINE
  5
352
330
E3
100
AcDbEntity
  8
0
  6
Continuous
100
AcDbLine
 10
154.0848375843981
 20
127.8190209661778
 30
0.0
 11
154.0431927795394
 21
127.8061584257335
 31
0.0
  0
LINE
  5
353
330
E3
100
AcDbEntity
  8
0
  6
Continuous
100
AcDbLine
 10
154.0431927795394
 20
127.8061584257335
 30
0.0
 11
154.0012192088248
 21
127.793238266531
 31
0.0
  0
LINE
  5
354
330
E3
100
AcDbEntity
  8
0
  6
Continuous
100
AcDbLine
 10
154.0012192088248
 20
127.793238266531
 30
0.0
 11
153.9592490274489
 21
127.7803214966672
 31
0.0
  0
LINE
  5
355
330
E3
100
AcDbEntity
  8
0
  6
Continuous
100
AcDbLine
 10
153.9592490274489
 20
127.7803214966672
 30
0.0
 11
153.9176042225901
 21
127.7674589562229
 31
0.0
  0
LINE
  5
356
330
E3
100
AcDbEntity
  8
0
  6
Continuous
100
AcDbLine
 10
153.9176042225901
 20
127.7674589562229
 30
0.0
 11
153.876606781427
 21
127.7547116532951
 31
0.0
  0
LINE
  5
357
330
E3
100
AcDbEntity
  8
0
  6
Continuous
100
AcDbLine
 10
153.876606781427
 20
127.7547116532951
 30
0.0
 11
153.8365820804767
 21
127.7421338173033
 31
0.0
  0
LINE
  5
358
330
E3
100
AcDbEntity
  8
0
  6
Continuous
100
AcDbLine
 10
153.8365820804767
 20
127.7421338173033
 30
0.0
 11
153.7978385495627
 21
127.7297864563446
 31
0.0
  0
LINE
  5
359
330
E3
100
AcDbEntity
  8
0
  6
Continuous
100
AcDbLine
 10
153.7978385495627
 20
127.7297864563446
 30
0.0
 11
153.7606812291699
 21
127.7177136318222
 31
0.0
  0
LINE
  5
35A
330
E3
100
AcDbEntity
  8
0
  6
Continuous
100
AcDbLine
 10
153.7606812291699
 20
127.7177136318222
 30
0.0
 11
153.7253948237508
 21
127.7059729624944
 31
0.0
  0
LINE
  5
35B
330
E3
100
AcDbEntity
  8
0
  6
Continuous
100
AcDbLine
 10
153.7253948237508
 20
127.7059729624944
 30
0.0
 11
153.6922572590805
 21
127.6946118991033
 31
0.0
  0
LINE
  5
35C
330
E3
100
AcDbEntity
  8
0
  6
Continuous
100
AcDbLine
 10
153.6922572590805
 20
127.6946118991033
 30
0.0
 11
153.6615329035792
 21
127.6836745030522
 31
0.0
  0
LINE
  5
35D
330
E3
100
AcDbEntity
  8
0
  6
Continuous
100
AcDbLine
 10
153.6615329035792
 20
127.6836745030522
 30
0.0
 11
153.6334556216186
 21
127.6732048357446
 31
0.0
  0
LINE
  5
35E
330
E3
100
AcDbEntity
  8
0
  6
Continuous
100
AcDbLine
 10
153.6334556216186
 20
127.6732048357446
 30
0.0
 11
153.6082491095543
 21
127.6632435692451
 31
0.0
  0
LINE
  5
35F
330
E3
100
AcDbEntity
  8
0
  6
Continuous
100
AcDbLine
 10
153.6082491095543
 20
127.6632435692451
 30
0.0
 11
153.586109949032
 21
127.6538212076021
 31
0.0
  0
LINE
  5
360
330
E3
100
AcDbEntity
  8
0
  6
Continuous
100
AcDbLine
 10
153.586109949032
 20
127.6538212076021
 30
0.0
 11
153.567217775004
 21
127.6449716442029
 31
0.0
  0
LINE
  5
361
330
E3
100
AcDbEntity
  8
0
  6
Continuous
100
AcDbLine
 10
153.567217775004
 20
127.6449716442029
 30
0.0
 11
153.5517251077126
 21
127.6367219937572
 31
0.0
  0
LINE
  5
362
330
E3
100
AcDbEntity
  8
0
  6
Continuous
100
AcDbLine
 10
153.5517251077126
 20
127.6367219937572
 30
0.0
 11
153.5397505740131
 21
127.6290892029586
 31
0.0
  0
LINE
  5
363
330
E3
100
AcDbEntity
  8
0
  6
Continuous
100
AcDbLine
 10
153.5397505740131
 20
127.6290892029586
 30
0.0
 11
153.5313958540671
 21
127.622100386517
 31
0.0
  0
LINE
  5
364
330
E3
100
AcDbEntity
  8
0
  6
Continuous
100
AcDbLine
 10
153.5313958540671
 20
127.622100386517
 30
0.0
 11
153.5267335608293
 21
127.6157580392452
 31
0.0
  0
LINE
  5
365
330
E3
100
AcDbEntity
  8
0
  6
Continuous
100
AcDbLine
 10
153.5267335608293
 20
127.6157580392452
 30
0.0
 11
153.5258035555144
 21
127.6100754313253
 31
0.0
  0
LINE
  5
366
330
E3
100
AcDbEntity
  8
0
  6
Continuous
100
AcDbLine
 10
154.5445859519832
 20
127.591043831229
 30
0.0
 11
154.5436559466683
 21
127.5853612233091
 31
0.0
  0
LINE
  5
367
330
E3
100
AcDbEntity
  8
0
  6
Continuous
100
AcDbLine
 10
154.5436559466683
 20
127.5853612233091
 30
0.0
 11
154.5389927108656
 21
127.5790203461289
 31
0.0
  0
LINE
  5
368
330
E3
100
AcDbEntity
  8
0
  6
Continuous
100
AcDbLine
 10
154.5389927108656
 20
127.5790203461289
 30
0.0
 11
154.530637306305
 21
127.5720296855991
 31
0.0
  0
LINE
  5
369
330
E3
100
AcDbEntity
  8
0
  6
Continuous
100
AcDbLine
 10
154.530637306305
 20
127.5720296855991
 30
0.0
 11
154.5186661619442
 21
127.5644002841392
 31
0.0
  0
LINE
  5
36A
330
E3
100
AcDbEntity
  8
0
  6
Continuous
100
AcDbLine
 10
154.5186661619442
 20
127.5644002841392
 30
0.0
 11
154.5031701053141
 21
127.5561472443548
 31
0.0
  0
LINE
  5
36B
330
E3
100
AcDbEntity
  8
0
  6
Continuous
100
AcDbLine
 10
154.5031701053141
 20
127.5561472443548
 30
0.0
 11
154.4842779312861
 21
127.5472976809556
 31
0.0
  0
LINE
  5
36C
330
E3
100
AcDbEntity
  8
0
  6
Continuous
100
AcDbLine
 10
154.4842779312861
 20
127.5472976809556
 30
0.0
 11
154.4621421601025
 21
127.5378753193126
 31
0.0
  0
LINE
  5
36D
330
E3
100
AcDbEntity
  8
0
  6
Continuous
100
AcDbLine
 10
154.4621421601025
 20
127.5378753193126
 30
0.0
 11
154.4369356480382
 21
127.5279140528131
 31
0.0
  0
LINE
  5
36E
330
E3
100
AcDbEntity
  8
0
  6
Continuous
100
AcDbLine
 10
154.4369356480382
 20
127.5279140528131
 30
0.0
 11
154.4088583660776
 21
127.5174443855055
 31
0.0
  0
LINE
  5
36F
330
E3
100
AcDbEntity
  8
0
  6
Continuous
100
AcDbLine
 10
154.4088583660776
 20
127.5174443855055
 30
0.0
 11
154.3781306212376
 21
127.5065069894545
 31
0.0
  0
LINE
  5
370
330
E3
100
AcDbEntity
  8
0
  6
Continuous
100
AcDbLine
 10
154.3781306212376
 20
127.5065069894545
 30
0.0
 11
154.3449930565673
 21
127.4951459260633
 31
0.0
  0
LINE
  5
371
330
E3
100
AcDbEntity
  8
0
  6
Continuous
100
AcDbLine
 10
154.3449930565673
 20
127.4951459260633
 30
0.0
 11
154.3097100404869
 21
127.4834052567355
 31
0.0
  0
LINE
  5
372
330
E3
100
AcDbEntity
  8
0
  6
Continuous
100
AcDbLine
 10
154.3097100404869
 20
127.4834052567355
 30
0.0
 11
154.2725493307554
 21
127.4713358215518
 31
0.0
  0
LINE
  5
373
330
E3
100
AcDbEntity
  8
0
  6
Continuous
100
AcDbLine
 10
154.2725493307554
 20
127.4713358215518
 30
0.0
 11
154.2338057998414
 21
127.4589850712544
 31
0.0
  0
LINE
  5
374
330
E3
100
AcDbEntity
  8
0
  6
Continuous
100
AcDbLine
 10
154.2338057998414
 20
127.4589850712544
 30
0.0
 11
154.1937810988911
 21
127.4464072352626
 31
0.0
  0
LINE
  5
375
330
E3
100
AcDbEntity
  8
0
  6
Continuous
100
AcDbLine
 10
154.1937810988911
 20
127.4464072352626
 30
0.0
 11
154.1527870470667
 21
127.4336599323348
 31
0.0
  0
LINE
  5
376
330
E3
100
AcDbEntity
  8
0
  6
Continuous
100
AcDbLine
 10
154.1527870470667
 20
127.4336599323348
 30
0.0
 11
154.1111422422079
 21
127.4208007812292
 31
0.0
  0
LINE
  5
377
330
E3
100
AcDbEntity
  8
0
  6
Continuous
100
AcDbLine
 10
154.1111422422079
 20
127.4208007812292
 30
0.0
 11
154.0691686714933
 21
127.4078806220267
 31
0.0
  0
LINE
  5
378
330
E3
100
AcDbEntity
  8
0
  6
Continuous
100
AcDbLine
 10
154.0691686714933
 20
127.4078806220267
 30
0.0
 11
154.0271984901174
 21
127.3949604628242
 31
0.0
  0
LINE
  5
379
330
E3
100
AcDbEntity
  8
0
  6
Continuous
100
AcDbLine
 10
154.0271984901174
 20
127.3949604628242
 30
0.0
 11
153.9855502959199
 21
127.3820979223799
 31
0.0
  0
LINE
  5
37A
330
E3
100
AcDbEntity
  8
0
  6
Continuous
100
AcDbLine
 10
153.9855502959199
 20
127.3820979223799
 30
0.0
 11
153.9445562440955
 21
127.3693506194521
 31
0.0
  0
LINE
  5
37B
330
E3
100
AcDbEntity
  8
0
  6
Continuous
100
AcDbLine
 10
153.9445562440955
 20
127.3693506194521
 30
0.0
 11
153.9045315431452
 21
127.3567761727991
 31
0.0
  0
LINE
  5
37C
330
E3
100
AcDbEntity
  8
0
  6
Continuous
100
AcDbLine
 10
153.9045315431452
 20
127.3567761727991
 30
0.0
 11
153.8657880122312
 21
127.3444254225016
 31
0.0
  0
LINE
  5
37D
330
E3
100
AcDbEntity
  8
0
  6
Continuous
100
AcDbLine
 10
153.8657880122312
 20
127.3444254225016
 30
0.0
 11
153.8286306918384
 21
127.3323559873179
 31
0.0
  0
LINE
  5
37E
330
E3
100
AcDbEntity
  8
0
  6
Continuous
100
AcDbLine
 10
153.8286306918384
 20
127.3323559873179
 30
0.0
 11
153.7933442864193
 21
127.3206153179901
 31
0.0
  0
LINE
  5
37F
330
E3
100
AcDbEntity
  8
0
  6
Continuous
100
AcDbLine
 10
153.7933442864193
 20
127.3206153179901
 30
0.0
 11
153.7602067217491
 21
127.309254254599
 31
0.0
  0
LINE
  5
380
330
E3
100
AcDbEntity
  8
0
  6
Continuous
100
AcDbLine
 10
153.7602067217491
 20
127.309254254599
 30
0.0
 11
153.7294823662478
 21
127.298316858548
 31
0.0
  0
LINE
  5
381
330
E3
100
AcDbEntity
  8
0
  6
Continuous
100
AcDbLine
 10
153.7294823662478
 20
127.298316858548
 30
0.0
 11
153.7014050842872
 21
127.2878471912404
 31
0.0
  0
LINE
  5
382
330
E3
100
AcDbEntity
  8
0
  6
Continuous
100
AcDbLine
 10
153.7014050842872
 20
127.2878471912404
 30
0.0
 11
153.6761985722228
 21
127.2778825354021
 31
0.0
  0
LINE
  5
383
330
E3
100
AcDbEntity
  8
0
  6
Continuous
100
AcDbLine
 10
153.6761985722228
 20
127.2778825354021
 30
0.0
 11
153.6540594117006
 21
127.2684601737591
 31
0.0
  0
LINE
  5
384
330
E3
100
AcDbEntity
  8
0
  6
Continuous
100
AcDbLine
 10
153.6540594117006
 20
127.2684601737591
 30
0.0
 11
153.6351672376725
 21
127.2596106103599
 31
0.0
  0
LINE
  5
385
330
E3
100
AcDbEntity
  8
0
  6
Continuous
100
AcDbLine
 10
153.6351672376725
 20
127.2596106103599
 30
0.0
 11
153.6196745703811
 21
127.2513609599142
 31
0.0
  0
LINE
  5
386
330
E3
100
AcDbEntity
  8
0
  6
Continuous
100
AcDbLine
 10
153.6196745703811
 20
127.2513609599142
 30
0.0
 11
153.6077000366816
 21
127.2437315584544
 31
0.0
  0
LINE
  5
387
330
E3
100
AcDbEntity
  8
0
  6
Continuous
100
AcDbLine
 10
153.6077000366816
 20
127.2437315584544
 30
0.0
 11
153.5993453167356
 21
127.236739352674
 31
0.0
  0
LINE
  5
388
330
E3
100
AcDbEntity
  8
0
  6
Continuous
100
AcDbLine
 10
153.5993453167356
 20
127.236739352674
 30
0.0
 11
153.5946828477424
 21
127.2303984837187
 31
0.0
  0
LINE
  5
389
330
E3
100
AcDbEntity
  8
0
  6
Continuous
100
AcDbLine
 10
153.5946828477424
 20
127.2303984837187
 30
0.0
 11
153.5937528424275
 21
127.2247158757988
 31
0.0
  0
LINE
  5
38A
330
E3
100
AcDbEntity
  8
0
  6
Continuous
100
AcDbLine
 10
154.6125352388963
 20
127.2056842757025
 30
0.0
 11
154.6116052335815
 21
127.2000016677826
 31
0.0
  0
LINE
  5
38B
330
E3
100
AcDbEntity
  8
0
  6
Continuous
100
AcDbLine
 10
154.6116052335815
 20
127.2000016677826
 30
0.0
 11
154.6069419977787
 21
127.1936607906025
 31
0.0
  0
LINE
  5
38C
330
E3
100
AcDbEntity
  8
0
  6
Continuous
100
AcDbLine
 10
154.6069419977787
 20
127.1936607906025
 30
0.0
 11
154.5985867689735
 21
127.1866686517561
 31
0.0
  0
LINE
  5
38D
330
E3
100
AcDbEntity
  8
0
  6
Continuous
100
AcDbLine
 10
154.5985867689735
 20
127.1866686517561
 30
0.0
 11
154.5866156246127
 21
127.1790392502963
 31
0.0
  0
LINE
  5
38E
330
E3
100
AcDbEntity
  8
0
  6
Continuous
100
AcDbLine
 10
154.5866156246127
 20
127.1790392502963
 30
0.0
 11
154.5711195679826
 21
127.1707895998506
 31
0.0
  0
LINE
  5
38F
330
E3
100
AcDbEntity
  8
0
  6
Continuous
100
AcDbLine
 10
154.5711195679826
 20
127.1707895998506
 30
0.0
 11
154.5522273939546
 21
127.1619400364514
 31
0.0
  0
LINE
  5
390
330
E3
100
AcDbEntity
  8
0
  6
Continuous
100
AcDbLine
 10
154.5522273939546
 20
127.1619400364514
 30
0.0
 11
154.530091622771
 21
127.1525176748084
 31
0.0
  0
LINE
  5
391
330
E3
100
AcDbEntity
  8
0
  6
Continuous
100
AcDbLine
 10
154.530091622771
 20
127.1525176748084
 30
0.0
 11
154.5048851107067
 21
127.1425530189701
 31
0.0
  0
LINE
  5
392
330
E3
100
AcDbEntity
  8
0
  6
Continuous
100
AcDbLine
 10
154.5048851107067
 20
127.1425530189701
 30
0.0
 11
154.4768078287461
 21
127.1320833516625
 31
0.0
  0
LINE
  5
393
330
E3
100
AcDbEntity
  8
0
  6
Continuous
100
AcDbLine
 10
154.4768078287461
 20
127.1320833516625
 30
0.0
 11
154.4460800839061
 21
127.1211459556115
 31
0.0
  0
LINE
  5
394
330
E3
100
AcDbEntity
  8
0
  6
Continuous
100
AcDbLine
 10
154.4460800839061
 20
127.1211459556115
 30
0.0
 11
154.4129425192358
 21
127.1097848922204
 31
0.0
  0
LINE
  5
395
330
E3
100
AcDbEntity
  8
0
  6
Continuous
100
AcDbLine
 10
154.4129425192358
 20
127.1097848922204
 30
0.0
 11
154.3776595031554
 21
127.0980442228926
 31
0.0
  0
LINE
  5
396
330
E3
100
AcDbEntity
  8
0
  6
Continuous
100
AcDbLine
 10
154.3776595031554
 20
127.0980442228926
 30
0.0
 11
154.3404987934239
 21
127.0859747877089
 31
0.0
  0
LINE
  5
397
330
E3
100
AcDbEntity
  8
0
  6
Continuous
100
AcDbLine
 10
154.3404987934239
 20
127.0859747877089
 30
0.0
 11
154.3017552625099
 21
127.0736240374114
 31
0.0
  0
LINE
  5
398
330
E3
100
AcDbEntity
  8
0
  6
Continuous
100
AcDbLine
 10
154.3017552625099
 20
127.0736240374114
 30
0.0
 11
154.2617305615596
 21
127.0610495907584
 31
0.0
  0
LINE
  5
399
330
E3
100
AcDbEntity
  8
0
  6
Continuous
100
AcDbLine
 10
154.2617305615596
 20
127.0610495907584
 30
0.0
 11
154.2207365097352
 21
127.0483022878306
 31
0.0
  0
LINE
  5
39A
330
E3
100
AcDbEntity
  8
0
  6
Continuous
100
AcDbLine
 10
154.2207365097352
 20
127.0483022878306
 30
0.0
 11
154.1790917048764
 21
127.0354397473863
 31
0.0
  0
LINE
  5
39B
330
E3
100
AcDbEntity
  8
0
  6
Continuous
100
AcDbLine
 10
154.1790917048764
 20
127.0354397473863
 30
0.0
 11
154.1371181341618
 21
127.0225195881838
 31
0.0
  0
LINE
  5
39C
330
E3
100
AcDbEntity
  8
0
  6
Continuous
100
AcDbLine
 10
154.1371181341618
 20
127.0225195881838
 30
0.0
 11
154.0951479527859
 21
127.0095994289812
 31
0.0
  0
LINE
  5
39D
330
E3
100
AcDbEntity
  8
0
  6
Continuous
100
AcDbLine
 10
154.0951479527859
 20
127.0095994289812
 30
0.0
 11
154.0534997585885
 21
126.9967402778757
 31
0.0
  0
LINE
  5
39E
330
E3
100
AcDbEntity
  8
0
  6
Continuous
100
AcDbLine
 10
154.0534997585885
 20
126.9967402778757
 30
0.0
 11
154.012505706764
 21
126.9839929749479
 31
0.0
  0
LINE
  5
39F
330
E3
100
AcDbEntity
  8
0
  6
Continuous
100
AcDbLine
 10
154.012505706764
 20
126.9839929749479
 30
0.0
 11
153.9724810058137
 21
126.9714151389561
 31
0.0
  0
LINE
  5
3A0
330
E3
100
AcDbEntity
  8
0
  6
Continuous
100
AcDbLine
 10
153.9724810058137
 20
126.9714151389561
 30
0.0
 11
153.9337374748997
 21
126.9590643886586
 31
0.0
  0
LINE
  5
3A1
330
E3
100
AcDbEntity
  8
0
  6
Continuous
100
AcDbLine
 10
153.9337374748997
 20
126.9590643886586
 30
0.0
 11
153.8965801545069
 21
126.9469949534749
 31
0.0
  0
LINE
  5
3A2
330
E3
100
AcDbEntity
  8
0
  6
Continuous
100
AcDbLine
 10
153.8965801545069
 20
126.9469949534749
 30
0.0
 11
153.8612937490878
 21
126.9352542841471
 31
0.0
  0
LINE
  5
3A3
330
E3
100
AcDbEntity
  8
0
  6
Continuous
100
AcDbLine
 10
153.8612937490878
 20
126.9352542841471
 30
0.0
 11
153.8281561844175
 21
126.923893220756
 31
0.0
  0
LINE
  5
3A4
330
E3
100
AcDbEntity
  8
0
  6
Continuous
100
AcDbLine
 10
153.8281561844175
 20
126.923893220756
 30
0.0
 11
153.7974318289162
 21
126.912955824705
 31
0.0
  0
LINE
  5
3A5
330
E3
100
AcDbEntity
  8
0
  6
Continuous
100
AcDbLine
 10
153.7974318289162
 20
126.912955824705
 30
0.0
 11
153.7693511576169
 21
126.9024861573974
 31
0.0
  0
LINE
  5
3A6
330
E3
100
AcDbEntity
  8
0
  6
Continuous
100
AcDbLine
 10
153.7693511576169
 20
126.9024861573974
 30
0.0
 11
153.7441446455526
 21
126.8925248908978
 31
0.0
  0
LINE
  5
3A7
330
E3
100
AcDbEntity
  8
0
  6
Continuous
100
AcDbLine
 10
153.7441446455526
 20
126.8925248908978
 30
0.0
 11
153.722008874369
 21
126.8831025292549
 31
0.0
  0
LINE
  5
3A8
330
E3
100
AcDbEntity
  8
0
  6
Continuous
100
AcDbLine
 10
153.722008874369
 20
126.8831025292549
 30
0.0
 11
153.703116700341
 21
126.8742529658556
 31
0.0
  0
LINE
  5
3A9
330
E3
100
AcDbEntity
  8
0
  6
Continuous
100
AcDbLine
 10
153.703116700341
 20
126.8742529658556
 30
0.0
 11
153.6876240330496
 21
126.8659999260712
 31
0.0
  0
LINE
  5
3AA
330
E3
100
AcDbEntity
  8
0
  6
Continuous
100
AcDbLine
 10
153.6876240330496
 20
126.8659999260712
 30
0.0
 11
153.6756494993501
 21
126.8583705246114
 31
0.0
  0
LINE
  5
3AB
330
E3
100
AcDbEntity
  8
0
  6
Continuous
100
AcDbLine
 10
153.6756494993501
 20
126.8583705246114
 30
0.0
 11
153.667294779404
 21
126.851378318831
 31
0.0
  0
LINE
  5
3AC
330
E3
100
AcDbEntity
  8
0
  6
Continuous
100
AcDbLine
 10
153.667294779404
 20
126.851378318831
 30
0.0
 11
153.6626321346556
 21
126.8450389281922
 31
0.0
  0
LINE
  5
3AD
330
E3
100
AcDbEntity
  8
0
  6
Continuous
100
AcDbLine
 10
153.6626321346556
 20
126.8450389281922
 30
0.0
 11
153.6617021293407
 21
126.8393563202723
 31
0.0
  0
LINE
  5
3AE
330
E3
100
AcDbEntity
  8
0
  6
Continuous
100
AcDbLine
 10
154.6804845258095
 20
126.8203247201759
 30
0.0
 11
154.6795545204946
 21
126.814642112256
 31
0.0
  0
LINE
  5
3AF
330
E3
100
AcDbEntity
  8
0
  6
Continuous
100
AcDbLine
 10
154.6795545204946
 20
126.814642112256
 30
0.0
 11
154.6748912846919
 21
126.8083012350759
 31
0.0
  0
LINE
  5
3B0
330
E3
100
AcDbEntity
  8
0
  6
Continuous
100
AcDbLine
 10
154.6748912846919
 20
126.8083012350759
 30
0.0
 11
154.666536231642
 21
126.8013110072518
 31
0.0
  0
LINE
  5
3B1
330
E3
100
AcDbEntity
  8
0
  6
Continuous
100
AcDbLine
 10
154.666536231642
 20
126.8013110072518
 30
0.0
 11
154.6545650872813
 21
126.7936782164533
 31
0.0
  0
LINE
  5
3B2
330
E3
100
AcDbEntity
  8
0
  6
Continuous
100
AcDbLine
 10
154.6545650872813
 20
126.7936782164533
 30
0.0
 11
154.6390690306511
 21
126.7854285660076
 31
0.0
  0
LINE
  5
3B3
330
E3
100
AcDbEntity
  8
0
  6
Continuous
100
AcDbLine
 10
154.6390690306511
 20
126.7854285660076
 30
0.0
 11
154.6201768566231
 21
126.7765790026084
 31
0.0
  0
LINE
  5
3B4
330
E3
100
AcDbEntity
  8
0
  6
Continuous
100
AcDbLine
 10
154.6201768566231
 20
126.7765790026084
 30
0.0
 11
154.5980410854395
 21
126.7671566409654
 31
0.0
  0
LINE
  5
3B5
330
E3
100
AcDbEntity
  8
0
  6
Continuous
100
AcDbLine
 10
154.5980410854395
 20
126.7671566409654
 30
0.0
 11
154.5728345733752
 21
126.7571953744659
 31
0.0
  0
LINE
  5
3B6
330
E3
100
AcDbEntity
  8
0
  6
Continuous
100
AcDbLine
 10
154.5728345733752
 20
126.7571953744659
 30
0.0
 11
154.5447572914146
 21
126.7467257071582
 31
0.0
  0
LINE
  5
3B7
330
E3
100
AcDbEntity
  8
0
  6
Continuous
100
AcDbLine
 10
154.5447572914146
 20
126.7467257071582
 30
0.0
 11
154.5140295465746
 21
126.7357883111072
 31
0.0
  0
LINE
  5
3B8
330
E3
100
AcDbEntity
  8
0
  6
Continuous
100
AcDbLine
 10
154.5140295465746
 20
126.7357883111072
 30
0.0
 11
154.4808919819043
 21
126.7244272477161
 31
0.0
  0
LINE
  5
3B9
330
E3
100
AcDbEntity
  8
0
  6
Continuous
100
AcDbLine
 10
154.4808919819043
 20
126.7244272477161
 30
0.0
 11
154.4456089658239
 21
126.7126865783883
 31
0.0
  0
LINE
  5
3BA
330
E3
100
AcDbEntity
  8
0
  6
Continuous
100
AcDbLine
 10
154.4456089658239
 20
126.7126865783883
 30
0.0
 11
154.4084482560924
 21
126.7006137538659
 31
0.0
  0
LINE
  5
3BB
330
E3
100
AcDbEntity
  8
0
  6
Continuous
100
AcDbLine
 10
154.4084482560924
 20
126.7006137538659
 30
0.0
 11
154.3697047251784
 21
126.6882663929071
 31
0.0
  0
LINE
  5
3BC
330
E3
100
AcDbEntity
  8
0
  6
Continuous
100
AcDbLine
 10
154.3697047251784
 20
126.6882663929071
 30
0.0
 11
154.3296800242281
 21
126.6756885569154
 31
0.0
  0
LINE
  5
3BD
330
E3
100
AcDbEntity
  8
0
  6
Continuous
100
AcDbLine
 10
154.3296800242281
 20
126.6756885569154
 30
0.0
 11
154.2886859724037
 21
126.6629412539876
 31
0.0
  0
LINE
  5
3BE
330
E3
100
AcDbEntity
  8
0
  6
Continuous
100
AcDbLine
 10
154.2886859724037
 20
126.6629412539876
 30
0.0
 11
154.2470411675449
 21
126.6500787135433
 31
0.0
  0
LINE
  5
3BF
330
E3
100
AcDbEntity
  8
0
  6
Continuous
100
AcDbLine
 10
154.2470411675449
 20
126.6500787135433
 30
0.0
 11
154.2050675968303
 21
126.6371619436795
 31
0.0
  0
LINE
  5
3C0
330
E3
100
AcDbEntity
  8
0
  6
Continuous
100
AcDbLine
 10
154.2050675968303
 20
126.6371619436795
 30
0.0
 11
154.1630974154544
 21
126.624241784477
 31
0.0
  0
LINE
  5
3C1
330
E3
100
AcDbEntity
  8
0
  6
Continuous
100
AcDbLine
 10
154.1630974154544
 20
126.624241784477
 30
0.0
 11
154.121449221257
 21
126.6113792440327
 31
0.0
  0
LINE
  5
3C2
330
E3
100
AcDbEntity
  8
0
  6
Continuous
100
AcDbLine
 10
154.121449221257
 20
126.6113792440327
 30
0.0
 11
154.0804551694326
 21
126.5986319411049
 31
0.0
  0
LINE
  5
3C3
330
E3
100
AcDbEntity
  8
0
  6
Continuous
100
AcDbLine
 10
154.0804551694326
 20
126.5986319411049
 30
0.0
 11
154.0404304684822
 21
126.5860574944518
 31
0.0
  0
LINE
  5
3C4
330
E3
100
AcDbEntity
  8
0
  6
Continuous
100
AcDbLine
 10
154.0404304684822
 20
126.5860574944518
 30
0.0
 11
154.0016869375682
 21
126.5737067441544
 31
0.0
  0
LINE
  5
3C5
330
E3
100
AcDbEntity
  8
0
  6
Continuous
100
AcDbLine
 10
154.0016869375682
 20
126.5737067441544
 30
0.0
 11
153.9645296171754
 21
126.561633919632
 31
0.0
  0
LINE
  5
3C6
330
E3
100
AcDbEntity
  8
0
  6
Continuous
100
AcDbLine
 10
153.9645296171754
 20
126.561633919632
 30
0.0
 11
153.9292432117563
 21
126.5498966396429
 31
0.0
  0
LINE
  5
3C7
330
E3
100
AcDbEntity
  8
0
  6
Continuous
100
AcDbLine
 10
153.9292432117563
 20
126.5498966396429
 30
0.0
 11
153.896105647086
 21
126.538532186913
 31
0.0
  0
LINE
  5
3C8
330
E3
100
AcDbEntity
  8
0
  6
Continuous
100
AcDbLine
 10
153.896105647086
 20
126.538532186913
 30
0.0
 11
153.865377902246
 21
126.5275981802007
 31
0.0
  0
LINE
  5
3C9
330
E3
100
AcDbEntity
  8
0
  6
Continuous
100
AcDbLine
 10
153.865377902246
 20
126.5275981802007
 30
0.0
 11
153.8373006202854
 21
126.5171285128931
 31
0.0
  0
LINE
  5
3CA
330
E3
100
AcDbEntity
  8
0
  6
Continuous
100
AcDbLine
 10
153.8373006202854
 20
126.5171285128931
 30
0.0
 11
153.8120941082211
 21
126.5071638570549
 31
0.0
  0
LINE
  5
3CB
330
E3
100
AcDbEntity
  8
0
  6
Continuous
100
AcDbLine
 10
153.8120941082211
 20
126.5071638570549
 30
0.0
 11
153.7899583370376
 21
126.4977414954119
 31
0.0
  0
LINE
  5
3CC
330
E3
100
AcDbEntity
  8
0
  6
Continuous
100
AcDbLine
 10
153.7899583370376
 20
126.4977414954119
 30
0.0
 11
153.7710661630095
 21
126.4888919320127
 31
0.0
  0
LINE
  5
3CD
330
E3
100
AcDbEntity
  8
0
  6
Continuous
100
AcDbLine
 10
153.7710661630095
 20
126.4888919320127
 30
0.0
 11
153.7555734957181
 21
126.480642281567
 31
0.0
  0
LINE
  5
3CE
330
E3
100
AcDbEntity
  8
0
  6
Continuous
100
AcDbLine
 10
153.7555734957181
 20
126.480642281567
 30
0.0
 11
153.7435989620186
 21
126.4730128801071
 31
0.0
  0
LINE
  5
3CF
330
E3
100
AcDbEntity
  8
0
  6
Continuous
100
AcDbLine
 10
153.7435989620186
 20
126.4730128801071
 30
0.0
 11
153.7352442420726
 21
126.4660206743268
 31
0.0
  0
LINE
  5
3D0
330
E3
100
AcDbEntity
  8
0
  6
Continuous
100
AcDbLine
 10
153.7352442420726
 20
126.4660206743268
 30
0.0
 11
153.7305814215688
 21
126.4596793726656
 31
0.0
  0
LINE
  5
3D1
330
E3
100
AcDbEntity
  8
0
  6
Continuous
100
AcDbLine
 10
153.7305814215688
 20
126.4596793726656
 30
0.0
 11
153.7296514162538
 21
126.4539967647458
 31
0.0
  0
LINE
  5
3D2
330
E3
100
AcDbEntity
  8
0
  6
Continuous
100
AcDbLine
 10
154.7484338127226
 20
126.4349651646494
 30
0.0
 11
154.7475038074078
 21
126.4292825567295
 31
0.0
  0
LINE
  5
3D3
330
E3
100
AcDbEntity
  8
0
  6
Continuous
100
AcDbLine
 10
154.7475038074078
 20
126.4292825567295
 30
0.0
 11
154.742840571605
 21
126.4229416795494
 31
0.0
  0
LINE
  5
3D4
330
E3
100
AcDbEntity
  8
0
  6
Continuous
100
AcDbLine
 10
154.742840571605
 20
126.4229416795494
 30
0.0
 11
154.7344856943105
 21
126.4159499734089
 31
0.0
  0
LINE
  5
3D5
330
E3
100
AcDbEntity
  8
0
  6
Continuous
100
AcDbLine
 10
154.7344856943105
 20
126.4159499734089
 30
0.0
 11
154.7225145499497
 21
126.408320571949
 31
0.0
  0
LINE
  5
3D6
330
E3
100
AcDbEntity
  8
0
  6
Continuous
100
AcDbLine
 10
154.7225145499497
 20
126.408320571949
 30
0.0
 11
154.7070184933196
 21
126.4000709215033
 31
0.0
  0
LINE
  5
3D7
330
E3
100
AcDbEntity
  8
0
  6
Continuous
100
AcDbLine
 10
154.7070184933196
 20
126.4000709215033
 30
0.0
 11
154.6881263192916
 21
126.3912179687654
 31
0.0
  0
LINE
  5
3D8
330
E3
100
AcDbEntity
  8
0
  6
Continuous
100
AcDbLine
 10
154.6881263192916
 20
126.3912179687654
 30
0.0
 11
154.665990548108
 21
126.3817989964612
 31
0.0
  0
LINE
  5
3D9
330
E3
100
AcDbEntity
  8
0
  6
Continuous
100
AcDbLine
 10
154.665990548108
 20
126.3817989964612
 30
0.0
 11
154.6407840360437
 21
126.3718343406229
 31
0.0
  0
LINE
  5
3DA
330
E3
100
AcDbEntity
  8
0
  6
Continuous
100
AcDbLine
 10
154.6407840360437
 20
126.3718343406229
 30
0.0
 11
154.6127067540831
 21
126.3613646733153
 31
0.0
  0
LINE
  5
3DB
330
E3
100
AcDbEntity
  8
0
  6
Continuous
100
AcDbLine
 10
154.6127067540831
 20
126.3613646733153
 30
0.0
 11
154.5819790092431
 21
126.3504272772642
 31
0.0
  0
LINE
  5
3DC
330
E3
100
AcDbEntity
  8
0
  6
Continuous
100
AcDbLine
 10
154.5819790092431
 20
126.3504272772642
 30
0.0
 11
154.5488414445728
 21
126.3390662138731
 31
0.0
  0
LINE
  5
3DD
330
E3
100
AcDbEntity
  8
0
  6
Continuous
100
AcDbLine
 10
154.5488414445728
 20
126.3390662138731
 30
0.0
 11
154.5135584284924
 21
126.3273255445453
 31
0.0
  0
LINE
  5
3DE
330
E3
100
AcDbEntity
  8
0
  6
Continuous
100
AcDbLine
 10
154.5135584284924
 20
126.3273255445453
 30
0.0
 11
154.4763977187609
 21
126.3152561093616
 31
0.0
  0
LINE
  5
3DF
330
E3
100
AcDbEntity
  8
0
  6
Continuous
100
AcDbLine
 10
154.4763977187609
 20
126.3152561093616
 30
0.0
 11
154.4376541878469
 21
126.3029053590642
 31
0.0
  0
LINE
  5
3E0
330
E3
100
AcDbEntity
  8
0
  6
Continuous
100
AcDbLine
 10
154.4376541878469
 20
126.3029053590642
 30
0.0
 11
154.3976294868966
 21
126.2903309124111
 31
0.0
  0
LINE
  5
3E1
330
E3
100
AcDbEntity
  8
0
  6
Continuous
100
AcDbLine
 10
154.3976294868966
 20
126.2903309124111
 30
0.0
 11
154.3566354350722
 21
126.2775836094834
 31
0.0
  0
LINE
  5
3E2
330
E3
100
AcDbEntity
  8
0
  6
Continuous
100
AcDbLine
 10
154.3566354350722
 20
126.2775836094834
 30
0.0
 11
154.3149906302135
 21
126.2647210690391
 31
0.0
  0
LINE
  5
3E3
330
E3
100
AcDbEntity
  8
0
  6
Continuous
100
AcDbLine
 10
154.3149906302135
 20
126.2647210690391
 30
0.0
 11
154.2730170594988
 21
126.2518009098365
 31
0.0
  0
LINE
  5
3E4
330
E3
100
AcDbEntity
  8
0
  6
Continuous
100
AcDbLine
 10
154.2730170594988
 20
126.2518009098365
 30
0.0
 11
154.2310434887842
 21
126.238880750634
 31
0.0
  0
LINE
  5
3E5
330
E3
100
AcDbEntity
  8
0
  6
Continuous
100
AcDbLine
 10
154.2310434887842
 20
126.238880750634
 30
0.0
 11
154.1893986839254
 21
126.2260215995284
 31
0.0
  0
LINE
  5
3E6
330
E3
100
AcDbEntity
  8
0
  6
Continuous
100
AcDbLine
 10
154.1893986839254
 20
126.2260215995284
 30
0.0
 11
154.1484046321011
 21
126.2132742966006
 31
0.0
  0
LINE
  5
3E7
330
E3
100
AcDbEntity
  8
0
  6
Continuous
100
AcDbLine
 10
154.1484046321011
 20
126.2132742966006
 30
0.0
 11
154.1083799311507
 21
126.2006964606089
 31
0.0
  0
LINE
  5
3E8
330
E3
100
AcDbEntity
  8
0
  6
Continuous
100
AcDbLine
 10
154.1083799311507
 20
126.2006964606089
 30
0.0
 11
154.0696364002367
 21
126.1883457103114
 31
0.0
  0
LINE
  5
3E9
330
E3
100
AcDbEntity
  8
0
  6
Continuous
100
AcDbLine
 10
154.0696364002367
 20
126.1883457103114
 30
0.0
 11
154.032479079844
 21
126.1762762751277
 31
0.0
  0
LINE
  5
3EA
330
E3
100
AcDbEntity
  8
0
  6
Continuous
100
AcDbLine
 10
154.032479079844
 20
126.1762762751277
 30
0.0
 11
153.9971926744249
 21
126.1645356057999
 31
0.0
  0
LINE
  5
3EB
330
E3
100
AcDbEntity
  8
0
  6
Continuous
100
AcDbLine
 10
153.9971926744249
 20
126.1645356057999
 30
0.0
 11
153.9640551097546
 21
126.1531745424088
 31
0.0
  0
LINE
  5
3EC
330
E3
100
AcDbEntity
  8
0
  6
Continuous
100
AcDbLine
 10
153.9640551097546
 20
126.1531745424088
 30
0.0
 11
153.9333273649146
 21
126.1422371463577
 31
0.0
  0
LINE
  5
3ED
330
E3
100
AcDbEntity
  8
0
  6
Continuous
100
AcDbLine
 10
153.9333273649146
 20
126.1422371463577
 30
0.0
 11
153.905250082954
 21
126.1317674790502
 31
0.0
  0
LINE
  5
3EE
330
E3
100
AcDbEntity
  8
0
  6
Continuous
100
AcDbLine
 10
153.905250082954
 20
126.1317674790502
 30
0.0
 11
153.8800435708896
 21
126.1218062125506
 31
0.0
  0
LINE
  5
3EF
330
E3
100
AcDbEntity
  8
0
  6
Continuous
100
AcDbLine
 10
153.8800435708896
 20
126.1218062125506
 30
0.0
 11
153.857907799706
 21
126.1123838509076
 31
0.0
  0
LINE
  5
3F0
330
E3
100
AcDbEntity
  8
0
  6
Continuous
100
AcDbLine
 10
153.857907799706
 20
126.1123838509076
 30
0.0
 11
153.839015625678
 21
126.1035342875084
 31
0.0
  0
LINE
  5
3F1
330
E3
100
AcDbEntity
  8
0
  6
Continuous
100
AcDbLine
 10
153.839015625678
 20
126.1035342875084
 30
0.0
 11
153.8235229583866
 21
126.095281247724
 31
0.0
  0
LINE
  5
3F2
330
E3
100
AcDbEntity
  8
0
  6
Continuous
100
AcDbLine
 10
153.8235229583866
 20
126.095281247724
 30
0.0
 11
153.8115484246871
 21
126.0876518462642
 31
0.0
  0
LINE
  5
3F3
330
E3
100
AcDbEntity
  8
0
  6
Continuous
100
AcDbLine
 10
153.8115484246871
 20
126.0876518462642
 30
0.0
 11
153.8031937047411
 21
126.0806596404838
 31
0.0
  0
LINE
  5
3F4
330
E3
100
AcDbEntity
  8
0
  6
Continuous
100
AcDbLine
 10
153.8031937047411
 20
126.0806596404838
 30
0.0
 11
153.7985307084819
 21
126.0743198171391
 31
0.0
  0
LINE
  5
3F5
330
E3
100
AcDbEntity
  8
0
  6
Continuous
100
AcDbLine
 10
153.7985307084819
 20
126.0743198171391
 30
0.0
 11
153.797600703167
 21
126.0686372092192
 31
0.0
  0
LINE
  5
3F6
330
E3
100
AcDbEntity
  8
0
  6
Continuous
100
AcDbLine
 10
154.8163830996358
 20
126.0496056091229
 30
0.0
 11
154.8154530943209
 21
126.043923001203
 31
0.0
  0
LINE
  5
3F7
330
E3
100
AcDbEntity
  8
0
  6
Continuous
100
AcDbLine
 10
154.8154530943209
 20
126.043923001203
 30
0.0
 11
154.8107898585182
 21
126.0375821240229
 31
0.0
  0
LINE
  5
3F8
330
E3
100
AcDbEntity
  8
0
  6
Continuous
100
AcDbLine
 10
154.8107898585182
 20
126.0375821240229
 30
0.0
 11
154.802435156979
 21
126.0305889395659
 31
0.0
  0
LINE
  5
3F9
330
E3
100
AcDbEntity
  8
0
  6
Continuous
100
AcDbLine
 10
154.802435156979
 20
126.0305889395659
 30
0.0
 11
154.7904640126183
 21
126.0229595381061
 31
0.0
  0
LINE
  5
3FA
330
E3
100
AcDbEntity
  8
0
  6
Continuous
100
AcDbLine
 10
154.7904640126183
 20
126.0229595381061
 30
0.0
 11
154.7749679559881
 21
126.0147098876604
 31
0.0
  0
LINE
  5
3FB
330
E3
100
AcDbEntity
  8
0
  6
Continuous
100
AcDbLine
 10
154.7749679559881
 20
126.0147098876604
 30
0.0
 11
154.7560757819601
 21
126.0058603242612
 31
0.0
  0
LINE
  5
3FC
330
E3
100
AcDbEntity
  8
0
  6
Continuous
100
AcDbLine
 10
154.7560757819601
 20
126.0058603242612
 30
0.0
 11
154.7339400107766
 21
125.9964379626182
 31
0.0
  0
LINE
  5
3FD
330
E3
100
AcDbEntity
  8
0
  6
Continuous
100
AcDbLine
 10
154.7339400107766
 20
125.9964379626182
 30
0.0
 11
154.7087334987122
 21
125.9864733067799
 31
0.0
  0
LINE
  5
3FE
330
E3
100
AcDbEntity
  8
0
  6
Continuous
100
AcDbLine
 10
154.7087334987122
 20
125.9864733067799
 30
0.0
 11
154.6806562167517
 21
125.976007028811
 31
0.0
  0
LINE
  5
3FF
330
E3
100
AcDbEntity
  8
0
  6
Continuous
100
AcDbLine
 10
154.6806562167517
 20
125.976007028811
 30
0.0
 11
154.6499284719116
 21
125.96506963276
 31
0.0
  0
LINE
  5
400
330
E3
100
AcDbEntity
  8
0
  6
Continuous
100
AcDbLine
 10
154.6499284719116
 20
125.96506963276
 30
0.0
 11
154.6167909072414
 21
125.9537085693689
 31
0.0
  0
LINE
  5
401
330
E3
100
AcDbEntity
  8
0
  6
Continuous
100
AcDbLine
 10
154.6167909072414
 20
125.9537085693689
 30
0.0
 11
154.5815045018222
 21
125.9419679000411
 31
0.0
  0
LINE
  5
402
330
E3
100
AcDbEntity
  8
0
  6
Continuous
100
AcDbLine
 10
154.5815045018222
 20
125.9419679000411
 30
0.0
 11
154.5443471814294
 21
125.9298950755187
 31
0.0
  0
LINE
  5
403
330
E3
100
AcDbEntity
  8
0
  6
Continuous
100
AcDbLine
 10
154.5443471814294
 20
125.9298950755187
 30
0.0
 11
154.5056036505155
 21
125.9175477145599
 31
0.0
  0
LINE
  5
404
330
E3
100
AcDbEntity
  8
0
  6
Continuous
100
AcDbLine
 10
154.5056036505155
 20
125.9175477145599
 30
0.0
 11
154.4655789495651
 21
125.9049698785681
 31
0.0
  0
LINE
  5
405
330
E3
100
AcDbEntity
  8
0
  6
Continuous
100
AcDbLine
 10
154.4655789495651
 20
125.9049698785681
 30
0.0
 11
154.4245848977407
 21
125.8922225756404
 31
0.0
  0
LINE
  5
406
330
E3
100
AcDbEntity
  8
0
  6
Continuous
100
AcDbLine
 10
154.4245848977407
 20
125.8922225756404
 30
0.0
 11
154.3829400928819
 21
125.8793600351961
 31
0.0
  0
LINE
  5
407
330
E3
100
AcDbEntity
  8
0
  6
Continuous
100
AcDbLine
 10
154.3829400928819
 20
125.8793600351961
 30
0.0
 11
154.3409665221673
 21
125.8664432653323
 31
0.0
  0
LINE
  5
408
330
E3
100
AcDbEntity
  8
0
  6
Continuous
100
AcDbLine
 10
154.3409665221673
 20
125.8664432653323
 30
0.0
 11
154.2989929514527
 21
125.8535231061297
 31
0.0
  0
LINE
  5
409
330
E3
100
AcDbEntity
  8
0
  6
Continuous
100
AcDbLine
 10
154.2989929514527
 20
125.8535231061297
 30
0.0
 11
154.257348146594
 21
125.8406605656855
 31
0.0
  0
LINE
  5
40A
330
E3
100
AcDbEntity
  8
0
  6
Continuous
100
AcDbLine
 10
154.257348146594
 20
125.8406605656855
 30
0.0
 11
154.2163540947696
 21
125.8279132627577
 31
0.0
  0
LINE
  5
40B
330
E3
100
AcDbEntity
  8
0
  6
Continuous
100
AcDbLine
 10
154.2163540947696
 20
125.8279132627577
 30
0.0
 11
154.1763293938193
 21
125.8153388161046
 31
0.0
  0
LINE
  5
40C
330
E3
100
AcDbEntity
  8
0
  6
Continuous
100
AcDbLine
 10
154.1763293938193
 20
125.8153388161046
 30
0.0
 11
154.1375858629052
 21
125.8029880658071
 31
0.0
  0
LINE
  5
40D
330
E3
100
AcDbEntity
  8
0
  6
Continuous
100
AcDbLine
 10
154.1375858629052
 20
125.8029880658071
 30
0.0
 11
154.1004285425124
 21
125.7909152412848
 31
0.0
  0
LINE
  5
40E
330
E3
100
AcDbEntity
  8
0
  6
Continuous
100
AcDbLine
 10
154.1004285425124
 20
125.7909152412848
 30
0.0
 11
154.0651421370934
 21
125.7791745719569
 31
0.0
  0
LINE
  5
40F
330
E3
100
AcDbEntity
  8
0
  6
Continuous
100
AcDbLine
 10
154.0651421370934
 20
125.7791745719569
 30
0.0
 11
154.0320045724231
 21
125.7678135085658
 31
0.0
  0
LINE
  5
410
330
E3
100
AcDbEntity
  8
0
  6
Continuous
100
AcDbLine
 10
154.0320045724231
 20
125.7678135085658
 30
0.0
 11
154.001276827583
 21
125.7568761125148
 31
0.0
  0
LINE
  5
411
330
E3
100
AcDbEntity
  8
0
  6
Continuous
100
AcDbLine
 10
154.001276827583
 20
125.7568761125148
 30
0.0
 11
153.9731995456224
 21
125.7464098345459
 31
0.0
  0
LINE
  5
412
330
E3
100
AcDbEntity
  8
0
  6
Continuous
100
AcDbLine
 10
153.9731995456224
 20
125.7464098345459
 30
0.0
 11
153.9479930335581
 21
125.7364451787076
 31
0.0
  0
LINE
  5
413
330
E3
100
AcDbEntity
  8
0
  6
Continuous
100
AcDbLine
 10
153.9479930335581
 20
125.7364451787076
 30
0.0
 11
153.9258572623746
 21
125.7270228170647
 31
0.0
  0
LINE
  5
414
330
E3
100
AcDbEntity
  8
0
  6
Continuous
100
AcDbLine
 10
153.9258572623746
 20
125.7270228170647
 30
0.0
 11
153.9069650883465
 21
125.7181732536654
 31
0.0
  0
LINE
  5
415
330
E3
100
AcDbEntity
  8
0
  6
Continuous
100
AcDbLine
 10
153.9069650883465
 20
125.7181732536654
 30
0.0
 11
153.8914690317164
 21
125.7099236032197
 31
0.0
  0
LINE
  5
416
330
E3
100
AcDbEntity
  8
0
  6
Continuous
100
AcDbLine
 10
153.8914690317164
 20
125.7099236032197
 30
0.0
 11
153.8794978873556
 21
125.7022942017599
 31
0.0
  0
LINE
  5
417
330
E3
100
AcDbEntity
  8
0
  6
Continuous
100
AcDbLine
 10
153.8794978873556
 20
125.7022942017599
 30
0.0
 11
153.8711431674096
 21
125.6953019959795
 31
0.0
  0
LINE
  5
418
330
E3
100
AcDbEntity
  8
0
  6
Continuous
100
AcDbLine
 10
153.8711431674096
 20
125.6953019959795
 30
0.0
 11
153.8664799953951
 21
125.6889602616126
 31
0.0
  0
LINE
  5
419
330
E3
100
AcDbEntity
  8
0
  6
Continuous
100
AcDbLine
 10
153.8664799953951
 20
125.6889602616126
 30
0.0
 11
153.8655499900802
 21
125.6832776536927
 31
0.0
  0
LINE
  5
41A
330
E3
100
AcDbEntity
  8
0
  6
Continuous
100
AcDbLine
 10
154.8843323865489
 20
125.6642460535964
 30
0.0
 11
154.883402381234
 21
125.6585634456765
 31
0.0
  0
LINE
  5
41B
330
E3
100
AcDbEntity
  8
0
  6
Continuous
100
AcDbLine
 10
154.883402381234
 20
125.6585634456765
 30
0.0
 11
154.8787391454313
 21
125.6522225684964
 31
0.0
  0
LINE
  5
41C
330
E3
100
AcDbEntity
  8
0
  6
Continuous
100
AcDbLine
 10
154.8787391454313
 20
125.6522225684964
 30
0.0
 11
154.8703846196476
 21
125.6452312950617
 31
0.0
  0
LINE
  5
41D
330
E3
100
AcDbEntity
  8
0
  6
Continuous
100
AcDbLine
 10
154.8703846196476
 20
125.6452312950617
 30
0.0
 11
154.858410085948
 21
125.6376018936018
 31
0.0
  0
LINE
  5
41E
330
E3
100
AcDbEntity
  8
0
  6
Continuous
100
AcDbLine
 10
154.858410085948
 20
125.6376018936018
 30
0.0
 11
154.8429174186567
 21
125.6293488538174
 31
0.0
  0
LINE
  5
41F
330
E3
100
AcDbEntity
  8
0
  6
Continuous
100
AcDbLine
 10
154.8429174186567
 20
125.6293488538174
 30
0.0
 11
154.8240252446286
 21
125.6204992904182
 31
0.0
  0
LINE
  5
420
330
E3
100
AcDbEntity
  8
0
  6
Continuous
100
AcDbLine
 10
154.8240252446286
 20
125.6204992904182
 30
0.0
 11
154.801889473445
 21
125.6110769287752
 31
0.0
  0
LINE
  5
421
330
E3
100
AcDbEntity
  8
0
  6
Continuous
100
AcDbLine
 10
154.801889473445
 20
125.6110769287752
 30
0.0
 11
154.7766829613807
 21
125.6011156622757
 31
0.0
  0
LINE
  5
422
330
E3
100
AcDbEntity
  8
0
  6
Continuous
100
AcDbLine
 10
154.7766829613807
 20
125.6011156622757
 30
0.0
 11
154.7486056794201
 21
125.5906459949681
 31
0.0
  0
LINE
  5
423
330
E3
100
AcDbEntity
  8
0
  6
Continuous
100
AcDbLine
 10
154.7486056794201
 20
125.5906459949681
 30
0.0
 11
154.7178779345801
 21
125.579708598917
 31
0.0
  0
LINE
  5
424
330
E3
100
AcDbEntity
  8
0
  6
Continuous
100
AcDbLine
 10
154.7178779345801
 20
125.579708598917
 30
0.0
 11
154.6847403699098
 21
125.5683475355259
 31
0.0
  0
LINE
  5
425
330
E3
100
AcDbEntity
  8
0
  6
Continuous
100
AcDbLine
 10
154.6847403699098
 20
125.5683475355259
 30
0.0
 11
154.6494539644908
 21
125.5566068661981
 31
0.0
  0
LINE
  5
426
330
E3
100
AcDbEntity
  8
0
  6
Continuous
100
AcDbLine
 10
154.6494539644908
 20
125.5566068661981
 30
0.0
 11
154.6122966440979
 21
125.5445374310144
 31
0.0
  0
LINE
  5
427
330
E3
100
AcDbEntity
  8
0
  6
Continuous
100
AcDbLine
 10
154.6122966440979
 20
125.5445374310144
 30
0.0
 11
154.5735531131839
 21
125.5321866807169
 31
0.0
  0
LINE
  5
428
330
E3
100
AcDbEntity
  8
0
  6
Continuous
100
AcDbLine
 10
154.5735531131839
 20
125.5321866807169
 30
0.0
 11
154.5335284122336
 21
125.5196088447252
 31
0.0
  0
LINE
  5
429
330
E3
100
AcDbEntity
  8
0
  6
Continuous
100
AcDbLine
 10
154.5335284122336
 20
125.5196088447252
 30
0.0
 11
154.4925343604092
 21
125.5068649311361
 31
0.0
  0
LINE
  5
42A
330
E3
100
AcDbEntity
  8
0
  6
Continuous
100
AcDbLine
 10
154.4925343604092
 20
125.5068649311361
 30
0.0
 11
154.4508895555505
 21
125.4940023906918
 31
0.0
  0
LINE
  5
42B
330
E3
100
AcDbEntity
  8
0
  6
Continuous
100
AcDbLine
 10
154.4508895555505
 20
125.4940023906918
 30
0.0
 11
154.4089159848359
 21
125.4810822314893
 31
0.0
  0
LINE
  5
42C
330
E3
100
AcDbEntity
  8
0
  6
Continuous
100
AcDbLine
 10
154.4089159848359
 20
125.4810822314893
 30
0.0
 11
154.3669424141212
 21
125.4681620722868
 31
0.0
  0
LINE
  5
42D
330
E3
100
AcDbEntity
  8
0
  6
Continuous
100
AcDbLine
 10
154.3669424141212
 20
125.4681620722868
 30
0.0
 11
154.3252976092625
 21
125.4552995318425
 31
0.0
  0
LINE
  5
42E
330
E3
100
AcDbEntity
  8
0
  6
Continuous
100
AcDbLine
 10
154.3252976092625
 20
125.4552995318425
 30
0.0
 11
154.2843035574381
 21
125.4425522289147
 31
0.0
  0
LINE
  5
42F
330
E3
100
AcDbEntity
  8
0
  6
Continuous
100
AcDbLine
 10
154.2843035574381
 20
125.4425522289147
 30
0.0
 11
154.2442788564877
 21
125.4299777822617
 31
0.0
  0
LINE
  5
430
330
E3
100
AcDbEntity
  8
0
  6
Continuous
100
AcDbLine
 10
154.2442788564877
 20
125.4299777822617
 30
0.0
 11
154.2055353255737
 21
125.4176270319642
 31
0.0
  0
LINE
  5
431
330
E3
100
AcDbEntity
  8
0
  6
Continuous
100
AcDbLine
 10
154.2055353255737
 20
125.4176270319642
 30
0.0
 11
154.1683780051809
 21
125.4055575967805
 31
0.0
  0
LINE
  5
432
330
E3
100
AcDbEntity
  8
0
  6
Continuous
100
AcDbLine
 10
154.1683780051809
 20
125.4055575967805
 30
0.0
 11
154.1330915997619
 21
125.3938169274527
 31
0.0
  0
LINE
  5
433
330
E3
100
AcDbEntity
  8
0
  6
Continuous
100
AcDbLine
 10
154.1330915997619
 20
125.3938169274527
 30
0.0
 11
154.0999540350916
 21
125.3824558640616
 31
0.0
  0
LINE
  5
434
330
E3
100
AcDbEntity
  8
0
  6
Continuous
100
AcDbLine
 10
154.0999540350916
 20
125.3824558640616
 30
0.0
 11
154.0692262902515
 21
125.3715184680105
 31
0.0
  0
LINE
  5
435
330
E3
100
AcDbEntity
  8
0
  6
Continuous
100
AcDbLine
 10
154.0692262902515
 20
125.3715184680105
 30
0.0
 11
154.041149008291
 21
125.3610488007029
 31
0.0
  0
LINE
  5
436
330
E3
100
AcDbEntity
  8
0
  6
Continuous
100
AcDbLine
 10
154.041149008291
 20
125.3610488007029
 30
0.0
 11
154.0159424962266
 21
125.3510841448647
 31
0.0
  0
LINE
  5
437
330
E3
100
AcDbEntity
  8
0
  6
Continuous
100
AcDbLine
 10
154.0159424962266
 20
125.3510841448647
 30
0.0
 11
153.9938067250431
 21
125.3416651725604
 31
0.0
  0
LINE
  5
438
330
E3
100
AcDbEntity
  8
0
  6
Continuous
100
AcDbLine
 10
153.9938067250431
 20
125.3416651725604
 30
0.0
 11
153.974914551015
 21
125.3328156091612
 31
0.0
  0
LINE
  5
439
330
E3
100
AcDbEntity
  8
0
  6
Continuous
100
AcDbLine
 10
153.974914551015
 20
125.3328156091612
 30
0.0
 11
153.9594184943849
 21
125.3245625693768
 31
0.0
  0
LINE
  5
43A
330
E3
100
AcDbEntity
  8
0
  6
Continuous
100
AcDbLine
 10
153.9594184943849
 20
125.3245625693768
 30
0.0
 11
153.9474473500241
 21
125.3169331679169
 31
0.0
  0
LINE
  5
43B
330
E3
100
AcDbEntity
  8
0
  6
Continuous
100
AcDbLine
 10
153.9474473500241
 20
125.3169331679169
 30
0.0
 11
153.9390926300781
 21
125.3099409621366
 31
0.0
  0
LINE
  5
43C
330
E3
100
AcDbEntity
  8
0
  6
Continuous
100
AcDbLine
 10
153.9390926300781
 20
125.3099409621366
 30
0.0
 11
153.9344292823082
 21
125.3036007060861
 31
0.0
  0
LINE
  5
43D
330
E3
100
AcDbEntity
  8
0
  6
Continuous
100
AcDbLine
 10
153.9344292823082
 20
125.3036007060861
 30
0.0
 11
153.9334992769933
 21
125.2979180981662
 31
0.0
  0
LINE
  5
43E
330
E3
100
AcDbEntity
  8
0
  6
Continuous
100
AcDbLine
 10
154.9522816734621
 20
125.2788864980699
 30
0.0
 11
154.9513516681472
 21
125.27320389015
 31
0.0
  0
LINE
  5
43F
330
E3
100
AcDbEntity
  8
0
  6
Continuous
100
AcDbLine
 10
154.9513516681472
 20
125.27320389015
 30
0.0
 11
154.9466884323445
 21
125.2668630129698
 31
0.0
  0
LINE
  5
440
330
E3
100
AcDbEntity
  8
0
  6
Continuous
100
AcDbLine
 10
154.9466884323445
 20
125.2668630129698
 30
0.0
 11
154.9383340823161
 21
125.2598702612187
 31
0.0
  0
LINE
  5
441
330
E3
100
AcDbEntity
  8
0
  6
Continuous
100
AcDbLine
 10
154.9383340823161
 20
125.2598702612187
 30
0.0
 11
154.9263595486165
 21
125.2522408597588
 31
0.0
  0
LINE
  5
442
330
E3
100
AcDbEntity
  8
0
  6
Continuous
100
AcDbLine
 10
154.9263595486165
 20
125.2522408597588
 30
0.0
 11
154.9108668813251
 21
125.2439912093132
 31
0.0
  0
LINE
  5
443
330
E3
100
AcDbEntity
  8
0
  6
Continuous
100
AcDbLine
 10
154.9108668813251
 20
125.2439912093132
 30
0.0
 11
154.8919747072971
 21
125.2351416459139
 31
0.0
  0
LINE
  5
444
330
E3
100
AcDbEntity
  8
0
  6
Continuous
100
AcDbLine
 10
154.8919747072971
 20
125.2351416459139
 30
0.0
 11
154.8698389361136
 21
125.225719284271
 31
0.0
  0
LINE
  5
445
330
E3
100
AcDbEntity
  8
0
  6
Continuous
100
AcDbLine
 10
154.8698389361136
 20
125.225719284271
 30
0.0
 11
154.8446324240492
 21
125.2157546284327
 31
0.0
  0
LINE
  5
446
330
E3
100
AcDbEntity
  8
0
  6
Continuous
100
AcDbLine
 10
154.8446324240492
 20
125.2157546284327
 30
0.0
 11
154.8165551420886
 21
125.2052849611251
 31
0.0
  0
LINE
  5
447
330
E3
100
AcDbEntity
  8
0
  6
Continuous
100
AcDbLine
 10
154.8165551420886
 20
125.2052849611251
 30
0.0
 11
154.7858273972486
 21
125.1943509544128
 31
0.0
  0
LINE
  5
448
330
E3
100
AcDbEntity
  8
0
  6
Continuous
100
AcDbLine
 10
154.7858273972486
 20
125.1943509544128
 30
0.0
 11
154.7526898325783
 21
125.1829898910217
 31
0.0
  0
LINE
  5
449
330
E3
100
AcDbEntity
  8
0
  6
Continuous
100
AcDbLine
 10
154.7526898325783
 20
125.1829898910217
 30
0.0
 11
154.7174034271592
 21
125.1712492216939
 31
0.0
  0
LINE
  5
44A
330
E3
100
AcDbEntity
  8
0
  6
Continuous
100
AcDbLine
 10
154.7174034271592
 20
125.1712492216939
 30
0.0
 11
154.6802461067664
 21
125.1591763971715
 31
0.0
  0
LINE
  5
44B
330
E3
100
AcDbEntity
  8
0
  6
Continuous
100
AcDbLine
 10
154.6802461067664
 20
125.1591763971715
 30
0.0
 11
154.6415025758525
 21
125.146825646874
 31
0.0
  0
LINE
  5
44C
330
E3
100
AcDbEntity
  8
0
  6
Continuous
100
AcDbLine
 10
154.6415025758525
 20
125.146825646874
 30
0.0
 11
154.6014778749021
 21
125.1342512002209
 31
0.0
  0
LINE
  5
44D
330
E3
100
AcDbEntity
  8
0
  6
Continuous
100
AcDbLine
 10
154.6014778749021
 20
125.1342512002209
 30
0.0
 11
154.5604838230777
 21
125.1215038972932
 31
0.0
  0
LINE
  5
44E
330
E3
100
AcDbEntity
  8
0
  6
Continuous
100
AcDbLine
 10
154.5604838230777
 20
125.1215038972932
 30
0.0
 11
154.5188356288803
 21
125.1086413568488
 31
0.0
  0
LINE
  5
44F
330
E3
100
AcDbEntity
  8
0
  6
Continuous
100
AcDbLine
 10
154.5188356288803
 20
125.1086413568488
 30
0.0
 11
154.4768654475044
 21
125.0957211976463
 31
0.0
  0
LINE
  5
450
330
E3
100
AcDbEntity
  8
0
  6
Continuous
100
AcDbLine
 10
154.4768654475044
 20
125.0957211976463
 30
0.0
 11
154.4348918767897
 21
125.0828044277825
 31
0.0
  0
LINE
  5
451
330
E3
100
AcDbEntity
  8
0
  6
Continuous
100
AcDbLine
 10
154.4348918767897
 20
125.0828044277825
 30
0.0
 11
154.393247071931
 21
125.0699418873382
 31
0.0
  0
LINE
  5
452
330
E3
100
AcDbEntity
  8
0
  6
Continuous
100
AcDbLine
 10
154.393247071931
 20
125.0699418873382
 30
0.0
 11
154.3522530201066
 21
125.0571945844105
 31
0.0
  0
LINE
  5
453
330
E3
100
AcDbEntity
  8
0
  6
Continuous
100
AcDbLine
 10
154.3522530201066
 20
125.0571945844105
 30
0.0
 11
154.3122283191562
 21
125.0446167484187
 31
0.0
  0
LINE
  5
454
330
E3
100
AcDbEntity
  8
0
  6
Continuous
100
AcDbLine
 10
154.3122283191562
 20
125.0446167484187
 30
0.0
 11
154.2734847882423
 21
125.0322693874599
 31
0.0
  0
LINE
  5
455
330
E3
100
AcDbEntity
  8
0
  6
Continuous
100
AcDbLine
 10
154.2734847882423
 20
125.0322693874599
 30
0.0
 11
154.2363240785107
 21
125.0201965629375
 31
0.0
  0
LINE
  5
456
330
E3
100
AcDbEntity
  8
0
  6
Continuous
100
AcDbLine
 10
154.2363240785107
 20
125.0201965629375
 30
0.0
 11
154.2010410624304
 21
125.0084558936097
 31
0.0
  0
LINE
  5
457
330
E3
100
AcDbEntity
  8
0
  6
Continuous
100
AcDbLine
 10
154.2010410624304
 20
125.0084558936097
 30
0.0
 11
154.1679034977601
 21
124.9970948302186
 31
0.0
  0
LINE
  5
458
330
E3
100
AcDbEntity
  8
0
  6
Continuous
100
AcDbLine
 10
154.1679034977601
 20
124.9970948302186
 30
0.0
 11
154.1371757529201
 21
124.9861574341676
 31
0.0
  0
LINE
  5
459
330
E3
100
AcDbEntity
  8
0
  6
Continuous
100
AcDbLine
 10
154.1371757529201
 20
124.9861574341676
 30
0.0
 11
154.1090984709595
 21
124.9756877668599
 31
0.0
  0
LINE
  5
45A
330
E3
100
AcDbEntity
  8
0
  6
Continuous
100
AcDbLine
 10
154.1090984709595
 20
124.9756877668599
 30
0.0
 11
154.0838919588951
 21
124.9657265003604
 31
0.0
  0
LINE
  5
45B
330
E3
100
AcDbEntity
  8
0
  6
Continuous
100
AcDbLine
 10
154.0838919588951
 20
124.9657265003604
 30
0.0
 11
154.0617561877116
 21
124.9563041387174
 31
0.0
  0
LINE
  5
45C
330
E3
100
AcDbEntity
  8
0
  6
Continuous
100
AcDbLine
 10
154.0617561877116
 20
124.9563041387174
 30
0.0
 11
154.0428640136836
 21
124.9474545753182
 31
0.0
  0
LINE
  5
45D
330
E3
100
AcDbEntity
  8
0
  6
Continuous
100
AcDbLine
 10
154.0428640136836
 20
124.9474545753182
 30
0.0
 11
154.0273679570534
 21
124.9392049248725
 31
0.0
  0
LINE
  5
45E
330
E3
100
AcDbEntity
  8
0
  6
Continuous
100
AcDbLine
 10
154.0273679570534
 20
124.9392049248725
 30
0.0
 11
154.0153968126926
 21
124.931572134074
 31
0.0
  0
LINE
  5
45F
330
E3
100
AcDbEntity
  8
0
  6
Continuous
100
AcDbLine
 10
154.0153968126926
 20
124.931572134074
 30
0.0
 11
154.0070420927466
 21
124.9245833176323
 31
0.0
  0
LINE
  5
460
330
E3
100
AcDbEntity
  8
0
  6
Continuous
100
AcDbLine
 10
154.0070420927466
 20
124.9245833176323
 30
0.0
 11
154.0023785692213
 21
124.9182411505596
 31
0.0
  0
LINE
  5
461
330
E3
100
AcDbEntity
  8
0
  6
Continuous
100
AcDbLine
 10
154.0023785692213
 20
124.9182411505596
 30
0.0
 11
154.0014485639064
 21
124.9125585426397
 31
0.0
  0
LINE
  5
462
330
E3
100
AcDbEntity
  8
0
  6
Continuous
100
AcDbLine
 10
155.0202309603752
 20
124.8935269425434
 30
0.0
 11
155.0193009550603
 21
124.8878443346235
 31
0.0
  0
LINE
  5
463
330
E3
100
AcDbEntity
  8
0
  6
Continuous
100
AcDbLine
 10
155.0193009550603
 20
124.8878443346235
 30
0.0
 11
155.0146377192576
 21
124.8815034574434
 31
0.0
  0
LINE
  5
464
330
E3
100
AcDbEntity
  8
0
  6
Continuous
100
AcDbLine
 10
155.0146377192576
 20
124.8815034574434
 30
0.0
 11
155.0062835449846
 21
124.8745126167144
 31
0.0
  0
LINE
  5
465
330
E3
100
AcDbEntity
  8
0
  6
Continuous
100
AcDbLine
 10
155.0062835449846
 20
124.8745126167144
 30
0.0
 11
154.9943090112851
 21
124.8668832152546
 31
0.0
  0
LINE
  5
466
330
E3
100
AcDbEntity
  8
0
  6
Continuous
100
AcDbLine
 10
154.9943090112851
 20
124.8668832152546
 30
0.0
 11
154.9788163439937
 21
124.8586301754702
 31
0.0
  0
LINE
  5
467
330
E3
100
AcDbEntity
  8
0
  6
Continuous
100
AcDbLine
 10
154.9788163439937
 20
124.8586301754702
 30
0.0
 11
154.9599241699656
 21
124.849780612071
 31
0.0
  0
LINE
  5
468
330
E3
100
AcDbEntity
  8
0
  6
Continuous
100
AcDbLine
 10
154.9599241699656
 20
124.849780612071
 30
0.0
 11
154.9377883987821
 21
124.840358250428
 31
0.0
  0
LINE
  5
469
330
E3
100
AcDbEntity
  8
0
  6
Continuous
100
AcDbLine
 10
154.9377883987821
 20
124.840358250428
 30
0.0
 11
154.9125818867178
 21
124.8303969839284
 31
0.0
  0
LINE
  5
46A
330
E3
100
AcDbEntity
  8
0
  6
Continuous
100
AcDbLine
 10
154.9125818867178
 20
124.8303969839284
 30
0.0
 11
154.8845012154184
 21
124.8199273166208
 31
0.0
  0
LINE
  5
46B
330
E3
100
AcDbEntity
  8
0
  6
Continuous
100
AcDbLine
 10
154.8845012154184
 20
124.8199273166208
 30
0.0
 11
154.8537768599171
 21
124.8089899205698
 31
0.0
  0
LINE
  5
46C
330
E3
100
AcDbEntity
  8
0
  6
Continuous
100
AcDbLine
 10
154.8537768599171
 20
124.8089899205698
 30
0.0
 11
154.8206392952468
 21
124.7976288571787
 31
0.0
  0
LINE
  5
46D
330
E3
100
AcDbEntity
  8
0
  6
Continuous
100
AcDbLine
 10
154.8206392952468
 20
124.7976288571787
 30
0.0
 11
154.7853528898277
 21
124.7858881878509
 31
0.0
  0
LINE
  5
46E
330
E3
100
AcDbEntity
  8
0
  6
Continuous
100
AcDbLine
 10
154.7853528898277
 20
124.7858881878509
 30
0.0
 11
154.7481955694349
 21
124.7738187526672
 31
0.0
  0
LINE
  5
46F
330
E3
100
AcDbEntity
  8
0
  6
Continuous
100
AcDbLine
 10
154.7481955694349
 20
124.7738187526672
 30
0.0
 11
154.709452038521
 21
124.7614680023697
 31
0.0
  0
LINE
  5
470
330
E3
100
AcDbEntity
  8
0
  6
Continuous
100
AcDbLine
 10
154.709452038521
 20
124.7614680023697
 30
0.0
 11
154.6694273375706
 21
124.7488901663779
 31
0.0
  0
LINE
  5
471
330
E3
100
AcDbEntity
  8
0
  6
Continuous
100
AcDbLine
 10
154.6694273375706
 20
124.7488901663779
 30
0.0
 11
154.6284332857462
 21
124.7361428634502
 31
0.0
  0
LINE
  5
472
330
E3
100
AcDbEntity
  8
0
  6
Continuous
100
AcDbLine
 10
154.6284332857462
 20
124.7361428634502
 30
0.0
 11
154.5867850915488
 21
124.7232837123446
 31
0.0
  0
LINE
  5
473
330
E3
100
AcDbEntity
  8
0
  6
Continuous
100
AcDbLine
 10
154.5867850915488
 20
124.7232837123446
 30
0.0
 11
154.5448149101728
 21
124.7103635531421
 31
0.0
  0
LINE
  5
474
330
E3
100
AcDbEntity
  8
0
  6
Continuous
100
AcDbLine
 10
154.5448149101728
 20
124.7103635531421
 30
0.0
 11
154.5028413394582
 21
124.6974433939395
 31
0.0
  0
LINE
  5
475
330
E3
100
AcDbEntity
  8
0
  6
Continuous
100
AcDbLine
 10
154.5028413394582
 20
124.6974433939395
 30
0.0
 11
154.4611965345995
 21
124.6845808534952
 31
0.0
  0
LINE
  5
476
330
E3
100
AcDbEntity
  8
0
  6
Continuous
100
AcDbLine
 10
154.4611965345995
 20
124.6845808534952
 30
0.0
 11
154.4202024827751
 21
124.6718335505675
 31
0.0
  0
LINE
  5
477
330
E3
100
AcDbEntity
  8
0
  6
Continuous
100
AcDbLine
 10
154.4202024827751
 20
124.6718335505675
 30
0.0
 11
154.3801777818248
 21
124.6592591039144
 31
0.0
  0
LINE
  5
478
330
E3
100
AcDbEntity
  8
0
  6
Continuous
100
AcDbLine
 10
154.3801777818248
 20
124.6592591039144
 30
0.0
 11
154.3414342509108
 21
124.6469083536169
 31
0.0
  0
LINE
  5
479
330
E3
100
AcDbEntity
  8
0
  6
Continuous
100
AcDbLine
 10
154.3414342509108
 20
124.6469083536169
 30
0.0
 11
154.3042735411792
 21
124.6348389184333
 31
0.0
  0
LINE
  5
47A
330
E3
100
AcDbEntity
  8
0
  6
Continuous
100
AcDbLine
 10
154.3042735411792
 20
124.6348389184333
 30
0.0
 11
154.2689905250989
 21
124.6230982491055
 31
0.0
  0
LINE
  5
47B
330
E3
100
AcDbEntity
  8
0
  6
Continuous
100
AcDbLine
 10
154.2689905250989
 20
124.6230982491055
 30
0.0
 11
154.2358529604286
 21
124.6117371857143
 31
0.0
  0
LINE
  5
47C
330
E3
100
AcDbEntity
  8
0
  6
Continuous
100
AcDbLine
 10
154.2358529604286
 20
124.6117371857143
 30
0.0
 11
154.2051252155886
 21
124.6007997896633
 31
0.0
  0
LINE
  5
47D
330
E3
100
AcDbEntity
  8
0
  6
Continuous
100
AcDbLine
 10
154.2051252155886
 20
124.6007997896633
 30
0.0
 11
154.177047933628
 21
124.5903301223557
 31
0.0
  0
LINE
  5
47E
330
E3
100
AcDbEntity
  8
0
  6
Continuous
100
AcDbLine
 10
154.177047933628
 20
124.5903301223557
 30
0.0
 11
154.1518414215637
 21
124.5803654665174
 31
0.0
  0
LINE
  5
47F
330
E3
100
AcDbEntity
  8
0
  6
Continuous
100
AcDbLine
 10
154.1518414215637
 20
124.5803654665174
 30
0.0
 11
154.1297056503801
 21
124.5709431048745
 31
0.0
  0
LINE
  5
480
330
E3
100
AcDbEntity
  8
0
  6
Continuous
100
AcDbLine
 10
154.1297056503801
 20
124.5709431048745
 30
0.0
 11
154.110813476352
 21
124.5620935414752
 31
0.0
  0
LINE
  5
481
330
E3
100
AcDbEntity
  8
0
  6
Continuous
100
AcDbLine
 10
154.110813476352
 20
124.5620935414752
 30
0.0
 11
154.0953174197219
 21
124.5538438910296
 31
0.0
  0
LINE
  5
482
330
E3
100
AcDbEntity
  8
0
  6
Continuous
100
AcDbLine
 10
154.0953174197219
 20
124.5538438910296
 30
0.0
 11
154.0833462753611
 21
124.5462144895697
 31
0.0
  0
LINE
  5
483
330
E3
100
AcDbEntity
  8
0
  6
Continuous
100
AcDbLine
 10
154.0833462753611
 20
124.5462144895697
 30
0.0
 11
154.0749915554151
 21
124.5392222837893
 31
0.0
  0
LINE
  5
484
330
E3
100
AcDbEntity
  8
0
  6
Continuous
100
AcDbLine
 10
154.0749915554151
 20
124.5392222837893
 30
0.0
 11
154.0703278561345
 21
124.5328815950331
 31
0.0
  0
LINE
  5
485
330
E3
100
AcDbEntity
  8
0
  6
Continuous
100
AcDbLine
 10
154.0703278561345
 20
124.5328815950331
 30
0.0
 11
154.0693978508196
 21
124.5271989871132
 31
0.0
  0
LINE
  5
486
330
E3
100
AcDbEntity
  8
0
  6
Continuous
100
AcDbLine
 10
155.0881802472884
 20
124.5081673870168
 30
0.0
 11
155.0872502419735
 21
124.5024847790969
 31
0.0
  0
LINE
  5
487
330
E3
100
AcDbEntity
  8
0
  6
Continuous
100
AcDbLine
 10
155.0872502419735
 20
124.5024847790969
 30
0.0
 11
155.0825870061708
 21
124.4961439019168
 31
0.0
  0
LINE
  5
488
330
E3
100
AcDbEntity
  8
0
  6
Continuous
100
AcDbLine
 10
155.0825870061708
 20
124.4961439019168
 30
0.0
 11
155.0742330076531
 21
124.4891515828714
 31
0.0
  0
LINE
  5
489
330
E3
100
AcDbEntity
  8
0
  6
Continuous
100
AcDbLine
 10
155.0742330076531
 20
124.4891515828714
 30
0.0
 11
155.0622584739536
 21
124.4815221814116
 31
0.0
  0
LINE
  5
48A
330
E3
100
AcDbEntity
  8
0
  6
Continuous
100
AcDbLine
 10
155.0622584739536
 20
124.4815221814116
 30
0.0
 11
155.0467658066622
 21
124.4732725309659
 31
0.0
  0
LINE
  5
48B
330
E3
100
AcDbEntity
  8
0
  6
Continuous
100
AcDbLine
 10
155.0467658066622
 20
124.4732725309659
 30
0.0
 11
155.0278736326341
 21
124.4644229675667
 31
0.0
  0
LINE
  5
48C
330
E3
100
AcDbEntity
  8
0
  6
Continuous
100
AcDbLine
 10
155.0278736326341
 20
124.4644229675667
 30
0.0
 11
155.0057378614506
 21
124.4550006059237
 31
0.0
  0
LINE
  5
48D
330
E3
100
AcDbEntity
  8
0
  6
Continuous
100
AcDbLine
 10
155.0057378614506
 20
124.4550006059237
 30
0.0
 11
154.9805279600475
 21
124.4450359500855
 31
0.0
  0
LINE
  5
48E
330
E3
100
AcDbEntity
  8
0
  6
Continuous
100
AcDbLine
 10
154.9805279600475
 20
124.4450359500855
 30
0.0
 11
154.9524506780869
 21
124.4345662827779
 31
0.0
  0
LINE
  5
48F
330
E3
100
AcDbEntity
  8
0
  6
Continuous
100
AcDbLine
 10
154.9524506780869
 20
124.4345662827779
 30
0.0
 11
154.9217263225857
 21
124.4236322760655
 31
0.0
  0
LINE
  5
490
330
E3
100
AcDbEntity
  8
0
  6
Continuous
100
AcDbLine
 10
154.9217263225857
 20
124.4236322760655
 30
0.0
 11
154.8885887579153
 21
124.4122678233357
 31
0.0
  0
LINE
  5
491
330
E3
100
AcDbEntity
  8
0
  6
Continuous
100
AcDbLine
 10
154.8885887579153
 20
124.4122678233357
 30
0.0
 11
154.8533023524963
 21
124.4005271540079
 31
0.0
  0
LINE
  5
492
330
E3
100
AcDbEntity
  8
0
  6
Continuous
100
AcDbLine
 10
154.8533023524963
 20
124.4005271540079
 30
0.0
 11
154.8161450321034
 21
124.3884577188242
 31
0.0
  0
LINE
  5
493
330
E3
100
AcDbEntity
  8
0
  6
Continuous
100
AcDbLine
 10
154.8161450321034
 20
124.3884577188242
 30
0.0
 11
154.7774015011895
 21
124.3761069685267
 31
0.0
  0
LINE
  5
494
330
E3
100
AcDbEntity
  8
0
  6
Continuous
100
AcDbLine
 10
154.7774015011895
 20
124.3761069685267
 30
0.0
 11
154.7373768002391
 21
124.3635325218737
 31
0.0
  0
LINE
  5
495
330
E3
100
AcDbEntity
  8
0
  6
Continuous
100
AcDbLine
 10
154.7373768002391
 20
124.3635325218737
 30
0.0
 11
154.6963827484147
 21
124.3507852189459
 31
0.0
  0
LINE
  5
496
330
E3
100
AcDbEntity
  8
0
  6
Continuous
100
AcDbLine
 10
154.6963827484147
 20
124.3507852189459
 30
0.0
 11
154.6547345542173
 21
124.3379226785016
 31
0.0
  0
LINE
  5
497
330
E3
100
AcDbEntity
  8
0
  6
Continuous
100
AcDbLine
 10
154.6547345542173
 20
124.3379226785016
 30
0.0
 11
154.6127643728414
 21
124.3250025192991
 31
0.0
  0
LINE
  5
498
330
E3
100
AcDbEntity
  8
0
  6
Continuous
100
AcDbLine
 10
154.6127643728414
 20
124.3250025192991
 30
0.0
 11
154.5707908021267
 21
124.3120823600966
 31
0.0
  0
LINE
  5
499
330
E3
100
AcDbEntity
  8
0
  6
Continuous
100
AcDbLine
 10
154.5707908021267
 20
124.3120823600966
 30
0.0
 11
154.529145997268
 21
124.299223208991
 31
0.0
  0
LINE
  5
49A
330
E3
100
AcDbEntity
  8
0
  6
Continuous
100
AcDbLine
 10
154.529145997268
 20
124.299223208991
 30
0.0
 11
154.4881519454436
 21
124.2864759060632
 31
0.0
  0
LINE
  5
49B
330
E3
100
AcDbEntity
  8
0
  6
Continuous
100
AcDbLine
 10
154.4881519454436
 20
124.2864759060632
 30
0.0
 11
154.4481272444933
 21
124.2738980700715
 31
0.0
  0
LINE
  5
49C
330
E3
100
AcDbEntity
  8
0
  6
Continuous
100
AcDbLine
 10
154.4481272444933
 20
124.2738980700715
 30
0.0
 11
154.4093837135793
 21
124.261547319774
 31
0.0
  0
LINE
  5
49D
330
E3
100
AcDbEntity
  8
0
  6
Continuous
100
AcDbLine
 10
154.4093837135793
 20
124.261547319774
 30
0.0
 11
154.3722230038478
 21
124.2494778845903
 31
0.0
  0
LINE
  5
49E
330
E3
100
AcDbEntity
  8
0
  6
Continuous
100
AcDbLine
 10
154.3722230038478
 20
124.2494778845903
 30
0.0
 11
154.3369399877674
 21
124.2377372152625
 31
0.0
  0
LINE
  5
49F
330
E3
100
AcDbEntity
  8
0
  6
Continuous
100
AcDbLine
 10
154.3369399877674
 20
124.2377372152625
 30
0.0
 11
154.3038024230971
 21
124.2263761518714
 31
0.0
  0
LINE
  5
4A0
330
E3
100
AcDbEntity
  8
0
  6
Continuous
100
AcDbLine
 10
154.3038024230971
 20
124.2263761518714
 30
0.0
 11
154.2730746782571
 21
124.2154387558203
 31
0.0
  0
LINE
  5
4A1
330
E3
100
AcDbEntity
  8
0
  6
Continuous
100
AcDbLine
 10
154.2730746782571
 20
124.2154387558203
 30
0.0
 11
154.2449973962965
 21
124.2049690885127
 31
0.0
  0
LINE
  5
4A2
330
E3
100
AcDbEntity
  8
0
  6
Continuous
100
AcDbLine
 10
154.2449973962965
 20
124.2049690885127
 30
0.0
 11
154.2197908842322
 21
124.1950078220132
 31
0.0
  0
LINE
  5
4A3
330
E3
100
AcDbEntity
  8
0
  6
Continuous
100
AcDbLine
 10
154.2197908842322
 20
124.1950078220132
 30
0.0
 11
154.1976551130486
 21
124.1855854603702
 31
0.0
  0
LINE
  5
4A4
330
E3
100
AcDbEntity
  8
0
  6
Continuous
100
AcDbLine
 10
154.1976551130486
 20
124.1855854603702
 30
0.0
 11
154.1787629390205
 21
124.176735896971
 31
0.0
  0
LINE
  5
4A5
330
E3
100
AcDbEntity
  8
0
  6
Continuous
100
AcDbLine
 10
154.1787629390205
 20
124.176735896971
 30
0.0
 11
154.1632668823904
 21
124.1684828571866
 31
0.0
  0
LINE
  5
4A6
330
E3
100
AcDbEntity
  8
0
  6
Continuous
100
AcDbLine
 10
154.1632668823904
 20
124.1684828571866
 30
0.0
 11
154.1512957380297
 21
124.1608534557268
 31
0.0
  0
LINE
  5
4A7
330
E3
100
AcDbEntity
  8
0
  6
Continuous
100
AcDbLine
 10
154.1512957380297
 20
124.1608534557268
 30
0.0
 11
154.1429410180836
 21
124.1538612499464
 31
0.0
  0
LINE
  5
4A8
330
E3
100
AcDbEntity
  8
0
  6
Continuous
100
AcDbLine
 10
154.1429410180836
 20
124.1538612499464
 30
0.0
 11
154.1382771430476
 21
124.1475220395065
 31
0.0
  0
LINE
  5
4A9
330
E3
100
AcDbEntity
  8
0
  6
Continuous
100
AcDbLine
 10
154.1382771430476
 20
124.1475220395065
 30
0.0
 11
154.1373471377327
 21
124.1418394315867
 31
0.0
  0
LINE
  5
4AA
330
E3
100
AcDbEntity
  8
0
  6
Continuous
100
AcDbLine
 10
155.1561295342015
 20
124.1228078314903
 30
0.0
 11
155.1551995288866
 21
124.1171252235704
 31
0.0
  0
LINE
  5
4AB
330
E3
100
AcDbEntity
  8
0
  6
Continuous
100
AcDbLine
 10
155.1551995288866
 20
124.1171252235704
 30
0.0
 11
155.1505362930839
 21
124.1107843463903
 31
0.0
  0
LINE
  5
4AC
330
E3
100
AcDbEntity
  8
0
  6
Continuous
100
AcDbLine
 10
155.1505362930839
 20
124.1107843463903
 30
0.0
 11
155.1421824703216
 21
124.1037939383672
 31
0.0
  0
LINE
  5
4AD
330
E3
100
AcDbEntity
  8
0
  6
Continuous
100
AcDbLine
 10
155.1421824703216
 20
124.1037939383672
 30
0.0
 11
155.1302079366221
 21
124.0961611475686
 31
0.0
  0
LINE
  5
4AE
330
E3
100
AcDbEntity
  8
0
  6
Continuous
100
AcDbLine
 10
155.1302079366221
 20
124.0961611475686
 30
0.0
 11
155.1147152693307
 21
124.0879114971229
 31
0.0
  0
LINE
  5
4AF
330
E3
100
AcDbEntity
  8
0
  6
Continuous
100
AcDbLine
 10
155.1147152693307
 20
124.0879114971229
 30
0.0
 11
155.0958230953026
 21
124.0790619337237
 31
0.0
  0
LINE
  5
4B0
330
E3
100
AcDbEntity
  8
0
  6
Continuous
100
AcDbLine
 10
155.0958230953026
 20
124.0790619337237
 30
0.0
 11
155.0736839347803
 21
124.0696395720808
 31
0.0
  0
LINE
  5
4B1
330
E3
100
AcDbEntity
  8
0
  6
Continuous
100
AcDbLine
 10
155.0736839347803
 20
124.0696395720808
 30
0.0
 11
155.048477422716
 21
124.0596783055812
 31
0.0
  0
LINE
  5
4B2
330
E3
100
AcDbEntity
  8
0
  6
Continuous
100
AcDbLine
 10
155.048477422716
 20
124.0596783055812
 30
0.0
 11
155.0204001407554
 21
124.0492086382736
 31
0.0
  0
LINE
  5
4B3
330
E3
100
AcDbEntity
  8
0
  6
Continuous
100
AcDbLine
 10
155.0204001407554
 20
124.0492086382736
 30
0.0
 11
154.9896757852541
 21
124.0382712422226
 31
0.0
  0
LINE
  5
4B4
330
E3
100
AcDbEntity
  8
0
  6
Continuous
100
AcDbLine
 10
154.9896757852541
 20
124.0382712422226
 30
0.0
 11
154.9565382205839
 21
124.0269101788315
 31
0.0
  0
LINE
  5
4B5
330
E3
100
AcDbEntity
  8
0
  6
Continuous
100
AcDbLine
 10
154.9565382205839
 20
124.0269101788315
 30
0.0
 11
154.9212518151648
 21
124.0151695095037
 31
0.0
  0
LINE
  5
4B6
330
E3
100
AcDbEntity
  8
0
  6
Continuous
100
AcDbLine
 10
154.9212518151648
 20
124.0151695095037
 30
0.0
 11
154.884094494772
 21
124.0030966849812
 31
0.0
  0
LINE
  5
4B7
330
E3
100
AcDbEntity
  8
0
  6
Continuous
100
AcDbLine
 10
154.884094494772
 20
124.0030966849812
 30
0.0
 11
154.845350963858
 21
123.9907493240225
 31
0.0
  0
LINE
  5
4B8
330
E3
100
AcDbEntity
  8
0
  6
Continuous
100
AcDbLine
 10
154.845350963858
 20
123.9907493240225
 30
0.0
 11
154.8053262629076
 21
123.9781714880307
 31
0.0
  0
LINE
  5
4B9
330
E3
100
AcDbEntity
  8
0
  6
Continuous
100
AcDbLine
 10
154.8053262629076
 20
123.9781714880307
 30
0.0
 11
154.7643322110832
 21
123.9654241851029
 31
0.0
  0
LINE
  5
4BA
330
E3
100
AcDbEntity
  8
0
  6
Continuous
100
AcDbLine
 10
154.7643322110832
 20
123.9654241851029
 30
0.0
 11
154.7226840168858
 21
123.9525616446586
 31
0.0
  0
LINE
  5
4BB
330
E3
100
AcDbEntity
  8
0
  6
Continuous
100
AcDbLine
 10
154.7226840168858
 20
123.9525616446586
 30
0.0
 11
154.6807138355099
 21
123.9396448747949
 31
0.0
  0
LINE
  5
4BC
330
E3
100
AcDbEntity
  8
0
  6
Continuous
100
AcDbLine
 10
154.6807138355099
 20
123.9396448747949
 30
0.0
 11
154.6387402647952
 21
123.9267247155923
 31
0.0
  0
LINE
  5
4BD
330
E3
100
AcDbEntity
  8
0
  6
Continuous
100
AcDbLine
 10
154.6387402647952
 20
123.9267247155923
 30
0.0
 11
154.5970954599365
 21
123.913862175148
 31
0.0
  0
LINE
  5
4BE
330
E3
100
AcDbEntity
  8
0
  6
Continuous
100
AcDbLine
 10
154.5970954599365
 20
123.913862175148
 30
0.0
 11
154.5561014081121
 21
123.9011148722202
 31
0.0
  0
LINE
  5
4BF
330
E3
100
AcDbEntity
  8
0
  6
Continuous
100
AcDbLine
 10
154.5561014081121
 20
123.9011148722202
 30
0.0
 11
154.5160767071618
 21
123.8885404255672
 31
0.0
  0
LINE
  5
4C0
330
E3
100
AcDbEntity
  8
0
  6
Continuous
100
AcDbLine
 10
154.5160767071618
 20
123.8885404255672
 30
0.0
 11
154.4773331762478
 21
123.8761896752697
 31
0.0
  0
LINE
  5
4C1
330
E3
100
AcDbEntity
  8
0
  6
Continuous
100
AcDbLine
 10
154.4773331762478
 20
123.8761896752697
 30
0.0
 11
154.4401724665163
 21
123.8641168507473
 31
0.0
  0
LINE
  5
4C2
330
E3
100
AcDbEntity
  8
0
  6
Continuous
100
AcDbLine
 10
154.4401724665163
 20
123.8641168507473
 30
0.0
 11
154.4048894504359
 21
123.8523795707582
 31
0.0
  0
LINE
  5
4C3
330
E3
100
AcDbEntity
  8
0
  6
Continuous
100
AcDbLine
 10
154.4048894504359
 20
123.8523795707582
 30
0.0
 11
154.3717518857656
 21
123.8410151180284
 31
0.0
  0
LINE
  5
4C4
330
E3
100
AcDbEntity
  8
0
  6
Continuous
100
AcDbLine
 10
154.3717518857656
 20
123.8410151180284
 30
0.0
 11
154.3410241409256
 21
123.8300811113161
 31
0.0
  0
LINE
  5
4C5
330
E3
100
AcDbEntity
  8
0
  6
Continuous
100
AcDbLine
 10
154.3410241409256
 20
123.8300811113161
 30
0.0
 11
154.312946858965
 21
123.8196114440085
 31
0.0
  0
LINE
  5
4C6
330
E3
100
AcDbEntity
  8
0
  6
Continuous
100
AcDbLine
 10
154.312946858965
 20
123.8196114440085
 30
0.0
 11
154.2877403469007
 21
123.8096467881702
 31
0.0
  0
LINE
  5
4C7
330
E3
100
AcDbEntity
  8
0
  6
Continuous
100
AcDbLine
 10
154.2877403469007
 20
123.8096467881702
 30
0.0
 11
154.2656045757171
 21
123.8002244265272
 31
0.0
  0
LINE
  5
4C8
330
E3
100
AcDbEntity
  8
0
  6
Continuous
100
AcDbLine
 10
154.2656045757171
 20
123.8002244265272
 30
0.0
 11
154.2467124016891
 21
123.791374863128
 31
0.0
  0
LINE
  5
4C9
330
E3
100
AcDbEntity
  8
0
  6
Continuous
100
AcDbLine
 10
154.2467124016891
 20
123.791374863128
 30
0.0
 11
154.231216345059
 21
123.7831252126823
 31
0.0
  0
LINE
  5
4CA
330
E3
100
AcDbEntity
  8
0
  6
Continuous
100
AcDbLine
 10
154.231216345059
 20
123.7831252126823
 30
0.0
 11
154.2192418113594
 21
123.7754958112225
 31
0.0
  0
ENDBLK
  5
E5
330
E3
100
AcDbEntity
  8
0
100
AcDbBlockEnd
  0
BLOCK
  5
4D0
330
4CF
100
AcDbEntity
  8
0
100
AcDbBlockBegin
  2
R-TRSC-08 APRON DETAIL - HEAD_STORY_MARKER
 70
     0
 10
0.0
 20
0.0
 30
0.0
  3
R-TRSC-08 APRON DETAIL - HEAD_STORY_MARKER
  1

  0
ENDBLK
  5
4D1
330
4CF
100
AcDbEntity
  8
0
100
AcDbBlockEnd
  0
ENDSEC
  0
SECTION
  2
ENTITIES
  0
HATCH
  5
3F
330
1F
100
AcDbEntity
  8
Doc_ Finishes
  6
Continuous
100
AcDbHatch
 10
0.0
 20
0.0
 30
0.0
210
0.0
220
0.0
230
1.0
  2
SOLID
 70
     1
 71
     0
 91
        1
 92
        3
 72
     0
 73
     1
 93
       54
 10
27.4117749414874
 20
16.87044408857867
 10
26.89356552397386
 20
16.5825499677378
 10
26.5480925789648
 20
16.29465584689693
 10
26.12584786839819
 20
16.02595466744544
 10
25.76118198199976
 20
15.60370995687884
 10
25.39651609560134
 20
15.33500877742737
 10
25.07023609198168
 20
14.89357112547136
 10
24.49444785029994
 20
14.45213347351537
 10
23.93785255000758
 20
14.02988876294876
 10
23.43883607388344
 20
13.81876640766546
 10
22.74789018386533
 20
13.39652169709885
 10
22.09533017662603
 20
12.99346992792163
 10
21.63469958328064
 20
12.55203227596564
 10
20.90536781048376
 20
12.12978756539902
 10
20.59828074825351
 20
11.7459287376112
 10
20.04168544796116
 20
11.28529814426581
 10
19.36993249933246
 20
10.8630534336992
 10
18.73656543348255
 20
10.42161578174319
 10
18.04561954346447
 20
10.15291460229172
 10
17.1051654153843
 20
9.692284008946325
 10
16.39502658397681
 20
9.020531060317637
 10
15.83843128368446
 20
8.598286349751023
 10
15.12829245227699
 20
8.137655756405634
 10
14.84039833143612
 20
7.98411222529051
 10
14.37976773809073
 20
7.81137575278599
 10
14.07268067586046
 20
7.523481631945121
 10
14.0151018516923
 20
7.216394569714853
 10
14.14945244141803
 20
6.890114566095209
 10
14.4373465622589
 20
6.563834562475543
 10
14.8787842142149
 20
6.659799269422514
 10
15.51215128006482
 20
7.06285103859973
 10
16.01116775618899
 20
7.389131042219374
 10
16.33744775980864
 20
7.696218104449641
 10
16.51018423231316
 20
7.907340459732938
 10
17.01303929671522
 20
8.421711288968723
 10
17.33548071205699
 20
8.652026585641417
 10
17.75004824606785
 20
8.99749953065046
 10
18.14158425041142
 20
9.204783297655894
 10
19.24709767444037
 20
9.75754000967037
 10
20.23745345013295
 20
10.47151742935572
 10
21.4120614631637
 20
11.1624633193738
 10
21.84966052684182
 20
11.64612544238645
 10
22.49454335752537
 20
12.06069297639732
 10
23.78430901889248
 20
12.9819541630881
 10
24.3600972605742
 20
13.25833251909534
 10
25.6498629219413
 20
14.24868829478776
 10
25.85714668894673
 20
14.64022429913134
 10
26.68628175696843
 20
15.23904407048036
 10
27.28510152831745
 20
15.72270619349301
 10
27.81482671066464
 20
16.1142421978366
 10
28.27545730401003
 20
16.52880973184745
 10
28.22939424467549
 20
16.7821565581874
 10
28.09120506667188
 20
16.89731420652375
 10
27.56147988432467
 20
16.89731420652375
 97
        0
 75
     0
 76
     1
 98
        0
  0
LINE
  5
41
330
1F
100
AcDbEntity
  8
Doc_ Finishes
  6
Continuous
100
AcDbLine
 10
27.41177566876475
 20
16.87044600708104
 30
0.0
 11
26.89356756490952
 21
16.58254868214004
 31
0.0
  0
LINE
  5
42
330
1F
100
AcDbEntity
  8
Doc_ Finishes
  6
Continuous
100
AcDbLine
 10
26.89356756490952
 20
16.58254868214004
 30
0.0
 11
26.54809254523997
 21
16.29465578284815
 31
0.0
  0
LINE
  5
43
330
1F
100
AcDbEntity
  8
Doc_ Finishes
  6
Continuous
100
AcDbLine
 10
26.54809254523997
 20
16.29465578284815
 30
0.0
 11
26.12584579071597
 21
16.02595249803305
 31
0.0
  0
LINE
  5
44
330
1F
100
AcDbEntity
  8
Doc_ Finishes
  6
Continuous
100
AcDbLine
 10
26.12584579071597
 20
16.02595249803305
 30
0.0
 11
25.76118115656963
 21
15.60371016915814
 31
0.0
  0
LINE
  5
45
330
1F
100
AcDbEntity
  8
Doc_ Finishes
  6
Continuous
100
AcDbLine
 10
25.76118115656963
 20
15.60371016915814
 30
0.0
 11
25.39651652242329
 21
15.33500688434304
 31
0.0
  0
LINE
  5
46
330
1F
100
AcDbEntity
  8
Doc_ Finishes
  6
Continuous
100
AcDbLine
 10
25.39651652242329
 20
15.33500688434304
 30
0.0
 11
25.07023554287962
 21
14.89357051534225
 31
0.0
  0
LINE
  5
47
330
1F
100
AcDbEntity
  8
Doc_ Finishes
  6
Continuous
100
AcDbLine
 10
25.07023554287962
 20
14.89357051534225
 30
0.0
 11
24.49444974429583
 21
14.45213414634146
 31
0.0
  0
LINE
  5
48
330
1F
100
AcDbEntity
  8
Doc_ Finishes
  6
Continuous
100
AcDbLine
 10
24.49444974429583
 20
14.45213414634146
 30
0.0
 11
23.93785356018882
 21
14.02988739181747
 31
0.0
  0
LINE
  5
49
330
1F
100
AcDbEntity
  8
Doc_ Finishes
  6
Continuous
100
AcDbLine
 10
23.93785356018882
 20
14.02988739181747
 30
0.0
 11
23.43883507081038
 21
13.81876622738001
 31
0.0
  0
LINE
  5
4A
330
1F
100
AcDbEntity
  8
Doc_ Finishes
  6
Continuous
100
AcDbLine
 10
23.43883507081038
 20
13.81876622738001
 30
0.0
 11
22.74788945712038
 21
13.39652389850511
 31
0.0
  0
LINE
  5
4B
330
1F
100
AcDbEntity
  8
Doc_ Finishes
  6
Continuous
100
AcDbLine
 10
22.74788945712038
 20
13.39652389850511
 30
0.0
 11
22.09533192368214
 21
12.993471184107
 31
0.0
  0
LINE
  5
4C
330
1F
100
AcDbEntity
  8
Doc_ Finishes
  6
Continuous
100
AcDbLine
 10
22.09533192368214
 20
12.993471184107
 30
0.0
 11
21.63470151455547
 21
12.55203038945712
 31
0.0
  0
LINE
  5
4D
330
1F
100
AcDbEntity
  8
Doc_ Finishes
  6
Continuous
100
AcDbLine
 10
21.63470151455547
 20
12.55203038945712
 30
0.0
 11
20.90536782061369
 21
12.12978806058222
 31
0.0
  0
LINE
  5
4E
330
1F
100
AcDbEntity
  8
Doc_ Finishes
  6
Continuous
100
AcDbLine
 10
20.90536782061369
 20
12.12978806058222
 30
0.0
 11
20.59828088119591
 21
11.74592938630999
 31
0.0
  0
LINE
  5
4F
330
1F
100
AcDbEntity
  8
Doc_ Finishes
  6
Continuous
100
AcDbLine
 10
20.59828088119591
 20
11.74592938630999
 30
0.0
 11
20.0416846970889
 21
11.28529897718332
 31
0.0
  0
LINE
  5
50
330
1F
100
AcDbEntity
  8
Doc_ Finishes
  6
Continuous
100
AcDbLine
 10
20.0416846970889
 20
11.28529897718332
 30
0.0
 11
19.36993312352478
 21
10.86305222265932
 31
0.0
  0
LINE
  5
51
330
1F
100
AcDbEntity
  8
Doc_ Finishes
  6
Continuous
100
AcDbLine
 10
19.36993312352478
 20
10.86305222265932
 30
0.0
 11
18.73656520456333
 21
10.42161585365854
 31
0.0
  0
LINE
  5
52
330
1F
100
AcDbEntity
  8
Doc_ Finishes
  6
Continuous
100
AcDbLine
 10
18.73656520456333
 20
10.42161585365854
 30
0.0
 11
18.04561959087333
 21
10.15291256884343
 31
0.0
  0
LINE
  5
53
330
1F
100
AcDbEntity
  8
Doc_ Finishes
  6
Continuous
100
AcDbLine
 10
18.04561959087333
 20
10.15291256884343
 30
0.0
 11
17.1051647324941
 21
9.692282159716758
 31
0.0
  0
LINE
  5
54
330
1F
100
AcDbEntity
  8
Doc_ Finishes
  6
Continuous
100
AcDbLine
 10
17.1051647324941
 20
9.692282159716758
 30
0.0
 11
16.3950250786782
 21
9.020530586152635
 31
0.0
  0
LINE
  5
55
330
1F
100
AcDbEntity
  8
Doc_ Finishes
  6
Continuous
100
AcDbLine
 10
16.3950250786782
 20
9.020530586152635
 30
0.0
 11
15.8384333202203
 21
8.598288257277733
 31
0.0
  0
LINE
  5
56
330
1F
100
AcDbEntity
  8
Doc_ Finishes
  6
Continuous
100
AcDbLine
 10
15.8384333202203
 20
8.598288257277733
 30
0.0
 11
15.1282936664044
 21
8.137657848151063
 31
0.0
  0
LINE
  5
57
330
1F
100
AcDbEntity
  8
Doc_ Finishes
  6
Continuous
100
AcDbLine
 10
15.1282936664044
 20
8.137657848151063
 30
0.0
 11
14.84039634146341
 21
7.984114378442171
 31
0.0
  0
LINE
  5
58
330
1F
100
AcDbEntity
  8
Doc_ Finishes
  6
Continuous
100
AcDbLine
 10
14.84039634146341
 20
7.984114378442171
 30
0.0
 11
14.37976593233674
 21
7.811376868607396
 31
0.0
  0
LINE
  5
59
330
1F
100
AcDbEntity
  8
Doc_ Finishes
  6
Continuous
100
AcDbLine
 10
14.37976593233674
 20
7.811376868607396
 30
0.0
 11
14.07267899291896
 21
7.523479543666405
 31
0.0
  0
LINE
  5
5A
330
1F
100
AcDbEntity
  8
Doc_ Finishes
  6
Continuous
100
AcDbLine
 10
14.07267899291896
 20
7.523479543666405
 30
0.0
 11
14.0151012981904
 21
7.216392604248622
 31
0.0
  0
LINE
  5
5B
330
1F
100
AcDbEntity
  8
Doc_ Finishes
  6
Continuous
100
AcDbLine
 10
14.0151012981904
 20
7.216392604248622
 30
0.0
 11
14.14945072777341
 21
6.890116050354051
 31
0.0
  0
LINE
  5
5C
330
1F
100
AcDbEntity
  8
Doc_ Finishes
  6
Continuous
100
AcDbLine
 10
14.14945072777341
 20
6.890116050354051
 30
0.0
 11
14.4373480527144
 21
6.563835070810386
 31
0.0
  0
LINE
  5
5D
330
1F
100
AcDbEntity
  8
Doc_ Finishes
  6
Continuous
100
AcDbLine
 10
14.4373480527144
 20
6.563835070810386
 30
0.0
 11
14.87878442171519
 21
6.659800845790715
 31
0.0
  0
LINE
  5
5E
330
1F
100
AcDbEntity
  8
Doc_ Finishes
  6
Continuous
100
AcDbLine
 10
14.87878442171519
 20
6.659800845790715
 30
0.0
 11
15.51215234067663
 21
7.062849134539732
 31
0.0
  0
LINE
  5
5F
330
1F
100
AcDbEntity
  8
Doc_ Finishes
  6
Continuous
100
AcDbLine
 10
15.51215234067663
 20
7.062849134539732
 30
0.0
 11
16.01116640440598
 21
7.389130114083398
 31
0.0
  0
LINE
  5
60
330
1F
100
AcDbEntity
  8
Doc_ Finishes
  6
Continuous
100
AcDbLine
 10
16.01116640440598
 20
7.389130114083398
 30
0.0
 11
16.33744738394964
 21
7.69621705350118
 31
0.0
  0
LINE
  5
61
330
1F
100
AcDbEntity
  8
Doc_ Finishes
  6
Continuous
100
AcDbLine
 10
16.33744738394964
 20
7.69621705350118
 30
0.0
 11
16.51018489378442
 21
7.907342643587726
 31
0.0
  0
LINE
  5
62
330
1F
100
AcDbEntity
  8
Doc_ Finishes
  6
Continuous
100
AcDbLine
 10
16.51018489378442
 20
7.907342643587726
 30
0.0
 11
17.0130404209284
 21
8.421709284028323
 31
0.0
  0
LINE
  5
63
330
1F
100
AcDbEntity
  8
Doc_ Finishes
  6
Continuous
100
AcDbLine
 10
17.0130404209284
 20
8.421709284028323
 30
0.0
 11
17.33547993705743
 21
8.65202448859166
 31
0.0
  0
LINE
  5
64
330
1F
100
AcDbEntity
  8
Doc_ Finishes
  6
Continuous
100
AcDbLine
 10
17.33547993705743
 20
8.65202448859166
 30
0.0
 11
17.75004819040126
 21
8.997499508261212
 31
0.0
  0
LINE
  5
65
330
1F
100
AcDbEntity
  8
Doc_ Finishes
  6
Continuous
100
AcDbLine
 10
17.75004819040126
 20
8.997499508261212
 30
0.0
 11
18.14158536585366
 21
9.204783634933122
 31
0.0
  0
LINE
  5
66
330
1F
100
AcDbEntity
  8
Doc_ Finishes
  6
Continuous
100
AcDbLine
 10
18.14158536585366
 20
9.204783634933122
 30
0.0
 11
19.24709923288749
 21
9.75753835562549
 31
0.0
  0
LINE
  5
67
330
1F
100
AcDbEntity
  8
Doc_ Finishes
  6
Continuous
100
AcDbLine
 10
19.24709923288749
 20
9.75753835562549
 30
0.0
 11
20.23745328481511
 21
10.47151947285602
 31
0.0
  0
LINE
  5
68
330
1F
100
AcDbEntity
  8
Doc_ Finishes
  6
Continuous
100
AcDbLine
 10
20.23745328481511
 20
10.47151947285602
 30
0.0
 11
21.41206038552321
 21
11.16246508654602
 31
0.0
  0
LINE
  5
69
330
1F
100
AcDbEntity
  8
Doc_ Finishes
  6
Continuous
100
AcDbLine
 10
21.41206038552321
 20
11.16246508654602
 30
0.0
 11
21.84965971675846
 21
11.64612657356412
 31
0.0
  0
LINE
  5
6A
330
1F
100
AcDbEntity
  8
Doc_ Finishes
  6
Continuous
100
AcDbLine
 10
21.84965971675846
 20
11.64612657356412
 30
0.0
 11
22.49454317466562
 21
12.06069482690795
 31
0.0
  0
LINE
  5
6B
330
1F
100
AcDbEntity
  8
Doc_ Finishes
  6
Continuous
100
AcDbLine
 10
22.49454317466562
 20
12.06069482690795
 30
0.0
 11
23.78431009047993
 21
12.98195564516129
 31
0.0
  0
LINE
  5
6C
330
1F
100
AcDbEntity
  8
Doc_ Finishes
  6
Continuous
100
AcDbLine
 10
23.78431009047993
 20
12.98195564516129
 30
0.0
 11
24.36009588906373
 21
13.25833300550747
 31
0.0
  0
LINE
  5
6D
330
1F
100
AcDbEntity
  8
Doc_ Finishes
  6
Continuous
100
AcDbLine
 10
24.36009588906373
 20
13.25833300550747
 30
0.0
 11
25.64986280487805
 21
14.24868705743509
 31
0.0
  0
LINE
  5
6E
330
1F
100
AcDbEntity
  8
Doc_ Finishes
  6
Continuous
100
AcDbLine
 10
25.64986280487805
 20
14.24868705743509
 30
0.0
 11
25.85714693154996
 21
14.64022423288749
 31
0.0
  0
LINE
  5
6F
330
1F
100
AcDbEntity
  8
Doc_ Finishes
  6
Continuous
100
AcDbLine
 10
25.85714693154996
 20
14.64022423288749
 30
0.0
 11
26.68628343823761
 21
15.2390455350118
 31
0.0
  0
LINE
  5
70
330
1F
100
AcDbEntity
  8
Doc_ Finishes
  6
Continuous
100
AcDbLine
 10
26.68628343823761
 20
15.2390455350118
 30
0.0
 11
27.28510031471282
 21
15.7227070220299
 31
0.0
  0
LINE
  5
71
330
1F
100
AcDbEntity
  8
Doc_ Finishes
  6
Continuous
100
AcDbLine
 10
27.28510031471282
 20
15.7227070220299
 30
0.0
 11
27.81482838316287
 21
16.1142441974823
 31
0.0
  0
LINE
  5
72
330
1F
100
AcDbEntity
  8
Doc_ Finishes
  6
Continuous
100
AcDbLine
 10
27.81482838316287
 20
16.1142441974823
 30
0.0
 11
28.27545879228953
 21
16.52880802517702
 31
0.0
  0
LINE
  5
73
330
1F
100
AcDbEntity
  8
Doc_ Finishes
  6
Continuous
100
AcDbLine
 10
28.27545879228953
 20
16.52880802517702
 30
0.0
 11
28.22939221085759
 21
16.78215873328088
 31
0.0
  0
LINE
  5
74
330
1F
100
AcDbEntity
  8
Doc_ Finishes
  6
Continuous
100
AcDbLine
 10
28.22939221085759
 20
16.78215873328088
 30
0.0
 11
28.09120574350905
 21
16.897314122738
 31
0.0
  0
LINE
  5
75
330
1F
100
AcDbEntity
  8
Doc_ Finishes
  6
Continuous
100
AcDbLine
 10
28.09120574350905
 20
16.897314122738
 30
0.0
 11
27.56147767505901
 21
16.897314122738
 31
0.0
  0
LINE
  5
76
330
1F
100
AcDbEntity
  8
Doc_ Finishes
  6
Continuous
100
AcDbLine
 10
27.56147767505901
 20
16.897314122738
 30
0.0
 11
27.41177566876475
 21
16.87044600708104
 31
0.0
  0
HATCH
  5
77
330
1F
100
AcDbEntity
  8
Doc_ Finishes
  6
Continuous
100
AcDbHatch
 10
0.0
 20
0.0
 30
0.0
210
0.0
220
0.0
230
1.0
  2
SOLID
 70
     1
 71
     0
 91
        1
 92
        3
 72
     0
 73
     1
 93
       39
 10
27.65360600299377
 20
13.12014334109181
 10
27.21600693931564
 20
12.77467039608275
 10
26.54809257896482
 20
12.24494521373555
 10
25.92624127794851
 20
11.85340920939199
 10
25.32742150659951
 20
11.32368402704478
 10
24.72860173525052
 20
11.04730567103754
 10
24.08371890456698
 20
10.56364354802488
 10
23.62308831122158
 20
10.33332825135219
 10
23.231552306878
 20
10.03391836567767
 10
22.81698477286715
 20
9.619350831666825
 10
22.40241723885631
 20
9.38903553499415
 10
21.91875511584363
 20
9.043562589985086
 10
21.66540828950367
 20
8.859310352646935
 10
21.25084075549282
 20
8.582931996639696
 10
20.09926427212933
 20
7.753796928618002
 10
19.75379132712029
 20
7.477418572610764
 10
19.2931607337749
 20
7.316197864939873
 10
19.22406614477309
 20
6.993756449598113
 10
19.3622553227767
 20
6.717378093590874
 10
19.63863367878394
 20
6.602220445254527
 10
20.00713815346026
 20
6.8325357419272
 10
20.26048497980021
 20
7.131945627601722
 10
20.55989486547472
 20
7.362260924274415
 10
21.31993534449462
 20
7.707733869283458
 10
21.84966052684182
 20
8.122301403294307
 10
22.88607936186895
 20
8.882341882314256
 10
23.20852077721072
 20
9.342972475659646
 10
24.01462431556515
 20
9.734508480003234
 10
24.5673810275796
 20
10.05694989534501
 10
25.46561068460312
 20
10.60970660735953
 10
25.88017821861399
 20
11.07033720070492
 10
26.31777728229212
 20
11.34671555671216
 10
26.70931328663569
 20
11.30065249737762
 10
27.21600693931562
 20
11.55399932371759
 10
28.0681735370046
 20
12.17585062473387
 10
28.41364648201364
 20
12.49829204007566
 10
28.39061495234636
 20
12.77467039608289
 10
28.22939424467547
 20
13.00498569275559
 10
28.04514200733732
 20
13.05104875209013
 97
        0
 75
     0
 76
     1
 98
        0
  0
LINE
  5
78
330
1F
100
AcDbEntity
  8
Doc_ Finishes
  6
Continuous
100
AcDbLine
 10
27.6536064122738
 20
13.12014211250983
 30
0.0
 11
27.21600708103855
 21
12.77467151848938
 31
0.0
  0
LINE
  5
79
330
1F
100
AcDbEntity
  8
Doc_ Finishes
  6
Continuous
100
AcDbLine
 10
27.21600708103855
 20
12.77467151848938
 30
0.0
 11
26.54809254523997
 21
12.24494345003934
 31
0.0
  0
LINE
  5
7A
330
1F
100
AcDbEntity
  8
Doc_ Finishes
  6
Continuous
100
AcDbLine
 10
26.54809254523997
 20
12.24494345003934
 30
0.0
 11
25.92624016522423
 21
11.85341070023603
 31
0.0
  0
LINE
  5
7B
330
1F
100
AcDbEntity
  8
Doc_ Finishes
  6
Continuous
100
AcDbLine
 10
25.92624016522423
 20
11.85341070023603
 30
0.0
 11
25.32742328874902
 21
11.32368263178599
 31
0.0
  0
LINE
  5
7C
330
1F
100
AcDbEntity
  8
Doc_ Finishes
  6
Continuous
100
AcDbLine
 10
25.32742328874902
 20
11.32368263178599
 30
0.0
 11
24.72860198662471
 21
11.04730527143981
 31
0.0
  0
LINE
  5
7D
330
1F
100
AcDbEntity
  8
Doc_ Finishes
  6
Continuous
100
AcDbLine
 10
24.72860198662471
 20
11.04730527143981
 30
0.0
 11
24.08371852871754
 21
10.56364378442171
 31
0.0
  0
LINE
  5
7E
330
1F
100
AcDbEntity
  8
Doc_ Finishes
  6
Continuous
100
AcDbLine
 10
24.08371852871754
 20
10.56364378442171
 30
0.0
 11
23.62308811959087
 21
10.33332857985838
 31
0.0
  0
LINE
  5
7F
330
1F
100
AcDbEntity
  8
Doc_ Finishes
  6
Continuous
100
AcDbLine
 10
23.62308811959087
 20
10.33332857985838
 30
0.0
 11
23.23155094413847
 21
10.03392014162077
 31
0.0
  0
LINE
  5
80
330
1F
100
AcDbEntity
  8
Doc_ Finishes
  6
Continuous
100
AcDbLine
 10
23.23155094413847
 20
10.03392014162077
 30
0.0
 11
22.81698269079465
 21
9.619351888276947
 31
0.0
  0
LINE
  5
81
330
1F
100
AcDbEntity
  8
Doc_ Finishes
  6
Continuous
100
AcDbLine
 10
22.81698269079465
 20
9.619351888276947
 30
0.0
 11
22.40241886309992
 21
9.389036683713611
 31
0.0
  0
LINE
  5
82
330
1F
100
AcDbEntity
  8
Doc_ Finishes
  6
Continuous
100
AcDbLine
 10
22.40241886309992
 20
9.389036683713611
 30
0.0
 11
21.91875295043273
 21
9.04356166404406
 31
0.0
  0
LINE
  5
83
330
1F
100
AcDbEntity
  8
Doc_ Finishes
  6
Continuous
100
AcDbLine
 10
21.91875295043273
 20
9.04356166404406
 30
0.0
 11
21.66540666797797
 21
8.859308615263572
 31
0.0
  0
LINE
  5
84
330
1F
100
AcDbEntity
  8
Doc_ Finishes
  6
Continuous
100
AcDbLine
 10
21.66540666797797
 20
8.859308615263572
 30
0.0
 11
21.25084284028324
 21
8.582931254917387
 31
0.0
  0
LINE
  5
85
330
1F
100
AcDbEntity
  8
Doc_ Finishes
  6
Continuous
100
AcDbLine
 10
21.25084284028324
 20
8.582931254917387
 30
0.0
 11
20.09926239181747
 21
7.75379474822974
 31
0.0
  0
LINE
  5
86
330
1F
100
AcDbEntity
  8
Doc_ Finishes
  6
Continuous
100
AcDbLine
 10
20.09926239181747
 20
7.75379474822974
 30
0.0
 11
19.75379179779701
 21
7.477417387883556
 31
0.0
  0
LINE
  5
87
330
1F
100
AcDbEntity
  8
Doc_ Finishes
  6
Continuous
100
AcDbLine
 10
19.75379179779701
 20
7.477417387883556
 30
0.0
 11
19.29316138867033
 21
7.316199842643588
 31
0.0
  0
LINE
  5
88
330
1F
100
AcDbEntity
  8
Doc_ Finishes
  6
Continuous
100
AcDbLine
 10
19.29316138867033
 20
7.316199842643588
 30
0.0
 11
19.22406815499606
 21
6.993755900865461
 31
0.0
  0
LINE
  5
89
330
1F
100
AcDbEntity
  8
Doc_ Finishes
  6
Continuous
100
AcDbLine
 10
19.22406815499606
 20
6.993755900865461
 30
0.0
 11
19.36225462234461
 21
6.717378540519276
 31
0.0
  0
LINE
  5
8A
330
1F
100
AcDbEntity
  8
Doc_ Finishes
  6
Continuous
100
AcDbLine
 10
19.36225462234461
 20
6.717378540519276
 30
0.0
 11
19.63863198269079
 21
6.602218725413059
 31
0.0
  0
LINE
  5
8B
330
1F
100
AcDbEntity
  8
Doc_ Finishes
  6
Continuous
100
AcDbLine
 10
19.63863198269079
 20
6.602218725413059
 30
0.0
 11
20.00713808025177
 21
6.832533929976396
 31
0.0
  0
LINE
  5
8C
330
1F
100
AcDbEntity
  8
Doc_ Finishes
  6
Continuous
100
AcDbLine
 10
20.00713808025177
 20
6.832533929976396
 30
0.0
 11
20.26048436270653
 21
7.1319467938631
 31
0.0
  0
LINE
  5
8D
330
1F
100
AcDbEntity
  8
Doc_ Finishes
  6
Continuous
100
AcDbLine
 10
20.26048436270653
 20
7.1319467938631
 30
0.0
 11
20.55989280094414
 21
7.362261998426435
 31
0.0
  0
LINE
  5
8E
330
1F
100
AcDbEntity
  8
Doc_ Finishes
  6
Continuous
100
AcDbLine
 10
20.55989280094414
 20
7.362261998426435
 30
0.0
 11
21.31993607395751
 21
7.707732592446892
 31
0.0
  0
LINE
  5
8F
330
1F
100
AcDbEntity
  8
Doc_ Finishes
  6
Continuous
100
AcDbLine
 10
21.31993607395751
 20
7.707732592446892
 30
0.0
 11
21.84965971675846
 21
8.122300845790717
 31
0.0
  0
LINE
  5
90
330
1F
100
AcDbEntity
  8
Doc_ Finishes
  6
Continuous
100
AcDbLine
 10
21.84965971675846
 20
8.122300845790717
 30
0.0
 11
22.88608035011802
 21
8.882339693154996
 31
0.0
  0
LINE
  5
91
330
1F
100
AcDbEntity
  8
Doc_ Finishes
  6
Continuous
100
AcDbLine
 10
22.88608035011802
 20
8.882339693154996
 30
0.0
 11
23.20851986624705
 21
9.342974527930762
 31
0.0
  0
LINE
  5
92
330
1F
100
AcDbEntity
  8
Doc_ Finishes
  6
Continuous
100
AcDbLine
 10
23.20851986624705
 20
9.342974527930762
 30
0.0
 11
24.01462529504327
 21
9.734507277734066
 31
0.0
  0
LINE
  5
93
330
1F
100
AcDbEntity
  8
Doc_ Finishes
  6
Continuous
100
AcDbLine
 10
24.01462529504327
 20
9.734507277734066
 30
0.0
 11
24.56738001573564
 21
10.05695121951219
 31
0.0
  0
LINE
  5
94
330
1F
100
AcDbEntity
  8
Doc_ Finishes
  6
Continuous
100
AcDbLine
 10
24.56738001573564
 20
10.05695121951219
 30
0.0
 11
25.46560975609756
 21
10.60970594020456
 31
0.0
  0
LINE
  5
95
330
1F
100
AcDbEntity
  8
Doc_ Finishes
  6
Continuous
100
AcDbLine
 10
25.46560975609756
 20
10.60970594020456
 30
0.0
 11
25.88017800944139
 21
11.07033634933124
 31
0.0
  0
LINE
  5
96
330
1F
100
AcDbEntity
  8
Doc_ Finishes
  6
Continuous
100
AcDbLine
 10
25.88017800944139
 20
11.07033634933124
 30
0.0
 11
26.31777734067663
 21
11.34671370967742
 31
0.0
  0
LINE
  5
97
330
1F
100
AcDbEntity
  8
Doc_ Finishes
  6
Continuous
100
AcDbLine
 10
26.31777734067663
 20
11.34671370967742
 30
0.0
 11
26.70931451612903
 21
11.30065155389457
 31
0.0
  0
LINE
  5
98
330
1F
100
AcDbEntity
  8
Doc_ Finishes
  6
Continuous
100
AcDbLine
 10
26.70931451612903
 20
11.30065155389457
 30
0.0
 11
27.21600708103855
 21
11.55399783634933
 31
0.0
  0
LINE
  5
99
330
1F
100
AcDbEntity
  8
Doc_ Finishes
  6
Continuous
100
AcDbLine
 10
27.21600708103855
 20
11.55399783634933
 30
0.0
 11
28.06817466561763
 21
12.17585021636507
 31
0.0
  0
LINE
  5
9A
330
1F
100
AcDbEntity
  8
Doc_ Finishes
  6
Continuous
100
AcDbLine
 10
28.06817466561763
 20
12.17585021636507
 30
0.0
 11
28.41364525963808
 21
12.49829415814319
 31
0.0
  0
LINE
  5
9B
330
1F
100
AcDbEntity
  8
Doc_ Finishes
  6
Continuous
100
AcDbLine
 10
28.41364525963808
 20
12.49829415814319
 30
0.0
 11
28.39061418174666
 21
12.77467151848938
 31
0.0
  0
LINE
  5
9C
330
1F
100
AcDbEntity
  8
Doc_ Finishes
  6
Continuous
100
AcDbLine
 10
28.39061418174666
 20
12.77467151848938
 30
0.0
 11
28.22939221085759
 21
13.00498672305271
 31
0.0
  0
LINE
  5
9D
330
1F
100
AcDbEntity
  8
Doc_ Finishes
  6
Continuous
100
AcDbLine
 10
28.22939221085759
 20
13.00498672305271
 30
0.0
 11
28.04514358772619
 21
13.05104887883556
 31
0.0
  0
LINE
  5
9E
330
1F
100
AcDbEntity
  8
Doc_ Finishes
  6
Continuous
100
AcDbLine
 10
28.04514358772619
 20
13.05104887883556
 30
0.0
 11
27.6536064122738
 21
13.12014211250983
 31
0.0
  0
HATCH
  5
9F
330
1F
100
AcDbEntity
  8
Doc_ Finishes
  6
Continuous
100
AcDbHatch
 10
0.0
 20
0.0
 30
0.0
210
0.0
220
0.0
230
1.0
  2
SOLID
 70
     1
 71
     0
 91
        1
 92
        3
 72
     0
 73
     1
 93
       47
 10
28.06817353700456
 20
15.74573772316067
 10
28.30309513961077
 20
15.62136746295728
 10
28.4412843176144
 20
15.4002647781515
 10
28.93876535842742
 20
15.17916209334572
 10
29.82317609765057
 20
14.40530269652538
 10
30.92868952167951
 20
13.74199464210799
 10
31.59199757609689
 20
13.3827027792986
 10
32.20002995931279
 20
13.07868658769064
 10
33.55428390374828
 20
12.08372450606458
 10
34.07940278016201
 20
11.69679480765445
 10
34.88090001258301
 20
11.08876242443854
 10
35.59948373820179
 20
10.50836787682334
 10
36.5668079842271
 20
9.817421986805197
 10
37.06428902504012
 20
9.458130123995785
 10
37.81051058625966
 20
8.933011247582023
 10
38.61200781868061
 20
8.407892371168286
 10
38.77783483228498
 20
8.186789686362482
 10
39.38586721550092
 20
7.744584316750918
 10
40.18736444792187
 20
6.915449248729224
 10
40.7953968311378
 20
6.44560604351692
 10
41.56925622795804
 20
6.169227687509681
 10
42.23256428237543
 20
6.086314180707507
 10
42.48130480278193
 20
6.30741686551329
 10
42.14965077557326
 20
6.611433057121246
 10
41.48634272115586
 20
6.998362755531397
 10
40.76775899553709
 20
7.357654618340788
 10
40.18736444792187
 20
8.048600508358874
 10
38.99893751709079
 20
8.822459905179112
 10
38.47381864067705
 20
9.319940945992132
 10
38.22507812027052
 20
9.734508480003
 10
37.17484036744301
 20
10.31490302761817
 10
36.73263499783144
 20
10.78474623283046
 10
36.2351539570184
 20
11.17167593124059
 10
35.48893239579888
 20
11.61388130085215
 10
34.85326217698223
 20
12.16663801286669
 10
34.35578113616919
 20
12.58120554687754
 10
33.69247308175183
 20
12.99577308088841
 10
33.22262987653953
 20
13.32742710809708
 10
32.7251488357265
 20
13.5761676285036
 10
31.93747052110588
 20
14.06443605744977
 10
31.43077686842594
 20
14.38687747279155
 10
30.92408321574601
 20
14.70931888813342
 10
30.62467333007151
 20
15.100854892477
 10
29.95675896972068
 20
15.67664313415887
 10
29.47309684670803
 20
15.9530214901661
 10
28.82821401602447
 20
16.36758902417695
 10
28.50577260068269
 20
16.22939984617334
 97
        0
 75
     0
 76
     1
 98
        0
  0
LINE
  5
A0
330
1F
100
AcDbEntity
  8
Doc_ Finishes
  6
Continuous
100
AcDbLine
 10
28.30309697088906
 20
15.62136850904799
 30
0.0
 11
28.06817466561763
 21
15.74573809992132
 31
0.0
  0
LINE
  5
A1
330
1F
100
AcDbEntity
  8
Doc_ Finishes
  6
Continuous
100
AcDbLine
 10
28.44128343823761
 20
15.40026308025177
 30
0.0
 11
28.30309697088906
 21
15.62136850904799
 31
0.0
  0
LINE
  5
A2
330
1F
100
AcDbEntity
  8
Doc_ Finishes
  6
Continuous
100
AcDbLine
 10
28.93876622738001
 20
15.17916207710464
 30
0.0
 11
28.44128343823761
 21
15.40026308025177
 31
0.0
  0
LINE
  5
A3
330
1F
100
AcDbEntity
  8
Doc_ Finishes
  6
Continuous
100
AcDbLine
 10
29.82317466561762
 20
14.40530192761605
 30
0.0
 11
28.93876622738001
 21
15.17916207710464
 31
0.0
  0
LINE
  5
A4
330
1F
100
AcDbEntity
  8
Doc_ Finishes
  6
Continuous
100
AcDbLine
 10
30.92868853265146
 20
13.74199449252557
 30
0.0
 11
29.82317466561762
 21
14.40530192761605
 31
0.0
  0
LINE
  5
A5
330
1F
100
AcDbEntity
  8
Doc_ Finishes
  6
Continuous
100
AcDbLine
 10
31.59199596774193
 20
13.3827025963808
 30
0.0
 11
30.92868853265146
 21
13.74199449252557
 31
0.0
  0
LINE
  5
A6
330
1F
100
AcDbEntity
  8
Doc_ Finishes
  6
Continuous
100
AcDbLine
 10
32.20003147128246
 20
13.07868705743509
 30
0.0
 11
31.59199596774193
 21
13.3827025963808
 31
0.0
  0
LINE
  5
A7
330
1F
100
AcDbEntity
  8
Doc_ Finishes
  6
Continuous
100
AcDbLine
 10
33.55428452006294
 20
12.08372590479937
 30
0.0
 11
32.20003147128246
 21
13.07868705743509
 31
0.0
  0
LINE
  5
A8
330
1F
100
AcDbEntity
  8
Doc_ Finishes
  6
Continuous
100
AcDbLine
 10
34.07940106215578
 20
11.69679583005508
 30
0.0
 11
33.55428452006294
 21
12.08372590479937
 31
0.0
  0
LINE
  5
A9
330
1F
100
AcDbEntity
  8
Doc_ Finishes
  6
Continuous
100
AcDbLine
 10
34.8808993902439
 20
11.08876032651456
 30
0.0
 11
34.07940106215578
 21
11.69679583005508
 31
0.0
  0
LINE
  5
AA
330
1F
100
AcDbEntity
  8
Doc_ Finishes
  6
Continuous
100
AcDbLine
 10
35.59948318253343
 20
10.50836742722266
 30
0.0
 11
34.8808993902439
 21
11.08876032651456
 31
0.0
  0
LINE
  5
AB
330
1F
100
AcDbEntity
  8
Doc_ Finishes
  6
Continuous
100
AcDbLine
 10
36.56680615656963
 20
9.817421813532652
 30
0.0
 11
35.59948318253343
 21
10.50836742722266
 31
0.0
  0
LINE
  5
AC
330
1F
100
AcDbEntity
  8
Doc_ Finishes
  6
Continuous
100
AcDbLine
 10
37.06428894571204
 20
9.458129917387884
 30
0.0
 11
36.56680615656963
 21
9.817421813532652
 31
0.0
  0
LINE
  5
AD
330
1F
100
AcDbEntity
  8
Doc_ Finishes
  6
Continuous
100
AcDbLine
 10
37.8105109166011
 20
8.933013375295044
 30
0.0
 11
37.06428894571204
 21
9.458129917387884
 31
0.0
  0
LINE
  5
AE
330
1F
100
AcDbEntity
  8
Doc_ Finishes
  6
Continuous
100
AcDbLine
 10
38.61200924468922
 20
8.407892407553108
 30
0.0
 11
37.8105109166011
 21
8.933013375295044
 31
0.0
  0
LINE
  5
AF
330
1F
100
AcDbEntity
  8
Doc_ Finishes
  6
Continuous
100
AcDbLine
 10
38.77783389063729
 20
8.18679140440598
 30
0.0
 11
38.61200924468922
 21
8.407892407553108
 31
0.0
  0
LINE
  5
B0
330
1F
100
AcDbEntity
  8
Doc_ Finishes
  6
Continuous
100
AcDbLine
 10
39.3858693941778
 20
7.744584972462627
 30
0.0
 11
38.77783389063729
 21
8.18679140440598
 31
0.0
  0
LINE
  5
B1
330
1F
100
AcDbEntity
  8
Doc_ Finishes
  6
Continuous
100
AcDbLine
 10
40.18736329661684
 20
6.915448465774981
 30
0.0
 11
39.3858693941778
 21
7.744584972462627
 31
0.0
  0
LINE
  5
B2
330
1F
100
AcDbEntity
  8
Doc_ Finishes
  6
Continuous
100
AcDbLine
 10
40.79539880015735
 20
6.4456038552321
 30
0.0
 11
40.18736329661684
 21
6.915448465774981
 31
0.0
  0
LINE
  5
B3
330
1F
100
AcDbEntity
  8
Doc_ Finishes
  6
Continuous
100
AcDbLine
 10
41.56925452399685
 20
6.169226494885916
 30
0.0
 11
40.79539880015735
 21
6.4456038552321
 31
0.0
  0
LINE
  5
B4
330
1F
100
AcDbEntity
  8
Doc_ Finishes
  6
Continuous
100
AcDbLine
 10
42.23256638473643
 20
6.086316384736428
 30
0.0
 11
41.56925452399685
 21
6.169226494885916
 31
0.0
  0
LINE
  5
B5
330
1F
100
AcDbEntity
  8
Doc_ Finishes
  6
Continuous
100
AcDbLine
 10
42.48130556648308
 20
6.307417387883556
 30
0.0
 11
42.23256638473643
 21
6.086316384736428
 31
0.0
  0
LINE
  5
B6
330
1F
100
AcDbEntity
  8
Doc_ Finishes
  6
Continuous
100
AcDbLine
 10
42.14965184893784
 20
6.611432926829268
 30
0.0
 11
42.48130556648308
 21
6.307417387883556
 31
0.0
  0
LINE
  5
B7
330
1F
100
AcDbEntity
  8
Doc_ Finishes
  6
Continuous
100
AcDbLine
 10
41.48634441384736
 20
6.998363001573564
 30
0.0
 11
42.14965184893784
 21
6.611432926829268
 31
0.0
  0
LINE
  5
B8
330
1F
100
AcDbEntity
  8
Doc_ Finishes
  6
Continuous
100
AcDbLine
 10
40.76776062155783
 20
7.357654897718332
 30
0.0
 11
41.48634441384736
 21
6.998363001573564
 31
0.0
  0
LINE
  5
B9
330
1F
100
AcDbEntity
  8
Doc_ Finishes
  6
Continuous
100
AcDbLine
 10
40.18736329661684
 20
8.048600511408338
 30
0.0
 11
40.76776062155783
 21
7.357654897718332
 31
0.0
  0
LINE
  5
BA
330
1F
100
AcDbEntity
  8
Doc_ Finishes
  6
Continuous
100
AcDbLine
 10
38.99893931943352
 20
8.822460660896931
 30
0.0
 11
40.18736329661684
 21
8.048600511408338
 31
0.0
  0
LINE
  5
BB
330
1F
100
AcDbEntity
  8
Doc_ Finishes
  6
Continuous
100
AcDbLine
 10
38.47381835169158
 20
9.319939024390242
 30
0.0
 11
38.99893931943352
 21
8.822460660896931
 31
0.0
  0
LINE
  5
BC
330
1F
100
AcDbEntity
  8
Doc_ Finishes
  6
Continuous
100
AcDbLine
 10
38.22507916994492
 20
9.734507277734066
 30
0.0
 11
38.47381835169158
 21
9.319939024390242
 31
0.0
  0
LINE
  5
BD
330
1F
100
AcDbEntity
  8
Doc_ Finishes
  6
Continuous
100
AcDbLine
 10
37.17484166011014
 20
10.31490460267506
 30
0.0
 11
38.22507916994492
 21
9.734507277734066
 31
0.0
  0
LINE
  5
BE
330
1F
100
AcDbEntity
  8
Doc_ Finishes
  6
Continuous
100
AcDbLine
 10
36.7326352281668
 20
10.78474478756884
 30
0.0
 11
37.17484166011014
 21
10.31490460267506
 31
0.0
  0
LINE
  5
BF
330
1F
100
AcDbEntity
  8
Doc_ Finishes
  6
Continuous
100
AcDbLine
 10
36.23515243902439
 20
11.17167486231314
 30
0.0
 11
36.7326352281668
 21
10.78474478756884
 31
0.0
  0
LINE
  5
C0
330
1F
100
AcDbEntity
  8
Doc_ Finishes
  6
Continuous
100
AcDbLine
 10
35.48893046813532
 20
11.61388129425649
 30
0.0
 11
36.23515243902439
 21
11.17167486231314
 31
0.0
  0
LINE
  5
C1
330
1F
100
AcDbEntity
  8
Doc_ Finishes
  6
Continuous
100
AcDbLine
 10
34.85326121164437
 20
12.16663601494886
 30
0.0
 11
35.48893046813532
 21
11.61388129425649
 31
0.0
  0
LINE
  5
C2
330
1F
100
AcDbEntity
  8
Doc_ Finishes
  6
Continuous
100
AcDbLine
 10
34.35578284815106
 20
12.58120426829268
 30
0.0
 11
34.85326121164437
 21
12.16663601494886
 31
0.0
  0
LINE
  5
C3
330
1F
100
AcDbEntity
  8
Doc_ Finishes
  6
Continuous
100
AcDbLine
 10
33.69247098741149
 20
12.99577252163651
 30
0.0
 11
34.35578284815106
 21
12.58120426829268
 31
0.0
  0
LINE
  5
C4
330
1F
100
AcDbEntity
  8
Doc_ Finishes
  6
Continuous
100
AcDbLine
 10
33.2226308025177
 20
13.32742623918175
 30
0.0
 11
33.69247098741149
 21
12.99577252163651
 31
0.0
  0
LINE
  5
C5
330
1F
100
AcDbEntity
  8
Doc_ Finishes
  6
Continuous
100
AcDbLine
 10
32.7251480133753
 20
13.5761654209284
 30
0.0
 11
33.2226308025177
 21
13.32742623918175
 31
0.0
  0
LINE
  5
C6
330
1F
100
AcDbEntity
  8
Doc_ Finishes
  6
Continuous
100
AcDbLine
 10
31.93747098741148
 20
14.0644340086546
 30
0.0
 11
32.7251480133753
 21
13.5761654209284
 31
0.0
  0
LINE
  5
C7
330
1F
100
AcDbEntity
  8
Doc_ Finishes
  6
Continuous
100
AcDbLine
 10
31.43077842250197
 20
14.38687795043273
 30
0.0
 11
31.93747098741148
 21
14.0644340086546
 31
0.0
  0
LINE
  5
C8
330
1F
100
AcDbEntity
  8
Doc_ Finishes
  6
Continuous
100
AcDbLine
 10
30.92408143194335
 20
14.70931746656176
 30
0.0
 11
31.43077842250197
 21
14.38687795043273
 31
0.0
  0
LINE
  5
C9
330
1F
100
AcDbEntity
  8
Doc_ Finishes
  6
Continuous
100
AcDbLine
 10
30.62467299370574
 20
15.10085464201416
 30
0.0
 11
30.92408143194335
 21
14.70931746656176
 31
0.0
  0
LINE
  5
CA
330
1F
100
AcDbEntity
  8
Doc_ Finishes
  6
Continuous
100
AcDbLine
 10
29.95675845790716
 20
15.67664486624705
 30
0.0
 11
30.62467299370574
 21
15.10085464201416
 31
0.0
  0
LINE
  5
CB
330
1F
100
AcDbEntity
  8
Doc_ Finishes
  6
Continuous
100
AcDbLine
 10
29.47309697088906
 20
15.95302222659323
 30
0.0
 11
29.95675845790716
 21
15.67664486624705
 31
0.0
  0
LINE
  5
CC
330
1F
100
AcDbEntity
  8
Doc_ Finishes
  6
Continuous
100
AcDbLine
 10
28.8282135129819
 20
16.36759047993706
 30
0.0
 11
29.47309697088906
 21
15.95302222659323
 31
0.0
  0
LINE
  5
CD
330
1F
100
AcDbEntity
  8
Doc_ Finishes
  6
Continuous
100
AcDbLine
 10
28.50577399685287
 20
16.22939958693942
 30
0.0
 11
28.8282135129819
 21
16.36759047993706
 31
0.0
  0
LINE
  5
CE
330
1F
100
AcDbEntity
  8
Doc_ Finishes
  6
Continuous
100
AcDbLine
 10
28.06817466561763
 20
15.74573809992132
 30
0.0
 11
28.50577399685287
 21
16.22939958693942
 31
0.0
  0
LINE
  5
CF
330
1F
100
AcDbEntity
  8
Doc_ Finishes
  6
Continuous
 62
   254
370
    18
100
AcDbLine
 10
97.43333792289535
 20
5.093360051140834
 30
0.0
 11
97.43333792289535
 21
20.69901750590086
 31
0.0
  0
LINE
  5
D0
330
1F
100
AcDbEntity
  8
Doc_ Finishes
  6
Continuous
 62
   254
370
    18
100
AcDbLine
 10
7.000000491738787
 20
20.69901750590086
 30
0.0
 11
290.2406840086546
 21
20.69901750590086
 31
0.0
  0
LINE
  5
D1
330
1F
100
AcDbEntity
  8
Doc_ Finishes
  6
Continuous
 62
   254
370
    18
100
AcDbLine
 10
290.2406840086546
 20
20.69901750590086
 30
0.0
 11
290.2406840086546
 21
5.000000983477577
 31
0.0
  0
LINE
  5
D2
330
1F
100
AcDbEntity
  8
Doc_ Finishes
  6
Continuous
 62
   254
370
    18
100
AcDbLine
 10
290.2406840086546
 20
5.000000983477577
 30
0.0
 11
7.000000491738787
 21
5.000000983477577
 31
0.0
  0
LINE
  5
D3
330
1F
100
AcDbEntity
  8
Doc_ Finishes
  6
Continuous
 62
   254
370
    18
100
AcDbLine
 10
7.000000491738787
 20
20.69901750590086
 30
0.0
 11
7.000000491738787
 21
5.000000983477577
 31
0.0
  0
LINE
  5
D4
330
1F
100
AcDbEntity
  8
Doc_ Finishes
  6
Continuous
 62
   254
370
    18
100
AcDbLine
 10
190.2919443351691
 20
5.093360051140834
 30
0.0
 11
190.2919443351691
 21
20.69901750590086
 31
0.0
  0
LINE
  5
D5
330
1F
100
AcDbEntity
  8
Doc_ Finishes
  6
Continuous
 62
   254
370
    18
100
AcDbLine
 10
190.2919443351691
 20
12.8961909913454
 30
0.0
 11
290.2406840086546
 21
12.8961909913454
 31
0.0
  0
MTEXT
  5
D7
330
1F
100
AcDbEntity
  8
0
  6
Continuous
100
AcDbMText
 10
210.3494767103412
 20
15.00230533707754
 30
0.0
 40
2.25
 41
0.0
 71
     7
 72
     1
  1
{R-TRSC-08}
  7
GENERATED_STYLE_1
 73
     1
 44
1.0
  0
MTEXT
  5
D8
330
1F
100
AcDbEntity
  8
0
  6
Continuous
100
AcDbMText
 10
210.3494767103412
 20
11.03300550383743
 30
0.0
 40
3.0
 41
0.0
 71
     1
 72
     1
  1
{APRON DETAIL - HEAD}
  7
GENERATED_STYLE_1
 73
     1
 44
1.0
  0
MTEXT
  5
DA
330
1F
100
AcDbEntity
  8
Doc_ Floor
  6
Continuous
100
AcDbMText
 10
29.78353726544612
 20
13.33283672870609
 30
0.0
 40
5.603347280334726
 41
0.0
 71
     1
 72
     1
  1
{The Roofing Store}
  7
GENERATED_STYLE_2
 73
     1
 44
1.0
  0
MTEXT
  5
DC
102
{ACAD_XDICTIONARY
360
4FD
102
}
330
1F
100
AcDbEntity
  8
0
  6
Continuous
100
AcDbMText
 10
102.7389238446655
 20
6.378784417288157
 30
0.0
 40
1.5
 41
0.0
 71
     7
 72
     1
  1
{P: HEAD OFFICE              09 277 2717\P    ALBANY             09 972 0060\P    KATIKAIT            07 549 5190\P    WELLINGTON              04 974 5792\P    CHRISTCHURCH          03 348 6528}
  7
GENERATED_STYLE_1
 73
     1
 44
1.062946161486498
  0
MTEXT
  5
DD
330
1F
100
AcDbEntity
  8
0
  6
Continuous
100
AcDbMText
 10
149.4184566143587
 20
9.199084231526156
 30
0.0
 40
1.5
 41
0.0
 71
     7
 72
     1
  1
{WEB: www.theroofingstore.co.nz}
  7
GENERATED_STYLE_1
 73
     1
 44
1.0
  0
MTEXT
  5
DE
330
1F
100
AcDbEntity
  8
0
  6
Continuous
100
AcDbMText
 10
149.4184566143587
 20
6.620946023411263
 30
0.0
 40
1.5
 41
0.0
 71
     7
 72
     1
  1
{Copyright \U+00A9 The Roofing Store 2013}
  7
GENERATED_STYLE_1
 73
     1
 44
1.0
  0
MTEXT
  5
DF
330
1F
100
AcDbEntity
  8
0
  6
Continuous
100
AcDbMText
 10
273.9546684065315
 20
15.01597367092287
 30
0.0
 40
2.25
 41
0.0
 71
     7
 72
     1
  1
{1:5}
  7
GENERATED_STYLE_1
 73
     1
 44
1.0
  0
MTEXT
  5
E0
330
1F
100
AcDbEntity
  8
0
  6
Continuous
100
AcDbMText
 10
264.8396605309016
 20
15.51746459162148
 30
0.0
 40
1.5
 41
0.0
 71
     7
 72
     1
  1
{SCALE:}
  7
GENERATED_STYLE_1
 73
     1
 44
1.0
  0
MTEXT
  5
E1
330
1F
100
AcDbEntity
  8
0
  6
Continuous
100
AcDbMText
 10
191.5066235617487
 20
15.48695559872207
 30
0.0
 40
1.5
 41
0.0
 71
     7
 72
     1
  1
{DETAIL NUMBER:}
  7
GENERATED_STYLE_1
 73
     1
 44
1.0
  0
MTEXT
  5
E2
330
1F
100
AcDbEntity
  8
0
  6
Continuous
100
AcDbMText
 10
191.5066235617487
 20
9.005462392315325
 30
0.0
 40
1.5
 41
0.0
 71
     7
 72
     1
  1
{TITLE:}
  7
GENERATED_STYLE_1
 73
     1
 44
1.0
  0
INSERT
  5
4CB
102
{ACAD_XDICTIONARY
360
4CC
102
}
330
1F
100
AcDbEntity
  8
0
  6
Continuous
100
AcDbBlockReference
  2
Drawing_1_2
 10
28.8753134188689
 20
84.42632391951834
 30
0.0
  0
ENDSEC
  0
SECTION
  2
OBJECTS
  0
DICTIONARY
  5
C
330
0
100
AcDbDictionary
281
     1
  3
ACAD_GROUP
350
D
  3
ACAD_LAYOUT
350
1A
  3
ACAD_MATERIAL
350
3B
  3
ACAD_MLEADERSTYLE
350
4F8
  3
ACAD_MLINESTYLE
350
17
  3
ACAD_PLOTSETTINGS
350
19
  3
ACAD_PLOTSTYLENAME
350
E
  3
ACAD_SCALELIST
350
4D2
  3
ACAD_VISUALSTYLE
350
2A
  3
AcDbVariableDictionary
350
4F6
  3
WATERMARKS
350
4F4
  0
DICTIONARY
  5
4FD
330
DC
100
AcDbDictionary
280
     1
281
     1
  3
ACAD_MTEXT_RT
360
4FE
  0
DICTIONARY
  5
4CC
330
4CB
100
AcDbDictionary
280
     1
281
     1
  3
ACAD_FILTER
360
4CD
  0
DICTIONARY
  5
D
102
{ACAD_REACTORS
330
C
102
}
330
C
100
AcDbDictionary
281
     1
  0
DICTIONARY
  5
1A
102
{ACAD_REACTORS
330
C
102
}
330
C
100
AcDbDictionary
281
     1
  3
Layout1
350
1E
  3
Model
350
22
  0
DICTIONARY
  5
3B
102
{ACAD_REACTORS
330
C
102
}
330
C
100
AcDbDictionary
281
     1
  3
ByBlock
350
3D
  3
ByLayer
350
3C
  3
Global
350
3E
  0
DICTIONARY
  5
4F8
102
{ACAD_REACTORS
330
C
102
}
330
C
100
AcDbDictionary
281
     1
  0
DICTIONARY
  5
17
102
{ACAD_REACTORS
330
C
102
}
330
C
100
AcDbDictionary
281
     1
  3
Standard
350
18
  0
DICTIONARY
  5
19
102
{ACAD_REACTORS
330
C
102
}
330
C
100
AcDbDictionary
281
     1
  0
ACDBDICTIONARYWDFLT
  5
E
102
{ACAD_REACTORS
330
C
102
}
330
C
100
AcDbDictionary
281
     1
  3
Normal
350
F
100
AcDbDictionaryWithDefault
340
F
  0
DICTIONARY
  5
4D2
102
{ACAD_REACTORS
330
C
102
}
330
C
100
AcDbDictionary
281
     1
  3
A0
350
4D3
  3
A1
350
4D4
  3
A2
350
4D5
  3
A3
350
4D6
  3
A4
350
4D7
  3
A5
350
4D8
  3
A6
350
4D9
  3
A7
350
4DA
  3
A8
350
4DB
  3
A9
350
4DC
  3
B0
350
4DD
  3
B1
350
4DE
  3
B2
350
4DF
  3
B3
350
4E0
  3
B4
350
4E1
  3
B5
350
4E2
  3
B6
350
4E3
  3
B7
350
4E4
  3
B8
350
4E5
  3
B9
350
4E6
  3
C0
350
4E7
  3
C1
350
4E8
  3
C2
350
4E9
  3
C3
350
4EA
  3
C4
350
4EB
  3
C5
350
4EC
  3
C6
350
4ED
  3
C7
350
4EE
  3
C8
350
4EF
  3
C9
350
4F0
  3
D0
350
4F1
  3
D1
350
4F2
  3
D2
350
4F3
  0
DICTIONARY
  5
2A
102
{ACAD_REACTORS
330
C
102
}
330
C
100
AcDbDictionary
281
     1
  3
2dWireframe
350
2F
  3
3D Hidden
350
31
  3
3dWireframe
350
30
  3
Basic
350
32
  3
Brighten
350
36
  3
ColorChange
350
3A
  3
Conceptual
350
34
  3
Dim
350
35
  3
Facepattern
350
39
  3
Flat
350
2B
  3
FlatWithEdges
350
2C
  3
Gouraud
350
2D
  3
GouraudWithEdges
350
2E
  3
Linepattern
350
38
  3
Realistic
350
33
  3
Thicken
350
37
  0
DICTIONARY
  5
4F6
102
{ACAD_REACTORS
330
C
102
}
330
C
100
AcDbDictionary
281
     1
  3
CANNOSCALE
350
4FA
  3
DIMASSOC
350
4FB
  3
HIDETEXT
350
4FC
  3
XCLIPFRAME
350
4F9
  0
DICTIONARY
  5
4F4
102
{ACAD_REACTORS
330
C
102
}
330
C
100
AcDbDictionary
281
     1
  3
AC_WATERMARK
350
4F5
  0
XRECORD
  5
4FE
102
{ACAD_REACTORS
330
4FD
102
}
330
4FD
100
AcDbXrecord
280
     1
 40
956118.0
  1
{P: HEAD OFFICE ^I^I09 277 2717\P    ALBANY ^I^I09 972 0060\P    KATIKAIT^I^I07 549 5190\P    WELLINGTON^I^I04 974 5792\P    CHRISTCHURCH^I^I03 348 6528}
  0
DICTIONARY
  5
4CD
102
{ACAD_REACTORS
330
4CC
102
}
330
4CC
100
AcDbDictionary
280
     1
281
     1
  3
SPATIAL
360
4CE
  0
LAYOUT
  5
1E
102
{ACAD_REACTORS
330
1A
102
}
330
1A
100
AcDbPlotSettings
  1

  2
none_device
  4

  6

 40
0.0
 41
0.0
 42
0.0
 43
0.0
 44
0.0
 45
0.0
 46
0.0
 47
0.0
 48
0.0
 49
0.0
140
0.0
141
0.0
142
1.0
143
1.0
 70
   688
 72
     0
 73
     0
 74
     5
  7

 75
    16
147
1.0
148
0.0
149
0.0
100
AcDbLayout
  1
Layout1
 70
     1
 71
     1
 10
0.0
 20
0.0
 11
12.0
 21
9.0
 12
0.0
 22
0.0
 32
0.0
 14
1.000000000000000E+20
 24
1.000000000000000E+20
 34
1.000000000000000E+20
 15
-1.000000000000000E+20
 25
-1.000000000000000E+20
 35
-1.000000000000000E+20
146
0.0
 13
0.0
 23
0.0
 33
0.0
 16
1.0
 26
0.0
 36
0.0
 17
0.0
 27
1.0
 37
0.0
 76
     0
330
1B
  0
LAYOUT
  5
22
102
{ACAD_REACTORS
330
1A
102
}
330
1A
100
AcDbPlotSettings
  1

  2
none_device
  4

  6

 40
0.0
 41
0.0
 42
0.0
 43
0.0
 44
0.0
 45
0.0
 46
0.0
 47
0.0
 48
0.0
 49
0.0
140
0.0
141
0.0
142
1.0
143
1.0
 70
  1712
 72
     0
 73
     0
 74
     0
  7

 75
     0
147
1.0
148
0.0
149
0.0
100
AcDbLayout
  1
Model
 70
     1
 71
     0
 10
0.0
 20
0.0
 11
12.0
 21
9.0
 12
0.0
 22
0.0
 32
0.0
 14
1.000000000000000E+20
 24
1.000000000000000E+20
 34
1.000000000000000E+20
 15
-1.000000000000000E+20
 25
-1.000000000000000E+20
 35
-1.000000000000000E+20
146
0.0
 13
0.0
 23
0.0
 33
0.0
 16
1.0
 26
0.0
 36
0.0
 17
0.0
 27
1.0
 37
0.0
 76
     0
330
1F
331
29
  0
MATERIAL
  5
3D
102
{ACAD_REACTORS
330
3B
102
}
102
{ACAD_XDICTIONARY
360
521
102
}
330
3B
100
AcDbMaterial
  1
ByBlock
  0
MATERIAL
  5
3C
102
{ACAD_REACTORS
330
3B
102
}
102
{ACAD_XDICTIONARY
360
51F
102
}
330
3B
100
AcDbMaterial
  1
ByLayer
  0
MATERIAL
  5
3E
102
{ACAD_REACTORS
330
3B
102
}
102
{ACAD_XDICTIONARY
360
523
102
}
330
3B
100
AcDbMaterial
  1
Global
  0
MLINESTYLE
  5
18
102
{ACAD_REACTORS
330
17
102
}
330
17
100
AcDbMlineStyle
  2
Standard
 70
     0
  3

 62
   256
 51
90.0
 52
90.0
 71
     2
 49
0.5
 62
   256
  6
BYLAYER
 49
-0.5
 62
   256
  6
BYLAYER
  0
ACDBPLACEHOLDER
  5
F
102
{ACAD_REACTORS
330
E
102
}
330
E
  0
SCALE
  5
4D3
102
{ACAD_REACTORS
330
4D2
102
}
330
4D2
100
AcDbScale
 70
     0
300
1:1
140
1.0
141
1.0
290
     1
  0
SCALE
  5
4D4
102
{ACAD_REACTORS
330
4D2
102
}
330
4D2
100
AcDbScale
 70
     0
300
1:2
140
1.0
141
2.0
290
     0
  0
SCALE
  5
4D5
102
{ACAD_REACTORS
330
4D2
102
}
330
4D2
100
AcDbScale
 70
     0
300
1:4
140
1.0
141
4.0
290
     0
  0
SCALE
  5
4D6
102
{ACAD_REACTORS
330
4D2
102
}
330
4D2
100
AcDbScale
 70
     0
300
1:5
140
1.0
141
5.0
290
     0
  0
SCALE
  5
4D7
102
{ACAD_REACTORS
330
4D2
102
}
330
4D2
100
AcDbScale
 70
     0
300
1:8
140
1.0
141
8.0
290
     0
  0
SCALE
  5
4D8
102
{ACAD_REACTORS
330
4D2
102
}
330
4D2
100
AcDbScale
 70
     0
300
1:10
140
1.0
141
10.0
290
     0
  0
SCALE
  5
4D9
102
{ACAD_REACTORS
330
4D2
102
}
330
4D2
100
AcDbScale
 70
     0
300
1:16
140
1.0
141
16.0
290
     0
  0
SCALE
  5
4DA
102
{ACAD_REACTORS
330
4D2
102
}
330
4D2
100
AcDbScale
 70
     0
300
1:20
140
1.0
141
20.0
290
     0
  0
SCALE
  5
4DB
102
{ACAD_REACTORS
330
4D2
102
}
330
4D2
100
AcDbScale
 70
     0
300
1:30
140
1.0
141
30.0
290
     0
  0
SCALE
  5
4DC
102
{ACAD_REACTORS
330
4D2
102
}
330
4D2
100
AcDbScale
 70
     0
300
1:40
140
1.0
141
40.0
290
     0
  0
SCALE
  5
4DD
102
{ACAD_REACTORS
330
4D2
102
}
330
4D2
100
AcDbScale
 70
     0
300
1:50
140
1.0
141
50.0
290
     0
  0
SCALE
  5
4DE
102
{ACAD_REACTORS
330
4D2
102
}
330
4D2
100
AcDbScale
 70
     0
300
1:100
140
1.0
141
100.0
290
     0
  0
SCALE
  5
4DF
102
{ACAD_REACTORS
330
4D2
102
}
330
4D2
100
AcDbScale
 70
     0
300
2:1
140
2.0
141
1.0
290
     0
  0
SCALE
  5
4E0
102
{ACAD_REACTORS
330
4D2
102
}
330
4D2
100
AcDbScale
 70
     0
300
4:1
140
4.0
141
1.0
290
     0
  0
SCALE
  5
4E1
102
{ACAD_REACTORS
330
4D2
102
}
330
4D2
100
AcDbScale
 70
     0
300
8:1
140
8.0
141
1.0
290
     0
  0
SCALE
  5
4E2
102
{ACAD_REACTORS
330
4D2
102
}
330
4D2
100
AcDbScale
 70
     0
300
10:1
140
10.0
141
1.0
290
     0
  0
SCALE
  5
4E3
102
{ACAD_REACTORS
330
4D2
102
}
330
4D2
100
AcDbScale
 70
     0
300
100:1
140
100.0
141
1.0
290
     0
  0
SCALE
  5
4E4
102
{ACAD_REACTORS
330
4D2
102
}
330
4D2
100
AcDbScale
 70
     0
300
1/128" = 1'-0"
140
0.0078125
141
12.0
290
     0
  0
SCALE
  5
4E5
102
{ACAD_REACTORS
330
4D2
102
}
330
4D2
100
AcDbScale
 70
     0
300
1/64" = 1'-0"
140
0.015625
141
12.0
290
     0
  0
SCALE
  5
4E6
102
{ACAD_REACTORS
330
4D2
102
}
330
4D2
100
AcDbScale
 70
     0
300
1/32" = 1'-0"
140
0.03125
141
12.0
290
     0
  0
SCALE
  5
4E7
102
{ACAD_REACTORS
330
4D2
102
}
330
4D2
100
AcDbScale
 70
     0
300
1/16" = 1'-0"
140
0.0625
141
12.0
290
     0
  0
SCALE
  5
4E8
102
{ACAD_REACTORS
330
4D2
102
}
330
4D2
100
AcDbScale
 70
     0
300
3/32" = 1'-0"
140
0.09375
141
12.0
290
     0
  0
SCALE
  5
4E9
102
{ACAD_REACTORS
330
4D2
102
}
330
4D2
100
AcDbScale
 70
     0
300
1/8" = 1'-0"
140
0.125
141
12.0
290
     0
  0
SCALE
  5
4EA
102
{ACAD_REACTORS
330
4D2
102
}
330
4D2
100
AcDbScale
 70
     0
300
3/16" = 1'-0"
140
0.1875
141
12.0
290
     0
  0
SCALE
  5
4EB
102
{ACAD_REACTORS
330
4D2
102
}
330
4D2
100
AcDbScale
 70
     0
300
1/4" = 1'-0"
140
0.25
141
12.0
290
     0
  0
SCALE
  5
4EC
102
{ACAD_REACTORS
330
4D2
102
}
330
4D2
100
AcDbScale
 70
     0
300
3/8" = 1'-0"
140
0.375
141
12.0
290
     0
  0
SCALE
  5
4ED
102
{ACAD_REACTORS
330
4D2
102
}
330
4D2
100
AcDbScale
 70
     0
300
1/2" = 1'-0"
140
0.5
141
12.0
290
     0
  0
SCALE
  5
4EE
102
{ACAD_REACTORS
330
4D2
102
}
330
4D2
100
AcDbScale
 70
     0
300
3/4" = 1'-0"
140
0.75
141
12.0
290
     0
  0
SCALE
  5
4EF
102
{ACAD_REACTORS
330
4D2
102
}
330
4D2
100
AcDbScale
 70
     0
300
1" = 1'-0"
140
1.0
141
12.0
290
     0
  0
SCALE
  5
4F0
102
{ACAD_REACTORS
330
4D2
102
}
330
4D2
100
AcDbScale
 70
     0
300
1-1/2" = 1'-0"
140
1.5
141
12.0
290
     0
  0
SCALE
  5
4F1
102
{ACAD_REACTORS
330
4D2
102
}
330
4D2
100
AcDbScale
 70
     0
300
3" = 1'-0"
140
3.0
141
12.0
290
     0
  0
SCALE
  5
4F2
102
{ACAD_REACTORS
330
4D2
102
}
330
4D2
100
AcDbScale
 70
     0
300
6" = 1'-0"
140
6.0
141
12.0
290
     0
  0
SCALE
  5
4F3
102
{ACAD_REACTORS
330
4D2
102
}
330
4D2
100
AcDbScale
 70
     0
300
1'-0" = 1'-0"
140
12.0
141
12.0
290
     0
  0
VISUALSTYLE
  5
2F
102
{ACAD_REACTORS
330
2A
102
}
102
{ACAD_XDICTIONARY
360
507
102
}
330
2A
100
AcDbVisualStyle
  2
2dWireframe
 70
     4
 71
     0
 72
     2
 73
     0
 90
        0
 40
-0.6
 41
-30.0
 62
     5
 63
     7
 74
     1
 91
        4
 64
     7
 65
   257
 75
     1
175
     1
 42
1.0
 92
        0
 66
   257
 43
1.0
 76
     1
 77
     6
 78
     2
 67
     7
 79
     5
170
     0
171
     0
290
     0
174
     0
 93
        1
 44
0.0
173
     0
291
     0
 45
0.0
1001
ACAD
1000
AcDbSavedByObjectVersion
1070
     0
  0
VISUALSTYLE
  5
31
102
{ACAD_REACTORS
330
2A
102
}
102
{ACAD_XDICTIONARY
360
50B
102
}
330
2A
100
AcDbVisualStyle
  2
3D Hidden
 70
     6
 71
     1
 72
     2
 73
     2
 90
        0
 40
-0.6
 41
-30.0
 62
     5
 63
     7
 74
     2
 91
        2
 64
     7
 65
   257
 75
     2
175
     1
 42
40.0
 92
        0
 66
   257
 43
1.0
 76
     1
 77
     6
 78
     2
 67
     7
 79
     3
170
     0
171
     0
290
     0
174
     0
 93
        1
 44
0.0
173
     0
291
     0
 45
0.0
1001
ACAD
1000
AcDbSavedByObjectVersion
1070
     0
  0
VISUALSTYLE
  5
30
102
{ACAD_REACTORS
330
2A
102
}
102
{ACAD_XDICTIONARY
360
509
102
}
330
2A
100
AcDbVisualStyle
  2
3dWireframe
 70
     5
 71
     0
 72
     2
 73
     0
 90
        0
 40
-0.6
 41
-30.0
 62
     5
 63
     7
 74
     1
 91
        4
 64
     7
 65
   257
 75
     1
175
     1
 42
1.0
 92
        0
 66
   257
 43
1.0
 76
     1
 77
     6
 78
     2
 67
     7
 79
     5
170
     0
171
     0
290
     0
174
     0
 93
        1
 44
0.0
173
     0
291
     0
 45
0.0
1001
ACAD
1000
AcDbSavedByObjectVersion
1070
     0
  0
VISUALSTYLE
  5
32
102
{ACAD_REACTORS
330
2A
102
}
102
{ACAD_XDICTIONARY
360
50D
102
}
330
2A
100
AcDbVisualStyle
  2
Basic
 70
     7
 71
     1
 72
     0
 73
     1
 90
        0
 40
-0.6
 41
-30.0
 62
     5
 63
     7
 74
     0
 91
        4
 64
     7
 65
   257
 75
     1
175
     1
 42
1.0
 92
        8
 66
     7
 43
1.0
 76
     1
 77
     6
 78
     2
 67
     7
 79
     5
170
     0
171
     0
290
     0
174
     0
 93
        1
 44
0.0
173
     0
291
     1
 45
0.0
1001
ACAD
1000
AcDbSavedByObjectVersion
1070
     0
  0
VISUALSTYLE
  5
36
102
{ACAD_REACTORS
330
2A
102
}
102
{ACAD_XDICTIONARY
360
515
102
}
330
2A
100
AcDbVisualStyle
  2
Brighten
 70
    12
 71
     2
 72
     2
 73
     0
 90
        0
 40
-0.6
 41
-30.0
 62
     5
 63
     7
 74
     1
 91
        4
 64
     7
 65
   257
 75
     1
175
     1
 42
1.0
 92
        8
 66
     7
 43
1.0
 76
     1
 77
     6
 78
     2
 67
     7
 79
     5
170
     0
171
     0
290
     0
174
     0
 93
        1
 44
50.0
173
     0
291
     1
 45
0.0
1001
ACAD
1000
AcDbSavedByObjectVersion
1070
     0
  0
VISUALSTYLE
  5
3A
102
{ACAD_REACTORS
330
2A
102
}
102
{ACAD_XDICTIONARY
360
51D
102
}
330
2A
100
AcDbVisualStyle
  2
ColorChange
 70
    16
 71
     2
 72
     2
 73
     3
 90
        0
 40
-0.6
 41
-30.0
 62
     5
 63
     8
 74
     1
 91
        4
 64
     7
 65
   257
 75
     1
175
     1
 42
1.0
 92
        8
 66
     8
 43
1.0
 76
     1
 77
     6
 78
     2
 67
     7
 79
     5
170
     0
171
     0
290
     0
174
     0
 93
        1
 44
0.0
173
     0
291
     1
 45
0.0
1001
ACAD
1000
AcDbSavedByObjectVersion
1070
     0
  0
VISUALSTYLE
  5
34
102
{ACAD_REACTORS
330
2A
102
}
102
{ACAD_XDICTIONARY
360
511
102
}
330
2A
100
AcDbVisualStyle
  2
Conceptual
 70
     9
 71
     3
 72
     2
 73
     0
 90
        0
 40
-0.6
 41
-30.0
 62
     5
 63
     7
 74
     2
 91
        2
 64
     7
 65
   257
 75
     1
175
     1
 42
40.0
 92
        8
 66
     7
 43
1.0
 76
     1
 77
     6
 78
     2
 67
     7
 79
     3
170
     0
171
     0
290
     0
174
     0
 93
        1
 44
0.0
173
     0
291
     0
 45
0.0
1001
ACAD
1000
AcDbSavedByObjectVersion
1070
     0
  0
VISUALSTYLE
  5
35
102
{ACAD_REACTORS
330
2A
102
}
102
{ACAD_XDICTIONARY
360
513
102
}
330
2A
100
AcDbVisualStyle
  2
Dim
 70
    11
 71
     2
 72
     2
 73
     0
 90
        0
 40
-0.6
 41
-30.0
 62
     5
 63
     7
 74
     1
 91
        4
 64
     7
 65
   257
 75
     1
175
     1
 42
1.0
 92
        8
 66
     7
 43
1.0
 76
     1
 77
     6
 78
     2
 67
     7
 79
     5
170
     0
171
     0
290
     0
174
     0
 93
        1
 44
-50.0
173
     0
291
     1
 45
0.0
1001
ACAD
1000
AcDbSavedByObjectVersion
1070
     0
  0
VISUALSTYLE
  5
39
102
{ACAD_REACTORS
330
2A
102
}
102
{ACAD_XDICTIONARY
360
51B
102
}
330
2A
100
AcDbVisualStyle
  2
Facepattern
 70
    15
 71
     2
 72
     2
 73
     0
 90
        0
 40
-0.6
 41
-30.0
 62
     5
 63
     7
 74
     1
 91
        4
 64
     7
 65
   257
 75
     1
175
     1
 42
1.0
 92
        8
 66
     7
 43
1.0
 76
     1
 77
     6
 78
     2
 67
     7
 79
     5
170
     0
171
     0
290
     0
174
     0
 93
        1
 44
0.0
173
     0
291
     1
 45
0.0
1001
ACAD
1000
AcDbSavedByObjectVersion
1070
     0
  0
VISUALSTYLE
  5
2B
102
{ACAD_REACTORS
330
2A
102
}
102
{ACAD_XDICTIONARY
360
4FF
102
}
330
2A
100
AcDbVisualStyle
  2
Flat
 70
     0
 71
     2
 72
     1
 73
     1
 90
        2
 40
-0.6
 41
30.0
 62
     5
 63
     7
 74
     0
 91
        4
 64
     7
 65
   257
 75
     1
175
     1
 42
1.0
 92
        8
 66
     7
 43
1.0
 76
     1
 77
     6
 78
     2
 67
     7
 79
     5
170
     0
171
     0
290
     0
174
     0
 93
       13
 44
0.0
173
     0
291
     1
 45
0.0
1001
ACAD
1000
AcDbSavedByObjectVersion
1070
     0
  0
VISUALSTYLE
  5
2C
102
{ACAD_REACTORS
330
2A
102
}
102
{ACAD_XDICTIONARY
360
501
102
}
330
2A
100
AcDbVisualStyle
  2
FlatWithEdges
 70
     1
 71
     2
 72
     1
 73
     1
 90
        2
 40
-0.6
 41
30.0
 62
     5
 63
     7
 74
     1
 91
        4
 64
     7
 65
   257
 75
     1
175
     1
 42
1.0
 92
        0
 66
   257
 43
1.0
 76
     1
 77
     6
 78
     2
 67
     7
 79
     5
170
     0
171
     0
290
     0
174
     0
 93
       13
 44
0.0
173
     0
291
     1
 45
0.0
1001
ACAD
1000
AcDbSavedByObjectVersion
1070
     0
  0
VISUALSTYLE
  5
2D
102
{ACAD_REACTORS
330
2A
102
}
102
{ACAD_XDICTIONARY
360
503
102
}
330
2A
100
AcDbVisualStyle
  2
Gouraud
 70
     2
 71
     2
 72
     2
 73
     1
 90
        2
 40
-0.6
 41
30.0
 62
     5
 63
     7
 74
     0
 91
        4
 64
     7
 65
   257
 75
     1
175
     1
 42
1.0
 92
        0
 66
     7
 43
1.0
 76
     1
 77
     6
 78
     2
 67
     7
 79
     5
170
     0
171
     0
290
     0
174
     0
 93
       13
 44
0.0
173
     0
291
     1
 45
0.0
1001
ACAD
1000
AcDbSavedByObjectVersion
1070
     0
  0
VISUALSTYLE
  5
2E
102
{ACAD_REACTORS
330
2A
102
}
102
{ACAD_XDICTIONARY
360
505
102
}
330
2A
100
AcDbVisualStyle
  2
GouraudWithEdges
 70
     3
 71
     2
 72
     2
 73
     1
 90
        2
 40
-0.6
 41
30.0
 62
     5
 63
     7
 74
     1
 91
        4
 64
     7
 65
   257
 75
     1
175
     1
 42
1.0
 92
        0
 66
   257
 43
1.0
 76
     1
 77
     6
 78
     2
 67
     7
 79
     5
170
     0
171
     0
290
     0
174
     0
 93
       13
 44
0.0
173
     0
291
     1
 45
0.0
1001
ACAD
1000
AcDbSavedByObjectVersion
1070
     0
  0
VISUALSTYLE
  5
38
102
{ACAD_REACTORS
330
2A
102
}
102
{ACAD_XDICTIONARY
360
519
102
}
330
2A
100
AcDbVisualStyle
  2
Linepattern
 70
    14
 71
     2
 72
     2
 73
     0
 90
        0
 40
-0.6
 41
-30.0
 62
     5
 63
     7
 74
     1
 91
        4
 64
     7
 65
   257
 75
     7
175
     7
 42
1.0
 92
        8
 66
     7
 43
1.0
 76
     1
 77
     6
 78
     2
 67
     7
 79
     5
170
     0
171
     0
290
     0
174
     0
 93
        1
 44
0.0
173
     0
291
     1
 45
0.0
1001
ACAD
1000
AcDbSavedByObjectVersion
1070
     0
  0
VISUALSTYLE
  5
33
102
{ACAD_REACTORS
330
2A
102
}
102
{ACAD_XDICTIONARY
360
50F
102
}
330
2A
100
AcDbVisualStyle
  2
Realistic
 70
     8
 71
     2
 72
     2
 73
     0
 90
        0
 40
-0.6
 41
-30.0
 62
     5
 63
     7
 74
     1
 91
        0
 64
     7
 65
   257
 75
     1
175
     1
 42
1.0
 92
        8
 66
     8
 43
1.0
 76
     1
 77
     6
 78
     2
 67
     7
 79
     5
170
     0
171
     0
290
     0
174
     0
 93
       13
 44
0.0
173
     0
291
     0
 45
0.0
1001
ACAD
1000
AcDbSavedByObjectVersion
1070
     0
  0
VISUALSTYLE
  5
37
102
{ACAD_REACTORS
330
2A
102
}
102
{ACAD_XDICTIONARY
360
517
102
}
330
2A
100
AcDbVisualStyle
  2
Thicken
 70
    13
 71
     2
 72
     2
 73
     0
 90
        0
 40
-0.6
 41
-30.0
 62
     5
 63
     7
 74
     1
 91
        4
 64
     7
 65
   257
 75
     1
175
     1
 42
1.0
 92
       12
 66
     7
 43
1.0
 76
     1
 77
     6
 78
     2
 67
     7
 79
     5
170
     0
171
     0
290
     0
174
     0
 93
        1
 44
0.0
173
     0
291
     1
 45
0.0
1001
ACAD
1000
AcDbSavedByObjectVersion
1070
     0
  0
DICTIONARYVAR
  5
4FA
102
{ACAD_REACTORS
330
4F6
102
}
330
4F6
100
DictionaryVariables
280
     0
  1
1:1
  0
DICTIONARYVAR
  5
4FB
102
{ACAD_REACTORS
330
4F6
102
}
330
4F6
100
DictionaryVariables
280
     0
  1
2
  0
DICTIONARYVAR
  5
4FC
102
{ACAD_REACTORS
330
4F6
102
}
330
4F6
100
DictionaryVariables
280
     0
  1
1
  0
DICTIONARYVAR
  5
4F9
102
{ACAD_REACTORS
330
4F6
102
}
330
4F6
100
DictionaryVariables
280
     0
  1
0
  0
XRECORD
  5
4F5
102
{ACAD_REACTORS
330
4F4
102
}
330
4F4
100
AcDbXrecord
280
     1
1000
This DWG file was created in ArchiCAD(TM)®
  0
SPATIAL_FILTER
  5
4CE
102
{ACAD_REACTORS
330
4CD
102
}
330
4CD
100
AcDbFilter
100
AcDbSpatialFilter
 70
     4
 10
35.31939230675121
 20
28.70874748131841
 10
262.7738466327844
 20
28.70874748131841
 10
262.7738466327844
 20
192.5142927135917
 10
35.31939230675121
 20
192.5142927135917
210
0.0
220
0.0
230
1.0
 11
0.0
 21
0.0
 31
0.0
 71
     1
 72
     0
 73
     0
 40
1.0
 40
0.0
 40
0.0
 40
0.0
 40
0.0
 40
1.0
 40
0.0
 40
0.0
 40
0.0
 40
0.0
 40
1.0
 40
0.0
 40
1.0
 40
0.0
 40
0.0
 40
0.0
 40
0.0
 40
1.0
 40
0.0
 40
0.0
 40
0.0
 40
0.0
 40
1.0
 40
0.0
  0
DICTIONARY
  5
521
330
3D
100
AcDbDictionary
280
     1
281
     1
  3
ACAD_XREC_ROUNDTRIP
360
522
  0
DICTIONARY
  5
51F
330
3C
100
AcDbDictionary
280
     1
281
     1
  3
ACAD_XREC_ROUNDTRIP
360
520
  0
DICTIONARY
  5
523
330
3E
100
AcDbDictionary
280
     1
281
     1
  3
ACAD_XREC_ROUNDTRIP
360
524
  0
DICTIONARY
  5
507
330
2F
100
AcDbDictionary
280
     1
281
     1
  3
ACAD_XREC_ROUNDTRIP
360
508
  0
DICTIONARY
  5
50B
330
31
100
AcDbDictionary
280
     1
281
     1
  3
ACAD_XREC_ROUNDTRIP
360
50C
  0
DICTIONARY
  5
509
330
30
100
AcDbDictionary
280
     1
281
     1
  3
ACAD_XREC_ROUNDTRIP
360
50A
  0
DICTIONARY
  5
50D
330
32
100
AcDbDictionary
280
     1
281
     1
  3
ACAD_XREC_ROUNDTRIP
360
50E
  0
DICTIONARY
  5
515
330
36
100
AcDbDictionary
280
     1
281
     1
  3
ACAD_XREC_ROUNDTRIP
360
516
  0
DICTIONARY
  5
51D
330
3A
100
AcDbDictionary
280
     1
281
     1
  3
ACAD_XREC_ROUNDTRIP
360
51E
  0
DICTIONARY
  5
511
330
34
100
AcDbDictionary
280
     1
281
     1
  3
ACAD_XREC_ROUNDTRIP
360
512
  0
DICTIONARY
  5
513
330
35
100
AcDbDictionary
280
     1
281
     1
  3
ACAD_XREC_ROUNDTRIP
360
514
  0
DICTIONARY
  5
51B
330
39
100
AcDbDictionary
280
     1
281
     1
  3
ACAD_XREC_ROUNDTRIP
360
51C
  0
DICTIONARY
  5
4FF
330
2B
100
AcDbDictionary
280
     1
281
     1
  3
ACAD_XREC_ROUNDTRIP
360
500
  0
DICTIONARY
  5
501
330
2C
100
AcDbDictionary
280
     1
281
     1
  3
ACAD_XREC_ROUNDTRIP
360
502
  0
DICTIONARY
  5
503
330
2D
100
AcDbDictionary
280
     1
281
     1
  3
ACAD_XREC_ROUNDTRIP
360
504
  0
DICTIONARY
  5
505
330
2E
100
AcDbDictionary
280
     1
281
     1
  3
ACAD_XREC_ROUNDTRIP
360
506
  0
DICTIONARY
  5
519
330
38
100
AcDbDictionary
280
     1
281
     1
  3
ACAD_XREC_ROUNDTRIP
360
51A
  0
DICTIONARY
  5
50F
330
33
100
AcDbDictionary
280
     1
281
     1
  3
ACAD_XREC_ROUNDTRIP
360
510
  0
DICTIONARY
  5
517
330
37
100
AcDbDictionary
280
     1
281
     1
  3
ACAD_XREC_ROUNDTRIP
360
518
  0
XRECORD
  5
522
102
{ACAD_REACTORS
330
521
102
}
330
521
100
AcDbXrecord
280
     1
102
MATERIAL
148
0.0
149
0.0
149
0.0
 93
        0
 94
      127
282
     0
 72
     1
 77
     1
171
     1
175
     1
179
     1
273
     0
  0
XRECORD
  5
520
102
{ACAD_REACTORS
330
51F
102
}
330
51F
100
AcDbXrecord
280
     1
102
MATERIAL
148
0.0
149
0.0
149
0.0
 93
        0
 94
      127
282
     0
 72
     1
 77
     1
171
     1
175
     1
179
     1
273
     0
  0
XRECORD
  5
524
102
{ACAD_REACTORS
330
523
102
}
330
523
100
AcDbXrecord
280
     1
102
MATERIAL
148
0.0
149
0.0
149
0.0
 93
        0
 94
      127
282
     0
 72
     1
 77
     1
171
     1
175
     1
179
     1
273
     0
  0
XRECORD
  5
508
102
{ACAD_REACTORS
330
507
102
}
330
507
100
AcDbXrecord
280
     1
102
RTVSPropertyOp0
 70
     1
102
RTVSPropertyOp1
 70
     1
102
RTVSPropertyOp2
 70
     1
102
RTVSPropertyOp3
 70
     1
102
RTVSPropertyOp4
 70
     1
102
RTVSPropertyOp5
 70
     1
102
RTVSPropertyOp6
 70
     1
102
RTVSPropertyOp7
 70
     1
102
RTVSPropertyOp8
 70
     1
102
RTVSPropertyOp9
 70
     1
102
RTVSPropertyOp10
 70
     1
102
RTVSPropertyOp11
 70
     1
102
RTVSPropertyOp12
 70
     1
102
RTVSPropertyOp13
 70
     1
102
RTVSPropertyOp14
 70
     1
102
RTVSPropertyOp15
 70
     1
102
RTVSPropertyOp16
 70
     1
102
RTVSPropertyOp17
 70
     1
102
RTVSPropertyOp18
 70
     1
102
RTVSPropertyOp19
 70
     1
102
RTVSPropertyOp20
 70
     1
102
RTVSPropertyOp21
 70
     1
102
RTVSPropertyOp22
 70
     1
102
RTVSPropertyOp23
 70
     1
102
RTVSPropertyOp24
 70
     1
102
RTVSPropertyOp25
 70
     1
102
RTVSPropertyOp26
 70
     1
102
RTVSPropertyOp27
 70
     1
102
RTVSPropertyOp28
 70
     1
102
RTVSPropertyOp29
 70
     1
102
RTVSPropertyOp30
 70
     1
102
RTVSPropertyOp31
 70
     1
102
RTVSPropertyOp32
 70
     1
  0
XRECORD
  5
50C
102
{ACAD_REACTORS
330
50B
102
}
330
50B
100
AcDbXrecord
280
     1
102
RTVSPropertyOp0
 70
     1
102
RTVSPropertyOp1
 70
     1
102
RTVSPropertyOp2
 70
     1
102
RTVSPropertyOp3
 70
     1
102
RTVSPropertyOp4
 70
     1
102
RTVSPropertyOp5
 70
     1
102
RTVSPropertyOp6
 70
     1
102
RTVSPropertyOp7
 70
     1
102
RTVSPropertyOp8
 70
     1
102
RTVSPropertyOp9
 70
     1
102
RTVSPropertyOp10
 70
     1
102
RTVSPropertyOp11
 70
     1
102
RTVSPropertyOp12
 70
     1
102
RTVSPropertyOp13
 70
     1
102
RTVSPropertyOp14
 70
     1
102
RTVSPropertyOp15
 70
     1
102
RTVSPropertyOp16
 70
     1
102
RTVSPropertyOp17
 70
     1
102
RTVSPropertyOp18
 70
     1
102
RTVSPropertyOp19
 70
     1
102
RTVSPropertyOp20
 70
     1
102
RTVSPropertyOp21
 70
     1
102
RTVSPropertyOp22
 70
     1
102
RTVSPropertyOp23
 70
     1
102
RTVSPropertyOp24
 70
     1
102
RTVSPropertyOp25
 70
     1
102
RTVSPropertyOp26
 70
     1
102
RTVSPropertyOp27
 70
     1
102
RTVSPropertyOp28
 70
     1
102
RTVSPropertyOp29
 70
     1
102
RTVSPropertyOp30
 70
     1
102
RTVSPropertyOp31
 70
     1
102
RTVSPropertyOp32
 70
     1
  0
XRECORD
  5
50A
102
{ACAD_REACTORS
330
509
102
}
330
509
100
AcDbXrecord
280
     1
102
RTVSPropertyOp0
 70
     1
102
RTVSPropertyOp1
 70
     1
102
RTVSPropertyOp2
 70
     1
102
RTVSPropertyOp3
 70
     1
102
RTVSPropertyOp4
 70
     1
102
RTVSPropertyOp5
 70
     1
102
RTVSPropertyOp6
 70
     1
102
RTVSPropertyOp7
 70
     1
102
RTVSPropertyOp8
 70
     1
102
RTVSPropertyOp9
 70
     1
102
RTVSPropertyOp10
 70
     1
102
RTVSPropertyOp11
 70
     1
102
RTVSPropertyOp12
 70
     1
102
RTVSPropertyOp13
 70
     1
102
RTVSPropertyOp14
 70
     1
102
RTVSPropertyOp15
 70
     1
102
RTVSPropertyOp16
 70
     1
102
RTVSPropertyOp17
 70
     1
102
RTVSPropertyOp18
 70
     1
102
RTVSPropertyOp19
 70
     1
102
RTVSPropertyOp20
 70
     1
102
RTVSPropertyOp21
 70
     1
102
RTVSPropertyOp22
 70
     1
102
RTVSPropertyOp23
 70
     1
102
RTVSPropertyOp24
 70
     1
102
RTVSPropertyOp25
 70
     1
102
RTVSPropertyOp26
 70
     1
102
RTVSPropertyOp27
 70
     1
102
RTVSPropertyOp28
 70
     1
102
RTVSPropertyOp29
 70
     1
102
RTVSPropertyOp30
 70
     1
102
RTVSPropertyOp31
 70
     1
102
RTVSPropertyOp32
 70
     1
  0
XRECORD
  5
50E
102
{ACAD_REACTORS
330
50D
102
}
330
50D
100
AcDbXrecord
280
     1
102
RTVSPropertyOp0
 70
     1
102
RTVSPropertyOp1
 70
     1
102
RTVSPropertyOp2
 70
     1
102
RTVSPropertyOp3
 70
     1
102
RTVSPropertyOp4
 70
     1
102
RTVSPropertyOp5
 70
     1
102
RTVSPropertyOp6
 70
     1
102
RTVSPropertyOp7
 70
     1
102
RTVSPropertyOp8
 70
     1
102
RTVSPropertyOp9
 70
     1
102
RTVSPropertyOp10
 70
     1
102
RTVSPropertyOp11
 70
     1
102
RTVSPropertyOp12
 70
     1
102
RTVSPropertyOp13
 70
     1
102
RTVSPropertyOp14
 70
     1
102
RTVSPropertyOp15
 70
     1
102
RTVSPropertyOp16
 70
     1
102
RTVSPropertyOp17
 70
     1
102
RTVSPropertyOp18
 70
     1
102
RTVSPropertyOp19
 70
     1
102
RTVSPropertyOp20
 70
     1
102
RTVSPropertyOp21
 70
     1
102
RTVSPropertyOp22
 70
     1
102
RTVSPropertyOp23
 70
     1
102
RTVSPropertyOp24
 70
     1
102
RTVSPropertyOp25
 70
     1
102
RTVSPropertyOp26
 70
     1
102
RTVSPropertyOp27
 70
     1
102
RTVSPropertyOp28
 70
     1
102
RTVSPropertyOp29
 70
     1
102
RTVSPropertyOp30
 70
     1
102
RTVSPropertyOp31
 70
     1
102
RTVSPropertyOp32
 70
     1
  0
XRECORD
  5
516
102
{ACAD_REACTORS
330
515
102
}
330
515
100
AcDbXrecord
280
     1
102
RTVSPropertyOp0
 70
     1
102
RTVSPropertyOp1
 70
     1
102
RTVSPropertyOp2
 70
     1
102
RTVSPropertyOp3
 70
     1
102
RTVSPropertyOp4
 70
     1
102
RTVSPropertyOp5
 70
     1
102
RTVSPropertyOp6
 70
     1
102
RTVSPropertyOp7
 70
     1
102
RTVSPropertyOp8
 70
     1
102
RTVSPropertyOp9
 70
     1
102
RTVSPropertyOp10
 70
     1
102
RTVSPropertyOp11
 70
     1
102
RTVSPropertyOp12
 70
     1
102
RTVSPropertyOp13
 70
     1
102
RTVSPropertyOp14
 70
     1
102
RTVSPropertyOp15
 70
     1
102
RTVSPropertyOp16
 70
     1
102
RTVSPropertyOp17
 70
     1
102
RTVSPropertyOp18
 70
     1
102
RTVSPropertyOp19
 70
     1
102
RTVSPropertyOp20
 70
     1
102
RTVSPropertyOp21
 70
     1
102
RTVSPropertyOp22
 70
     1
102
RTVSPropertyOp23
 70
     1
102
RTVSPropertyOp24
 70
     1
102
RTVSPropertyOp25
 70
     1
102
RTVSPropertyOp26
 70
     1
102
RTVSPropertyOp27
 70
     1
102
RTVSPropertyOp28
 70
     1
102
RTVSPropertyOp29
 70
     1
102
RTVSPropertyOp30
 70
     1
102
RTVSPropertyOp31
 70
     1
102
RTVSPropertyOp32
 70
     1
  0
XRECORD
  5
51E
102
{ACAD_REACTORS
330
51D
102
}
330
51D
100
AcDbXrecord
280
     1
102
RTVSPropertyOp0
 70
     1
102
RTVSPropertyOp1
 70
     1
102
RTVSPropertyOp2
 70
     1
102
RTVSPropertyOp3
 70
     1
102
RTVSPropertyOp4
 70
     1
102
RTVSPropertyOp5
 70
     1
102
RTVSPropertyOp6
 70
     1
102
RTVSPropertyOp7
 70
     1
102
RTVSPropertyOp8
 70
     1
102
RTVSPropertyOp9
 70
     1
102
RTVSPropertyOp10
 70
     1
102
RTVSPropertyOp11
 70
     1
102
RTVSPropertyOp12
 70
     1
102
RTVSPropertyOp13
 70
     1
102
RTVSPropertyOp14
 70
     1
102
RTVSPropertyOp15
 70
     1
102
RTVSPropertyOp16
 70
     1
102
RTVSPropertyOp17
 70
     1
102
RTVSPropertyOp18
 70
     1
102
RTVSPropertyOp19
 70
     1
102
RTVSPropertyOp20
 70
     1
102
RTVSPropertyOp21
 70
     1
102
RTVSPropertyOp22
 70
     1
102
RTVSPropertyOp23
 70
     1
102
RTVSPropertyOp24
 70
     1
102
RTVSPropertyOp25
 70
     1
102
RTVSPropertyOp26
 70
     1
102
RTVSPropertyOp27
 70
     1
102
RTVSPropertyOp28
 70
     1
102
RTVSPropertyOp29
 70
     1
102
RTVSPropertyOp30
 70
     1
102
RTVSPropertyOp31
 70
     1
102
RTVSPropertyOp32
 70
     1
  0
XRECORD
  5
512
102
{ACAD_REACTORS
330
511
102
}
330
511
100
AcDbXrecord
280
     1
102
RTVSPropertyOp0
 70
     1
102
RTVSPropertyOp1
 70
     1
102
RTVSPropertyOp2
 70
     1
102
RTVSPropertyOp3
 70
     1
102
RTVSPropertyOp4
 70
     1
102
RTVSPropertyOp5
 70
     1
102
RTVSPropertyOp6
 70
     1
102
RTVSPropertyOp7
 70
     1
102
RTVSPropertyOp8
 70
     1
102
RTVSPropertyOp9
 70
     1
102
RTVSPropertyOp10
 70
     1
102
RTVSPropertyOp11
 70
     1
102
RTVSPropertyOp12
 70
     1
102
RTVSPropertyOp13
 70
     1
102
RTVSPropertyOp14
 70
     1
102
RTVSPropertyOp15
 70
     1
102
RTVSPropertyOp16
 70
     1
102
RTVSPropertyOp17
 70
     1
102
RTVSPropertyOp18
 70
     1
102
RTVSPropertyOp19
 70
     1
102
RTVSPropertyOp20
 70
     1
102
RTVSPropertyOp21
 70
     1
102
RTVSPropertyOp22
 70
     1
102
RTVSPropertyOp23
 70
     1
102
RTVSPropertyOp24
 70
     1
102
RTVSPropertyOp25
 70
     1
102
RTVSPropertyOp26
 70
     1
102
RTVSPropertyOp27
 70
     1
102
RTVSPropertyOp28
 70
     1
102
RTVSPropertyOp29
 70
     1
102
RTVSPropertyOp30
 70
     1
102
RTVSPropertyOp31
 70
     1
102
RTVSPropertyOp32
 70
     1
  0
XRECORD
  5
514
102
{ACAD_REACTORS
330
513
102
}
330
513
100
AcDbXrecord
280
     1
102
RTVSPropertyOp0
 70
     1
102
RTVSPropertyOp1
 70
     1
102
RTVSPropertyOp2
 70
     1
102
RTVSPropertyOp3
 70
     1
102
RTVSPropertyOp4
 70
     1
102
RTVSPropertyOp5
 70
     1
102
RTVSPropertyOp6
 70
     1
102
RTVSPropertyOp7
 70
     1
102
RTVSPropertyOp8
 70
     1
102
RTVSPropertyOp9
 70
     1
102
RTVSPropertyOp10
 70
     1
102
RTVSPropertyOp11
 70
     1
102
RTVSPropertyOp12
 70
     1
102
RTVSPropertyOp13
 70
     1
102
RTVSPropertyOp14
 70
     1
102
RTVSPropertyOp15
 70
     1
102
RTVSPropertyOp16
 70
     1
102
RTVSPropertyOp17
 70
     1
102
RTVSPropertyOp18
 70
     1
102
RTVSPropertyOp19
 70
     1
102
RTVSPropertyOp20
 70
     1
102
RTVSPropertyOp21
 70
     1
102
RTVSPropertyOp22
 70
     1
102
RTVSPropertyOp23
 70
     1
102
RTVSPropertyOp24
 70
     1
102
RTVSPropertyOp25
 70
     1
102
RTVSPropertyOp26
 70
     1
102
RTVSPropertyOp27
 70
     1
102
RTVSPropertyOp28
 70
     1
102
RTVSPropertyOp29
 70
     1
102
RTVSPropertyOp30
 70
     1
102
RTVSPropertyOp31
 70
     1
102
RTVSPropertyOp32
 70
     1
  0
XRECORD
  5
51C
102
{ACAD_REACTORS
330
51B
102
}
330
51B
100
AcDbXrecord
280
     1
102
RTVSPropertyOp0
 70
     1
102
RTVSPropertyOp1
 70
     1
102
RTVSPropertyOp2
 70
     1
102
RTVSPropertyOp3
 70
     1
102
RTVSPropertyOp4
 70
     1
102
RTVSPropertyOp5
 70
     1
102
RTVSPropertyOp6
 70
     1
102
RTVSPropertyOp7
 70
     1
102
RTVSPropertyOp8
 70
     1
102
RTVSPropertyOp9
 70
     1
102
RTVSPropertyOp10
 70
     1
102
RTVSPropertyOp11
 70
     1
102
RTVSPropertyOp12
 70
     1
102
RTVSPropertyOp13
 70
     1
102
RTVSPropertyOp14
 70
     1
102
RTVSPropertyOp15
 70
     1
102
RTVSPropertyOp16
 70
     1
102
RTVSPropertyOp17
 70
     1
102
RTVSPropertyOp18
 70
     1
102
RTVSPropertyOp19
 70
     1
102
RTVSPropertyOp20
 70
     1
102
RTVSPropertyOp21
 70
     1
102
RTVSPropertyOp22
 70
     1
102
RTVSPropertyOp23
 70
     1
102
RTVSPropertyOp24
 70
     1
102
RTVSPropertyOp25
 70
     1
102
RTVSPropertyOp26
 70
     1
102
RTVSPropertyOp27
 70
     1
102
RTVSPropertyOp28
 70
     1
102
RTVSPropertyOp29
 70
     1
102
RTVSPropertyOp30
 70
     1
102
RTVSPropertyOp31
 70
     1
102
RTVSPropertyOp32
 70
     1
  0
XRECORD
  5
500
102
{ACAD_REACTORS
330
4FF
102
}
330
4FF
100
AcDbXrecord
280
     1
102
RTVSPropertyOp0
 70
     1
102
RTVSPropertyOp1
 70
     1
102
RTVSPropertyOp2
 70
     1
102
RTVSPropertyOp3
 70
     1
102
RTVSPropertyOp4
 70
     1
102
RTVSPropertyOp5
 70
     1
102
RTVSPropertyOp6
 70
     1
102
RTVSPropertyOp7
 70
     1
102
RTVSPropertyOp8
 70
     1
102
RTVSPropertyOp9
 70
     1
102
RTVSPropertyOp10
 70
     1
102
RTVSPropertyOp11
 70
     1
102
RTVSPropertyOp12
 70
     1
102
RTVSPropertyOp13
 70
     1
102
RTVSPropertyOp14
 70
     1
102
RTVSPropertyOp15
 70
     1
102
RTVSPropertyOp16
 70
     1
102
RTVSPropertyOp17
 70
     1
102
RTVSPropertyOp18
 70
     1
102
RTVSPropertyOp19
 70
     1
102
RTVSPropertyOp20
 70
     1
102
RTVSPropertyOp21
 70
     1
102
RTVSPropertyOp22
 70
     1
102
RTVSPropertyOp23
 70
     1
102
RTVSPropertyOp24
 70
     1
102
RTVSPropertyOp25
 70
     1
102
RTVSPropertyOp26
 70
     1
102
RTVSPropertyOp27
 70
     1
102
RTVSPropertyOp28
 70
     1
102
RTVSPropertyOp29
 70
     1
102
RTVSPropertyOp30
 70
     1
102
RTVSPropertyOp31
 70
     1
102
RTVSPropertyOp32
 70
     1
  0
XRECORD
  5
502
102
{ACAD_REACTORS
330
501
102
}
330
501
100
AcDbXrecord
280
     1
102
RTVSPropertyOp0
 70
     1
102
RTVSPropertyOp1
 70
     1
102
RTVSPropertyOp2
 70
     1
102
RTVSPropertyOp3
 70
     1
102
RTVSPropertyOp4
 70
     1
102
RTVSPropertyOp5
 70
     1
102
RTVSPropertyOp6
 70
     1
102
RTVSPropertyOp7
 70
     1
102
RTVSPropertyOp8
 70
     1
102
RTVSPropertyOp9
 70
     1
102
RTVSPropertyOp10
 70
     1
102
RTVSPropertyOp11
 70
     1
102
RTVSPropertyOp12
 70
     1
102
RTVSPropertyOp13
 70
     1
102
RTVSPropertyOp14
 70
     1
102
RTVSPropertyOp15
 70
     1
102
RTVSPropertyOp16
 70
     1
102
RTVSPropertyOp17
 70
     1
102
RTVSPropertyOp18
 70
     1
102
RTVSPropertyOp19
 70
     1
102
RTVSPropertyOp20
 70
     1
102
RTVSPropertyOp21
 70
     1
102
RTVSPropertyOp22
 70
     1
102
RTVSPropertyOp23
 70
     1
102
RTVSPropertyOp24
 70
     1
102
RTVSPropertyOp25
 70
     1
102
RTVSPropertyOp26
 70
     1
102
RTVSPropertyOp27
 70
     1
102
RTVSPropertyOp28
 70
     1
102
RTVSPropertyOp29
 70
     1
102
RTVSPropertyOp30
 70
     1
102
RTVSPropertyOp31
 70
     1
102
RTVSPropertyOp32
 70
     1
  0
XRECORD
  5
504
102
{ACAD_REACTORS
330
503
102
}
330
503
100
AcDbXrecord
280
     1
102
RTVSPropertyOp0
 70
     1
102
RTVSPropertyOp1
 70
     1
102
RTVSPropertyOp2
 70
     1
102
RTVSPropertyOp3
 70
     1
102
RTVSPropertyOp4
 70
     1
102
RTVSPropertyOp5
 70
     1
102
RTVSPropertyOp6
 70
     1
102
RTVSPropertyOp7
 70
     1
102
RTVSPropertyOp8
 70
     1
102
RTVSPropertyOp9
 70
     1
102
RTVSPropertyOp10
 70
     1
102
RTVSPropertyOp11
 70
     1
102
RTVSPropertyOp12
 70
     1
102
RTVSPropertyOp13
 70
     1
102
RTVSPropertyOp14
 70
     1
102
RTVSPropertyOp15
 70
     1
102
RTVSPropertyOp16
 70
     1
102
RTVSPropertyOp17
 70
     1
102
RTVSPropertyOp18
 70
     1
102
RTVSPropertyOp19
 70
     1
102
RTVSPropertyOp20
 70
     1
102
RTVSPropertyOp21
 70
     1
102
RTVSPropertyOp22
 70
     1
102
RTVSPropertyOp23
 70
     1
102
RTVSPropertyOp24
 70
     1
102
RTVSPropertyOp25
 70
     1
102
RTVSPropertyOp26
 70
     1
102
RTVSPropertyOp27
 70
     1
102
RTVSPropertyOp28
 70
     1
102
RTVSPropertyOp29
 70
     1
102
RTVSPropertyOp30
 70
     1
102
RTVSPropertyOp31
 70
     1
102
RTVSPropertyOp32
 70
     1
  0
XRECORD
  5
506
102
{ACAD_REACTORS
330
505
102
}
330
505
100
AcDbXrecord
280
     1
102
RTVSPropertyOp0
 70
     1
102
RTVSPropertyOp1
 70
     1
102
RTVSPropertyOp2
 70
     1
102
RTVSPropertyOp3
 70
     1
102
RTVSPropertyOp4
 70
     1
102
RTVSPropertyOp5
 70
     1
102
RTVSPropertyOp6
 70
     1
102
RTVSPropertyOp7
 70
     1
102
RTVSPropertyOp8
 70
     1
102
RTVSPropertyOp9
 70
     1
102
RTVSPropertyOp10
 70
     1
102
RTVSPropertyOp11
 70
     1
102
RTVSPropertyOp12
 70
     1
102
RTVSPropertyOp13
 70
     1
102
RTVSPropertyOp14
 70
     1
102
RTVSPropertyOp15
 70
     1
102
RTVSPropertyOp16
 70
     1
102
RTVSPropertyOp17
 70
     1
102
RTVSPropertyOp18
 70
     1
102
RTVSPropertyOp19
 70
     1
102
RTVSPropertyOp20
 70
     1
102
RTVSPropertyOp21
 70
     1
102
RTVSPropertyOp22
 70
     1
102
RTVSPropertyOp23
 70
     1
102
RTVSPropertyOp24
 70
     1
102
RTVSPropertyOp25
 70
     1
102
RTVSPropertyOp26
 70
     1
102
RTVSPropertyOp27
 70
     1
102
RTVSPropertyOp28
 70
     1
102
RTVSPropertyOp29
 70
     1
102
RTVSPropertyOp30
 70
     1
102
RTVSPropertyOp31
 70
     1
102
RTVSPropertyOp32
 70
     1
  0
XRECORD
  5
51A
102
{ACAD_REACTORS
330
519
102
}
330
519
100
AcDbXrecord
280
     1
102
RTVSPropertyOp0
 70
     1
102
RTVSPropertyOp1
 70
     1
102
RTVSPropertyOp2
 70
     1
102
RTVSPropertyOp3
 70
     1
102
RTVSPropertyOp4
 70
     1
102
RTVSPropertyOp5
 70
     1
102
RTVSPropertyOp6
 70
     1
102
RTVSPropertyOp7
 70
     1
102
RTVSPropertyOp8
 70
     1
102
RTVSPropertyOp9
 70
     1
102
RTVSPropertyOp10
 70
     1
102
RTVSPropertyOp11
 70
     1
102
RTVSPropertyOp12
 70
     1
102
RTVSPropertyOp13
 70
     1
102
RTVSPropertyOp14
 70
     1
102
RTVSPropertyOp15
 70
     1
102
RTVSPropertyOp16
 70
     1
102
RTVSPropertyOp17
 70
     1
102
RTVSPropertyOp18
 70
     1
102
RTVSPropertyOp19
 70
     1
102
RTVSPropertyOp20
 70
     1
102
RTVSPropertyOp21
 70
     1
102
RTVSPropertyOp22
 70
     1
102
RTVSPropertyOp23
 70
     1
102
RTVSPropertyOp24
 70
     1
102
RTVSPropertyOp25
 70
     1
102
RTVSPropertyOp26
 70
     1
102
RTVSPropertyOp27
 70
     1
102
RTVSPropertyOp28
 70
     1
102
RTVSPropertyOp29
 70
     1
102
RTVSPropertyOp30
 70
     1
102
RTVSPropertyOp31
 70
     1
102
RTVSPropertyOp32
 70
     1
  0
XRECORD
  5
510
102
{ACAD_REACTORS
330
50F
102
}
330
50F
100
AcDbXrecord
280
     1
102
RTVSPropertyOp0
 70
     1
102
RTVSPropertyOp1
 70
     1
102
RTVSPropertyOp2
 70
     1
102
RTVSPropertyOp3
 70
     1
102
RTVSPropertyOp4
 70
     1
102
RTVSPropertyOp5
 70
     1
102
RTVSPropertyOp6
 70
     1
102
RTVSPropertyOp7
 70
     1
102
RTVSPropertyOp8
 70
     1
102
RTVSPropertyOp9
 70
     1
102
RTVSPropertyOp10
 70
     1
102
RTVSPropertyOp11
 70
     1
102
RTVSPropertyOp12
 70
     1
102
RTVSPropertyOp13
 70
     1
102
RTVSPropertyOp14
 70
     1
102
RTVSPropertyOp15
 70
     1
102
RTVSPropertyOp16
 70
     1
102
RTVSPropertyOp17
 70
     1
102
RTVSPropertyOp18
 70
     1
102
RTVSPropertyOp19
 70
     1
102
RTVSPropertyOp20
 70
     1
102
RTVSPropertyOp21
 70
     1
102
RTVSPropertyOp22
 70
     1
102
RTVSPropertyOp23
 70
     1
102
RTVSPropertyOp24
 70
     1
102
RTVSPropertyOp25
 70
     1
102
RTVSPropertyOp26
 70
     1
102
RTVSPropertyOp27
 70
     1
102
RTVSPropertyOp28
 70
     1
102
RTVSPropertyOp29
 70
     1
102
RTVSPropertyOp30
 70
     1
102
RTVSPropertyOp31
 70
     1
102
RTVSPropertyOp32
 70
     1
  0
XRECORD
  5
518
102
{ACAD_REACTORS
330
517
102
}
330
517
100
AcDbXrecord
280
     1
102
RTVSPropertyOp0
 70
     1
102
RTVSPropertyOp1
 70
     1
102
RTVSPropertyOp2
 70
     1
102
RTVSPropertyOp3
 70
     1
102
RTVSPropertyOp4
 70
     1
102
RTVSPropertyOp5
 70
     1
102
RTVSPropertyOp6
 70
     1
102
RTVSPropertyOp7
 70
     1
102
RTVSPropertyOp8
 70
     1
102
RTVSPropertyOp9
 70
     1
102
RTVSPropertyOp10
 70
     1
102
RTVSPropertyOp11
 70
     1
102
RTVSPropertyOp12
 70
     1
102
RTVSPropertyOp13
 70
     1
102
RTVSPropertyOp14
 70
     1
102
RTVSPropertyOp15
 70
     1
102
RTVSPropertyOp16
 70
     1
102
RTVSPropertyOp17
 70
     1
102
RTVSPropertyOp18
 70
     1
102
RTVSPropertyOp19
 70
     1
102
RTVSPropertyOp20
 70
     1
102
RTVSPropertyOp21
 70
     1
102
RTVSPropertyOp22
 70
     1
102
RTVSPropertyOp23
 70
     1
102
RTVSPropertyOp24
 70
     1
102
RTVSPropertyOp25
 70
     1
102
RTVSPropertyOp26
 70
     1
102
RTVSPropertyOp27
 70
     1
102
RTVSPropertyOp28
 70
     1
102
RTVSPropertyOp29
 70
     1
102
RTVSPropertyOp30
 70
     1
102
RTVSPropertyOp31
 70
     1
102
RTVSPropertyOp32
 70
     1
  0
ENDSEC
  0
EOF
