  0
SECTION
  2
HEADER
  9
$ACADVER
  1
AC1009
  9
$INSBASE
 10
0.0
 20
0.0
 30
0.0
  9
$EXTMIN
 10
1464.948654620031
 20
2782.013166022773
 30
0.0
  9
$EXTMAX
 10
2089.7829307530001
 20
3587.3354379960929
 30
0.0
  9
$LIMMIN
 10
0.0
 20
0.0
  9
$LIMMAX
 10
12.0
 20
9.0
  9
$ORTHOMODE
 70
     0
  9
$REGENMODE
 70
     1
  9
$FILLMODE
 70
     1
  9
$QTEXTMODE
 70
     0
  9
$MIRRTEXT
 70
     0
  9
$DRAGMODE
 70
     2
  9
$LTSCALE
 40
1.0
  9
$OSMODE
 70
     0
  9
$ATTMODE
 70
     1
  9
$TEXTSIZE
 40
0.2
  9
$TRACEWID
 40
0.05
  9
$TEXTSTYLE
  7
STANDARD
  9
$CLAYER
  8
_HATCH
  9
$CELTYPE
  6
BYLAYER
  9
$CECOLOR
 62
   256
  9
$DIMSCALE
 40
1.0
  9
$DIMASZ
 40
0.18
  9
$DIMEXO
 40
0.0625
  9
$DIMDLI
 40
0.38
  9
$DIMRND
 40
0.0
  9
$DIMDLE
 40
0.0
  9
$DIMEXE
 40
0.18
  9
$DIMTP
 40
0.0
  9
$DIMTM
 40
0.0
  9
$DIMTXT
 40
0.18
  9
$DIMCEN
 40
0.09
  9
$DIMTSZ
 40
0.0
  9
$DIMTOL
 70
     0
  9
$DIMLIM
 70
     0
  9
$DIMTIH
 70
     1
  9
$DIMTOH
 70
     1
  9
$DIMSE1
 70
     0
  9
$DIMSE2
 70
     0
  9
$DIMTAD
 70
     0
  9
$DIMZIN
 70
     0
  9
$DIMBLK
  1

  9
$DIMASO
 70
     1
  9
$DIMSHO
 70
     1
  9
$DIMPOST
  1

  9
$DIMAPOST
  1

  9
$DIMALT
 70
     0
  9
$DIMALTD
 70
     2
  9
$DIMALTF
 40
25.399999999999999
  9
$DIMLFAC
 40
1.0
  9
$DIMTOFL
 70
     0
  9
$DIMTVP
 40
0.0
  9
$DIMTIX
 70
     0
  9
$DIMSOXD
 70
     0
  9
$DIMSAH
 70
     0
  9
$DIMBLK1
  1

  9
$DIMBLK2
  1

  9
$DIMSTYLE
  2
STANDARD
  9
$DIMCLRD
 70
     0
  9
$DIMCLRE
 70
     0
  9
$DIMCLRT
 70
     0
  9
$DIMTFAC
 40
1.0
  9
$DIMGAP
 40
0.09
  9
$LUNITS
 70
     2
  9
$LUPREC
 70
     4
  9
$SKETCHINC
 40
0.1
  9
$FILLETRAD
 40
0.0
  9
$AUNITS
 70
     0
  9
$AUPREC
 70
     0
  9
$MENU
  1
.
  9
$ELEVATION
 40
0.0
  9
$PELEVATION
 40
0.0
  9
$THICKNESS
 40
0.0
  9
$LIMCHECK
 70
     0
  9
$BLIPMODE
 70
     0
  9
$CHAMFERA
 40
0.0
  9
$CHAMFERB
 40
0.0
  9
$SKPOLY
 70
     0
  9
$TDCREATE
 40
2458243.0066782408
  9
$TDUPDATE
 40
2458243.0342039699
  9
$TDINDWG
 40
0.0001025463
  9
$TDUSRTIMER
 40
0.0001025463
  9
$USRTIMER
 70
     1
  9
$ANGBASE
 50
0.0
  9
$ANGDIR
 70
     0
  9
$PDMODE
 70
     0
  9
$PDSIZE
 40
0.0
  9
$PLINEWID
 40
0.0
  9
$COORDS
 70
     2
  9
$SPLFRAME
 70
     0
  9
$SPLINETYPE
 70
     6
  9
$SPLINESEGS
 70
     8
  9
$ATTDIA
 70
     1
  9
$ATTREQ
 70
     0
  9
$HANDLING
 70
     1
  9
$HANDSEED
  5
526
  9
$SURFTAB1
 70
     6
  9
$SURFTAB2
 70
     6
  9
$SURFTYPE
 70
     6
  9
$SURFU
 70
     6
  9
$SURFV
 70
     6
  9
$UCSNAME
  2

  9
$UCSORG
 10
0.0
 20
0.0
 30
0.0
  9
$UCSXDIR
 10
1.0
 20
0.0
 30
0.0
  9
$UCSYDIR
 10
0.0
 20
1.0
 30
0.0
  9
$PUCSNAME
  2

  9
$PUCSORG
 10
0.0
 20
0.0
 30
0.0
  9
$PUCSXDIR
 10
1.0
 20
0.0
 30
0.0
  9
$PUCSYDIR
 10
0.0
 20
1.0
 30
0.0
  9
$USERI1
 70
     0
  9
$USERI2
 70
     0
  9
$USERI3
 70
     0
  9
$USERI4
 70
     0
  9
$USERI5
 70
     0
  9
$USERR1
 40
0.0
  9
$USERR2
 40
0.0
  9
$USERR3
 40
0.0
  9
$USERR4
 40
0.0
  9
$USERR5
 40
0.0
  9
$WORLDVIEW
 70
     1
  9
$SHADEDGE
 70
     3
  9
$SHADEDIF
 70
    70
  9
$TILEMODE
 70
     1
  9
$MAXACTVP
 70
    64
  9
$PLIMCHECK
 70
     0
  9
$PEXTMIN
 10
25.699999999999989
 20
19.5
 30
0.0
  9
$PEXTMAX
 10
231.30000000000001
 20
175.5
 30
0.0
  9
$PLIMMIN
 10
-20.0
 20
-7.5
  9
$PLIMMAX
 10
277.0
 20
202.5
  9
$UNITMODE
 70
     0
  9
$VISRETAIN
 70
     1
  9
$PLINEGEN
 70
     0
  9
$PSLTSCALE
 70
     1
  0
ENDSEC
  0
SECTION
  2
TABLES
  0
TABLE
  2
VPORT
 70
     1
  0
VPORT
  2
*ACTIVE
 70
     0
 10
0.0
 20
0.0
 11
1.0
 21
1.0
 12
2592.8773518298872
 22
3182.1254161522252
 13
0.0
 23
0.0
 14
1.0
 24
1.0
 15
0.0
 25
0.0
 16
0.0
 26
0.0
 36
1.0
 17
0.0
 27
0.0
 37
0.0
 40
801.15674218705317
 41
2.815750371471025
 42
50.0
 43
0.0
 44
0.0
 50
0.0
 51
0.0
 71
     0
 72
  1000
 73
     1
 74
     3
 75
     0
 76
     0
 77
     0
 78
     0
  0
ENDTAB
  0
TABLE
  2
LTYPE
 70
     2
  0
LTYPE
  2
CONTINUOUS
 70
     0
  3
Solid line
 72
    65
 73
     0
 40
0.0
  0
LTYPE
  2
DASH
 70
     0
  3

 72
    65
 73
     2
 40
6.3499999999999996
 49
3.1749999999999998
 49
-3.1749999999999998
  0
ENDTAB
  0
TABLE
  2
LAYER
 70
    12
  0
LAYER
  2
0
 70
     0
 62
     7
  6
CONTINUOUS
  0
LAYER
  2
_LINES
 70
     0
 62
     3
  6
CONTINUOUS
  0
LAYER
  2
_ANNOTATE
 70
     0
 62
   241
  6
CONTINUOUS
  0
LAYER
  2
_HATCH
 70
     0
 62
   253
  6
CONTINUOUS
  0
ENDTAB
  0
TABLE
  2
STYLE
 70
     8
  0
STYLE
  2
STANDARD
 70
     0
 40
0.0
 41
1.0
 50
0.0
 71
     0
 42
0.2
  3
txt
  4

  0
STYLE
  2
ARIAL
 70
     0
 40
12.5
 41
1.0
 50
0.0
 71
     0
 42
0.2
  3
txt
  4

  0
STYLE
  2
ARIAL_1
 70
     0
 40
17.5
 41
1.0
 50
0.0
 71
     0
 42
0.2
  3
txt
  4

  0
ENDTAB
  0
TABLE
  2
VIEW
 70
     1
  0
ENDTAB
  0
TABLE
  2
UCS
 70
     0
  0
ENDTAB
  0
TABLE
  2
APPID
 70
     6
  0
APPID
  2
ACAD
 70
     0
  0
APPID
  2
ACADANNOTATIVE
 70
     0
  0
APPID
  2
REVIT
 70
     0
  0
APPID
  2
ACAD_PSEXT
 70
     0
  0
APPID
  2
ACAD_NAV_VCDISPLAY
 70
     0
  0
APPID
  2
ACAD_MLEADERVER
 70
     0
  0
ENDTAB
  0
TABLE
  2
DIMSTYLE
 70
     2
  0
DIMSTYLE
  2
STANDARD
 70
     0
  3

  4

  5

  6

  7

 40
1.0
 41
0.18
 42
0.0625
 43
0.38
 44
0.18
 45
0.0
 46
0.0
 47
0.0
 48
0.0
140
0.18
141
0.09
142
0.0
143
25.399999999999999
144
1.0
145
0.0
146
1.0
147
0.09
 71
     0
 72
     0
 73
     1
 74
     1
 75
     0
 76
     0
 77
     0
 78
     0
170
     0
171
     2
172
     0
173
     0
174
     0
175
     0
176
     0
177
     0
178
     0
  0
ENDTAB
  0
ENDSEC
  0
SECTION
  2
BLOCKS
  0
BLOCK
  8
0
  2
$MODEL_SPACE
 70
     0
 10
0.0
 20
0.0
 30
0.0
  3
$MODEL_SPACE
  1

  0
ENDBLK
  5
72
  8
0
  0
BLOCK
 67
     1
  8
0
  2
$PAPER_SPACE
 70
     0
 10
0.0
 20
0.0
 30
0.0
  3
$PAPER_SPACE
  1

  0
ENDBLK
  5
76
 67
     1
  8
0
  0
BLOCK
  8
0
  2
*U20
 70
     1
 10
0.0
 20
0.0
 30
0.0
  3
*U20
  1

  0
TEXT
  5
385
  8
_ANNOTATE
 10
1834.701075364186
 20
3281.9678727306109
 30
0.0
 40
12.5
  1
Internal lining
  7
ARIAL
  0
ENDBLK
  5
387
  8
0
  0
BLOCK
  8
0
  2
*U21
 70
     1
 10
0.0
 20
0.0
 30
0.0
  3
*U21
  1

  0
TEXT
  5
389
  8
_ANNOTATE
 10
1834.9312936452229
 20
2893.0193366783101
 30
0.0
 40
12.5
  1
Horizontal support cavity battens
  7
ARIAL
  0
TEXT
  5
38A
  8
_ANNOTATE
 10
1835.3832036042961
 20
2873.3989636022152
 30
0.0
 40
12.5
  1
@ 600mm crs max.
  7
ARIAL
  0
ENDBLK
  5
38C
  8
0
  0
BLOCK
  8
0
  2
*U22
 70
     1
 10
0.0
 20
0.0
 30
0.0
  3
*U22
  1

  0
TEXT
  5
38E
  8
_ANNOTATE
 10
1836.116491462413
 20
3349.6788050947289
 30
0.0
 40
12.5
  1
Wall framing
  7
ARIAL
  0
ENDBLK
  5
390
  8
0
  0
BLOCK
  8
0
  2
*U23
 70
     1
 10
0.0
 20
0.0
 30
0.0
  3
*U23
  1

  0
TEXT
  5
392
  8
_ANNOTATE
 10
1836.2203795933819
 20
3427.749780742246
 30
0.0
 40
12.5
  1
TRS Interlocking panel
  7
ARIAL
  0
ENDBLK
  5
394
  8
0
  0
BLOCK
  8
0
  2
*U24
 70
     1
 10
0.0
 20
0.0
 30
0.0
  3
*U24
  1

  0
TEXT
  5
396
  8
_ANNOTATE
 10
1835.4599430313081
 20
2839.6375641176378
 30
0.0
 40
12.5
  1
Custom folded Interlocking panel
  7
ARIAL
  0
ENDBLK
  5
398
  8
0
  0
BLOCK
  8
0
  2
*U25
 70
     1
 10
0.0
 20
0.0
 30
0.0
  3
*U25
  1

  0
TEXT
  5
39A
  8
_ANNOTATE
 10
1835.050666087242
 20
3224.0895204080962
 30
0.0
 40
12.5
  1
Building wrap
  7
ARIAL
  0
ENDBLK
  5
39C
  8
0
  0
BLOCK
  8
0
  2
*U26
 70
     1
 10
0.0
 20
0.0
 30
0.0
  3
*U26
  1

  0
TEXT
  5
39E
  8
_ANNOTATE
 10
1836.252917110435
 20
2805.3340848014609
 30
0.0
 40
12.5
  1
Vertical corner support timber
  7
ARIAL
  0
TEXT
  5
39F
  8
_ANNOTATE
 10
1835.6475282973381
 20
2785.713711725366
 30
0.0
 40
12.5
  1
cavity battens
  7
ARIAL
  0
ENDBLK
  5
3A1
  8
0
  0
BLOCK
  8
0
  2
*U27
 70
     1
 10
0.0
 20
0.0
 30
0.0
  3
*U27
  1

  0
TEXT
  5
3A3
  8
_ANNOTATE
 62
     7
 10
1601.4198956787211
 20
3565.2037872457522
 30
0.0
 40
17.5
  1
VERTICAL LAYOUT
  7
ARIAL_1
  0
ENDBLK
  5
3A5
  8
0
  0
BLOCK
  8
0
  2
*X28
 70
     1
 10
0.0
 20
0.0
 30
0.0
  3
*X28
  1

  0
LINE
  5
3B1
  8
0
 62
     0
 10
2016.0004451344209
 20
2971.3923672445512
 30
0.0
 11
2016.0004451344209
 21
2991.3923672445512
 31
0.0
  0
LINE
  5
3B2
  8
0
 62
     0
 10
2004.0004451344209
 20
2971.3923672445512
 30
0.0
 11
2004.0004451344209
 21
2991.3923672445512
 31
0.0
  0
LINE
  5
3B3
  8
0
 62
     0
 10
1992.0004451344209
 20
2971.3923672445512
 30
0.0
 11
1992.0004451344209
 21
2991.3923672445512
 31
0.0
  0
LINE
  5
3B4
  8
0
 62
     0
 10
1980.0004451344209
 20
2971.3923672445512
 30
0.0
 11
1980.0004451344209
 21
2991.3923672445512
 31
0.0
  0
LINE
  5
3B5
  8
0
 62
     0
 10
1968.0004451344209
 20
2971.3923672445512
 30
0.0
 11
1968.0004451344209
 21
2991.3923672445512
 31
0.0
  0
LINE
  5
3B6
  8
0
 62
     0
 10
1956.0004451344209
 20
2971.3923672445512
 30
0.0
 11
1956.0004451344209
 21
2991.3923672445512
 31
0.0
  0
LINE
  5
3B7
  8
0
 62
     0
 10
1944.0004451344209
 20
2971.3923672445512
 30
0.0
 11
1944.0004451344209
 21
2991.3923672445512
 31
0.0
  0
LINE
  5
3B8
  8
0
 62
     0
 10
1932.0004451344209
 20
2971.3923672445512
 30
0.0
 11
1932.0004451344209
 21
2991.3923672445512
 31
0.0
  0
LINE
  5
3B9
  8
0
 62
     0
 10
1920.0004451344209
 20
2971.3923672445512
 30
0.0
 11
1920.0004451344209
 21
2991.3923672445512
 31
0.0
  0
LINE
  5
3BA
  8
0
 62
     0
 10
1908.0004451344209
 20
2971.3923672445512
 30
0.0
 11
1908.0004451344209
 21
2991.3923672445512
 31
0.0
  0
LINE
  5
3BB
  8
0
 62
     0
 10
1896.0004451344209
 20
2971.3923672445512
 30
0.0
 11
1896.0004451344209
 21
2991.3923672445512
 31
0.0
  0
LINE
  5
3BC
  8
0
 62
     0
 10
1884.0004451344209
 20
2971.3923672445512
 30
0.0
 11
1884.0004451344209
 21
2991.3923672445512
 31
0.0
  0
LINE
  5
3BD
  8
0
 62
     0
 10
1872.0004451344209
 20
2971.3923672445512
 30
0.0
 11
1872.0004451344209
 21
2991.3923672445512
 31
0.0
  0
LINE
  5
3BE
  8
0
 62
     0
 10
1860.0004451344209
 20
2971.3923672445512
 30
0.0
 11
1860.0004451344209
 21
2991.3923672445512
 31
0.0
  0
LINE
  5
3BF
  8
0
 62
     0
 10
1848.0004451344209
 20
2971.3923672445512
 30
0.0
 11
1848.0004451344209
 21
2991.3923672445512
 31
0.0
  0
LINE
  5
3C0
  8
0
 62
     0
 10
1836.0004451344209
 20
2971.3923672445512
 30
0.0
 11
1836.0004451344209
 21
2991.3923672445512
 31
0.0
  0
LINE
  5
3C1
  8
0
 62
     0
 10
1776.0004451344209
 20
2971.3923672445512
 30
0.0
 11
1776.0004451344209
 21
2991.3923672445512
 31
0.0
  0
LINE
  5
3C2
  8
0
 62
     0
 10
1764.0004451344209
 20
2971.3923672445512
 30
0.0
 11
1764.0004451344209
 21
2991.3923672445512
 31
0.0
  0
LINE
  5
3C3
  8
0
 62
     0
 10
1752.0004451344209
 20
2971.3923672445512
 30
0.0
 11
1752.0004451344209
 21
2991.3923672445512
 31
0.0
  0
LINE
  5
3C4
  8
0
 62
     0
 10
1740.0004451344209
 20
2971.3923672445512
 30
0.0
 11
1740.0004451344209
 21
2991.3923672445512
 31
0.0
  0
LINE
  5
3C5
  8
0
 62
     0
 10
1728.0004451344209
 20
2971.3923672445512
 30
0.0
 11
1728.0004451344209
 21
2991.3923672445512
 31
0.0
  0
LINE
  5
3C6
  8
0
 62
     0
 10
1716.0004451344209
 20
2971.3923672445512
 30
0.0
 11
1716.0004451344209
 21
2991.3923672445512
 31
0.0
  0
LINE
  5
3C7
  8
0
 62
     0
 10
1704.0004451344209
 20
2971.3923672445512
 30
0.0
 11
1704.0004451344209
 21
2991.3923672445512
 31
0.0
  0
LINE
  5
3C8
  8
0
 62
     0
 10
1692.0004451344209
 20
2971.3923672445512
 30
0.0
 11
1692.0004451344209
 21
2991.3923672445512
 31
0.0
  0
LINE
  5
3C9
  8
0
 62
     0
 10
1680.0004451344209
 20
2971.3923672445512
 30
0.0
 11
1680.0004451344209
 21
2991.3923672445512
 31
0.0
  0
LINE
  5
3CA
  8
0
 62
     0
 10
1668.0004451344209
 20
2971.3923672445512
 30
0.0
 11
1668.0004451344209
 21
2991.3923672445512
 31
0.0
  0
LINE
  5
3CB
  8
0
 62
     0
 10
1656.0004451344209
 20
2971.3923672445512
 30
0.0
 11
1656.0004451344209
 21
2991.3923672445512
 31
0.0
  0
LINE
  5
3CC
  8
0
 62
     0
 10
1644.0004451344209
 20
2971.3923672445512
 30
0.0
 11
1644.0004451344209
 21
2991.3923672445512
 31
0.0
  0
LINE
  5
3CD
  8
0
 62
     0
 10
1632.0004451344209
 20
2971.3923672445512
 30
0.0
 11
1632.0004451344209
 21
2991.3923672445512
 31
0.0
  0
LINE
  5
3CE
  8
0
 62
     0
 10
1620.0004451344209
 20
2971.3923672445512
 30
0.0
 11
1620.0004451344209
 21
2991.3923672445512
 31
0.0
  0
LINE
  5
3CF
  8
0
 62
     0
 10
1608.0004451344209
 20
2971.3923672445512
 30
0.0
 11
1608.0004451344209
 21
2991.3923672445512
 31
0.0
  0
LINE
  5
3D0
  8
0
 62
     0
 10
1596.0004451344209
 20
2971.3923672445512
 30
0.0
 11
1596.0004451344209
 21
2991.3923672445512
 31
0.0
  0
LINE
  5
3D1
  8
0
 62
     0
 10
1584.0004451344209
 20
2971.3923672445512
 30
0.0
 11
1584.0004451344209
 21
2991.3923672445512
 31
0.0
  0
LINE
  5
3D2
  8
0
 62
     0
 10
1830.9486546200319
 20
2976.0003672445459
 30
0.0
 11
2024.8630922281311
 21
2976.0003672445459
 31
0.0
  0
LINE
  5
3D3
  8
0
 62
     0
 10
1580.9486546200319
 20
2976.0003672445459
 30
0.0
 11
1785.9486546200319
 21
2976.0003672445459
 31
0.0
  0
LINE
  5
3D4
  8
0
 62
     0
 10
1830.9486546200319
 20
2988.0003672445459
 30
0.0
 11
2024.8630922281311
 21
2988.0003672445459
 31
0.0
  0
LINE
  5
3D5
  8
0
 62
     0
 10
1580.9486546200319
 20
2988.0003672445459
 30
0.0
 11
1785.9486546200319
 21
2988.0003672445459
 31
0.0
  0
ENDBLK
  5
3D7
  8
0
  0
BLOCK
  8
0
  2
*X29
 70
     1
 10
0.0
 20
0.0
 30
0.0
  3
*X29
  1

  0
LINE
  5
3D9
  8
0
 62
     0
 10
1631.276400751349
 20
3094.8755673336341
 30
0.0
 11
1630.438400751349
 21
3093.4241087568921
 31
0.0
  0
LINE
  5
3DA
  8
0
 62
     0
 10
1658.3534460074741
 20
3090.974385436084
 30
0.0
 11
1657.5154460074741
 21
3089.5229268593412
 31
0.0
  0
LINE
  5
3DB
  8
0
 62
     0
 10
1663.213570070624
 20
3099.392367244548
 30
0.0
 11
1662.595446007474
 21
3098.3217449617919
 31
0.0
  0
LINE
  5
3DC
  8
0
 62
     0
 10
1690.5104912635991
 20
3095.8720216409838
 30
0.0
 11
1689.6724912635991
 21
3094.4205630642418
 31
0.0
  0
LINE
  5
3DD
  8
0
 62
     0
 10
1717.5875365197239
 20
3091.9708397434342
 30
0.0
 11
1716.749536519724
 21
3090.5193811666909
 31
0.0
  0
LINE
  5
3DE
  8
0
 62
     0
 10
1745.3358723601571
 20
3099.392367244549
 30
0.0
 11
1744.5071727246229
 21
3097.9570173715911
 31
0.0
  0
LINE
  5
3DF
  8
0
 62
     0
 10
1772.422217980748
 20
3095.5072940507839
 30
0.0
 11
1771.584217980748
 21
3094.055835474041
 31
0.0
  0
LINE
  5
3E0
  8
0
 62
     0
 10
1799.499263236873
 20
3091.606112153233
 30
0.0
 11
1798.6612632368731
 21
3090.154653576491
 31
0.0
  0
LINE
  5
3E1
  8
0
 62
     0
 10
1803.9946597098231
 20
3099.392367244549
 30
0.0
 11
1803.741263236873
 21
3098.9534716789408
 31
0.0
  0
LINE
  5
3E2
  8
0
 62
     0
 10
1831.6563084929981
 20
3096.5037483581332
 30
0.0
 11
1830.8183084929981
 21
3095.0522897813912
 31
0.0
  0
LINE
  5
3E3
  8
0
 62
     0
 10
1858.733353749122
 20
3092.6025664605831
 30
0.0
 11
1857.895353749122
 21
3091.1511078838398
 31
0.0
  0
LINE
  5
3E4
  8
0
 62
     0
 10
1886.116961999355
 20
3099.392367244549
 30
0.0
 11
1885.6529899540219
 21
3098.58874408874
 31
0.0
  0
LINE
  5
3E5
  8
0
 62
     0
 10
1913.5680352101469
 20
3096.1390207679342
 30
0.0
 11
1912.730035210147
 21
3094.68756219119
 31
0.0
  0
LINE
  5
3E6
  8
0
 62
     0
 10
1940.6450804662711
 20
3092.2378388703819
 30
0.0
 11
1939.8070804662709
 21
3090.786380293639
 31
0.0
  0
LINE
  5
3E7
  8
0
 62
     0
 10
1972.8021257223961
 20
3097.1354750752821
 30
0.0
 11
1971.9641257223959
 21
3095.6840164985392
 31
0.0
  0
LINE
  5
3E8
  8
0
 62
     0
 10
1999.879170978521
 20
3093.234293177733
 30
0.0
 11
1999.041170978521
 21
3091.7828346009901
 31
0.0
  0
LINE
  5
3E9
  8
0
 62
     0
 10
1638.2158098025741
 20
3096.7349763848601
 30
0.0
 11
1637.3778098025739
 21
3095.2835178081168
 31
0.0
  0
LINE
  5
3EA
  8
0
 62
     0
 10
1665.2928550586989
 20
3092.8337944873092
 30
0.0
 11
1664.4548550586981
 21
3091.3823359105659
 31
0.0
  0
LINE
  5
3EB
  8
0
 62
     0
 10
1674.772264109924
 20
3099.092612589759
 30
0.0
 11
1673.934264109924
 21
3097.6411540130171
 31
0.0
  0
LINE
  5
3EC
  8
0
 62
     0
 10
1701.8493093660491
 20
3095.191430692209
 30
0.0
 11
1701.0113093660491
 21
3093.739972115467
 31
0.0
  0
LINE
  5
3ED
  8
0
 62
     0
 10
1728.926354622173
 20
3091.2902487946581
 30
0.0
 11
1728.088354622173
 21
3089.8387902179161
 31
0.0
  0
LINE
  5
3EE
  8
0
 62
     0
 10
1779.3616270319719
 20
3097.3667031020082
 30
0.0
 11
1778.5236270319731
 21
3095.9152445252662
 31
0.0
  0
LINE
  5
3EF
  8
0
 62
     0
 10
1806.4386722880979
 20
3093.465521204459
 30
0.0
 11
1805.6006722880979
 21
3092.0140626277162
 31
0.0
  0
LINE
  5
3F0
  8
0
 62
     0
 10
1815.726417179756
 20
3099.392367244549
 30
0.0
 11
1815.080081339323
 21
3098.272880730166
 31
0.0
  0
LINE
  5
3F1
  8
0
 62
     0
 10
1833.515717544223
 20
3089.564339306909
 30
0.0
 11
1833.4164294277259
 21
3089.392367244548
 31
0.0
  0
LINE
  5
3F2
  8
0
 62
     0
 10
1842.9951265954469
 20
3095.8231574093579
 30
0.0
 11
1842.1571265954469
 21
3094.371698832615
 31
0.0
  0
LINE
  5
3F3
  8
0
 62
     0
 10
1870.072171851572
 20
3091.9219755118079
 30
0.0
 11
1869.234171851572
 21
3090.470516935065
 31
0.0
  0
LINE
  5
3F4
  8
0
 62
     0
 10
1920.507444261372
 20
3097.998429819158
 30
0.0
 11
1919.6694442613721
 21
3096.5469712424151
 31
0.0
  0
LINE
  5
3F5
  8
0
 62
     0
 10
1947.584489517496
 20
3094.097247921607
 30
0.0
 11
1946.746489517496
 21
3092.6457893448642
 31
0.0
  0
LINE
  5
3F6
  8
0
 62
     0
 10
1956.507506818954
 20
3099.392367244549
 30
0.0
 11
1956.225898568721
 21
3098.904607447314
 31
0.0
  0
LINE
  5
3F7
  8
0
 62
     0
 10
1974.661534773621
 20
3090.196066024057
 30
0.0
 11
1974.1975190669241
 21
3089.392367244548
 31
0.0
  0
LINE
  5
3F8
  8
0
 62
     0
 10
1984.1409438248461
 20
3096.4548841265082
 30
0.0
 11
1983.3029438248459
 21
3095.003425549764
 31
0.0
  0
LINE
  5
3F9
  8
0
 62
     0
 10
2011.2179890809709
 20
3092.5537022289568
 30
0.0
 11
2010.379989080971
 21
3091.1022436522139
 31
0.0
  0
LINE
  5
3FA
  8
0
 62
     0
 10
1649.5546279050241
 20
3096.054385436084
 30
0.0
 11
1648.7166279050241
 21
3094.6029268593411
 31
0.0
  0
LINE
  5
3FB
  8
0
 62
     0
 10
1676.6316731611489
 20
3092.1532035385339
 30
0.0
 11
1675.7936731611489
 21
3090.7017449617911
 31
0.0
  0
LINE
  5
3FC
  8
0
 62
     0
 10
1738.405763673398
 20
3097.5490668971088
 30
0.0
 11
1737.5677636733981
 21
3096.097608320365
 31
0.0
  0
LINE
  5
3FD
  8
0
 62
     0
 10
1762.9335085650559
 20
3099.392367244548
 30
0.0
 11
1762.785399878298
 21
3099.135835474041
 31
0.0
  0
LINE
  5
3FE
  8
0
 62
     0
 10
1765.4828089295229
 20
3093.6478849995592
 30
0.0
 11
1764.6448089295229
 21
3092.1964264228159
 31
0.0
  0
LINE
  5
3FF
  8
0
 62
     0
 10
1790.700445134423
 20
3096.6861121532338
 30
0.0
 11
1789.8624451344231
 21
3095.2346535764909
 31
0.0
  0
LINE
  5
400
  8
0
 62
     0
 10
1792.559854185648
 20
3089.7467031020092
 30
0.0
 11
1792.355278282959
 21
3089.392367244548
 31
0.0
  0
LINE
  5
401
  8
0
 62
     0
 10
1817.7774903905481
 20
3092.7849302556838
 30
0.0
 11
1816.9394903905479
 21
3091.3334716789409
 31
0.0
  0
LINE
  5
402
  8
0
 62
     0
 10
1879.551580902797
 20
3098.1807936142582
 30
0.0
 11
1878.713580902797
 21
3096.7293350375148
 31
0.0
  0
LINE
  5
403
  8
0
 62
     0
 10
1906.6286261589221
 20
3094.2796117167081
 30
0.0
 11
1905.7906261589219
 21
3092.8281531399648
 31
0.0
  0
LINE
  5
404
  8
0
 62
     0
 10
1931.846262363822
 20
3097.3178388703818
 30
0.0
 11
1931.008262363822
 21
3095.8663802936398
 31
0.0
  0
LINE
  5
405
  8
0
 62
     0
 10
1933.705671415046
 20
3090.3784298191572
 30
0.0
 11
1933.136367922157
 21
3089.392367244548
 31
0.0
  0
LINE
  5
406
  8
0
 62
     0
 10
1958.9233076199459
 20
3093.4166569728318
 30
0.0
 11
1958.0853076199469
 21
3091.9651983960889
 31
0.0
  0
LINE
  5
407
  8
0
 62
     0
 10
1986.000352876071
 20
3089.5154750752831
 30
0.0
 11
1985.9292765368571
 21
3089.392367244548
 31
0.0
  0
LINE
  5
408
  8
0
 62
     0
 10
2020.6973981321969
 20
3098.812520331408
 30
0.0
 11
2019.8593981321969
 21
3097.3610617546651
 31
0.0
  0
LINE
  5
409
  8
0
 62
     0
 10
2022.7775103281899
 20
3095.865945097557
 30
0.0
 11
2021.93951032819
 21
3097.3174036742998
 31
0.0
  0
LINE
  5
40A
  8
0
 62
     0
 10
1991.30105602084
 20
3089.4247632000061
 30
0.0
 11
1990.4630560208409
 21
3090.8762217767489
 31
0.0
  0
LINE
  5
40B
  8
0
 62
     0
 10
1981.821646969616
 20
3095.683581302455
 30
0.0
 11
1980.9836469696161
 21
3097.1350398791978
 31
0.0
  0
LINE
  5
40C
  8
0
 62
     0
 10
1945.265192662265
 20
3098.0412175073579
 30
0.0
 11
1944.4851059977809
 21
3099.3923672445512
 31
0.0
  0
LINE
  5
40D
  8
0
 62
     0
 10
1950.2586086896781
 20
3089.392367244549
 30
0.0
 11
1949.507192662265
 21
3090.6938579816501
 31
0.0
  0
LINE
  5
40E
  8
0
 62
     0
 10
1913.788738354915
 20
3091.6000356098061
 30
0.0
 11
1912.950738354916
 21
3093.051494186549
 31
0.0
  0
LINE
  5
40F
  8
0
 62
     0
 10
1904.309329303692
 20
3097.8588537122541
 30
0.0
 11
1903.4713293036921
 21
3099.310312288997
 31
0.0
  0
LINE
  5
410
  8
0
 62
     0
 10
1872.8328749963409
 20
3091.417671814705
 30
0.0
 11
1871.994874996341
 21
3092.8691303914488
 31
0.0
  0
LINE
  5
411
  8
0
 62
     0
 10
1836.2764206889919
 20
3093.7753080196039
 30
0.0
 11
1835.438420688992
 21
3095.2267665963468
 31
0.0
  0
LINE
  5
412
  8
0
 62
     0
 10
1795.3205573304169
 20
3093.5929442245051
 30
0.0
 11
1794.482557330417
 21
3095.044402801248
 31
0.0
  0
LINE
  5
413
  8
0
 62
     0
 10
1758.7641030230679
 20
3095.950580429404
 30
0.0
 11
1757.926103023068
 21
3097.4020390061469
 31
0.0
  0
LINE
  5
414
  8
0
 62
     0
 10
1727.2876487157189
 20
3089.5093985318522
 30
0.0
 11
1726.4496487157189
 21
3090.9608571085951
 31
0.0
  0
LINE
  5
415
  8
0
 62
     0
 10
1717.808239664495
 20
3095.7682166343011
 30
0.0
 11
1716.970239664495
 21
3097.219675211044
 31
0.0
  0
LINE
  5
416
  8
0
 62
     0
 10
1681.2517853571419
 20
3098.1258528392068
 30
0.0
 11
1680.520562924283
 21
3099.3923672445512
 31
0.0
  0
LINE
  5
417
  8
0
 62
     0
 10
1686.2940656161809
 20
3089.3923672445499
 30
0.0
 11
1685.4937853571421
 21
3090.778493313499
 31
0.0
  0
LINE
  5
418
  8
0
 62
     0
 10
1649.7753310497919
 20
3091.684670941655
 30
0.0
 11
1648.937331049792
 21
3093.1361295183988
 31
0.0
  0
LINE
  5
419
  8
0
 62
     0
 10
1640.2959219985689
 20
3097.9434890441039
 30
0.0
 11
1639.4594117795179
 21
3099.392367244549
 31
0.0
  0
LINE
  5
41A
  8
0
 62
     0
 10
2020.6491535092771
 20
3089.392367244549
 30
0.0
 11
2020.080101276965
 21
3090.3779946230761
 31
0.0
  0
LINE
  5
41B
  8
0
 62
     0
 10
2007.039283174515
 20
3092.6453541487822
 30
0.0
 11
2006.2012831745151
 21
3094.0968127255251
 31
0.0
  0
LINE
  5
41C
  8
0
 62
     0
 10
1974.88223791839
 20
3097.542990353681
 30
0.0
 11
1974.044237918391
 21
3098.9944489304239
 31
0.0
  0
LINE
  5
41D
  8
0
 62
     0
 10
1943.4057836110401
 20
3091.1018084561319
 30
0.0
 11
1942.5677836110401
 21
3092.5532670328748
 31
0.0
  0
LINE
  5
41E
  8
0
 62
     0
 10
1929.526965508591
 20
3094.8206265585809
 30
0.0
 11
1928.6889655085911
 21
3096.2720851353238
 31
0.0
  0
LINE
  5
41F
  8
0
 62
     0
 10
1897.4657000749789
 20
3089.3923672445499
 30
0.0
 11
1897.212511201242
 21
3089.830903237772
 31
0.0
  0
LINE
  5
420
  8
0
 62
     0
 10
1865.893465945117
 20
3093.2770808659302
 30
0.0
 11
1865.055465945117
 21
3094.728539442674
 31
0.0
  0
LINE
  5
421
  8
0
 62
     0
 10
1852.014647842667
 20
3096.995898968381
 30
0.0
 11
1851.1766478426659
 21
3098.4473575451239
 31
0.0
  0
LINE
  5
422
  8
0
 62
     0
 10
1820.5381935353171
 20
3090.5547170708301
 30
0.0
 11
1819.7001935353171
 21
3092.0061756475729
 31
0.0
  0
LINE
  5
423
  8
0
 62
     0
 10
1788.3811482791909
 20
3095.4523532757321
 30
0.0
 11
1787.5431482791921
 21
3096.9038118524741
 31
0.0
  0
LINE
  5
424
  8
0
 62
     0
 10
1774.502330176743
 20
3099.1711713781792
 30
0.0
 11
1774.37462268375
 21
3099.3923672445499
 31
0.0
  0
LINE
  5
425
  8
0
 62
     0
 10
1756.6846104357801
 20
3089.3923672445499
 30
0.0
 11
1756.0666939718431
 21
3090.4626299549218
 31
0.0
  0
LINE
  5
426
  8
0
 62
     0
 10
1743.025875869394
 20
3092.7299894806288
 30
0.0
 11
1742.187875869394
 21
3094.1814480573712
 31
0.0
  0
LINE
  5
427
  8
0
 62
     0
 10
1710.8688306132681
 20
3097.627625685529
 30
0.0
 11
1710.0308306132681
 21
3099.0790842622719
 31
0.0
  0
LINE
  5
428
  8
0
 62
     0
 10
1679.3923763059181
 20
3091.1864437879799
 30
0.0
 11
1678.5543763059179
 21
3092.6379023647228
 31
0.0
  0
LINE
  5
429
  8
0
 62
     0
 10
1665.513558203467
 20
3094.9052618904302
 30
0.0
 11
1664.6755582034671
 21
3096.3567204671731
 31
0.0
  0
LINE
  5
42A
  8
0
 62
     0
 10
1633.501157001481
 20
3089.3923672445499
 30
0.0
 11
1633.199103896118
 21
3089.9155385696222
 31
0.0
  0
LINE
  5
42B
  8
0
 62
     0
 10
2000.0998741232911
 20
3094.5047632000051
 30
0.0
 11
1999.2618741232909
 21
3095.956221776748
 31
0.0
  0
LINE
  5
42C
  8
0
 62
     0
 10
1993.1604650720651
 20
3096.3641722512311
 30
0.0
 11
1992.3224650720649
 21
3097.815630827974
 31
0.0
  0
LINE
  5
42D
  8
0
 62
     0
 10
1967.856244894577
 20
3089.392367244549
 30
0.0
 11
1967.7854198159409
 21
3089.515039879198
 31
0.0
  0
LINE
  5
42E
  8
0
 62
     0
 10
1961.684010764716
 20
3089.9229903536798
 30
0.0
 11
1960.8460107647161
 21
3091.3744489304231
 31
0.0
  0
LINE
  5
42F
  8
0
 62
     0
 10
1922.587556457366
 20
3096.6800356098061
 30
0.0
 11
1921.749556457366
 21
3098.1314941865489
 31
0.0
  0
LINE
  5
430
  8
0
 62
     0
 10
1915.6481474061411
 20
3098.5394446610298
 30
0.0
 11
1915.1557123229491
 21
3099.392367244549
 31
0.0
  0
LINE
  5
431
  8
0
 62
     0
 10
1891.111102150016
 20
3090.2388537122551
 30
0.0
 11
1890.273102150016
 21
3091.690312288998
 31
0.0
  0
LINE
  5
432
  8
0
 62
     0
 10
1884.171693098793
 20
3092.098262763478
 30
0.0
 11
1883.333693098793
 21
3093.5497213402209
 31
0.0
  0
LINE
  5
433
  8
0
 62
     0
 10
1845.0752387914431
 20
3098.8553080196052
 30
0.0
 11
1844.7651675033489
 21
3099.3923672445499
 31
0.0
  0
LINE
  5
434
  8
0
 62
     0
 10
1813.5987844840911
 20
3092.414126122057
 30
0.0
 11
1812.760784484092
 21
3093.865584698799
 31
0.0
  0
LINE
  5
435
  8
0
 62
     0
 10
1806.659375432866
 20
3094.2735351732799
 30
0.0
 11
1805.821375432866
 21
3095.7249937500228
 31
0.0
  0
LINE
  5
436
  8
0
 62
     0
 10
1736.0864668181689
 20
3094.5893985318521
 30
0.0
 11
1735.2484668181689
 21
3096.040857108595
 31
0.0
  0
LINE
  5
437
  8
0
 62
     0
 10
1729.147057766944
 20
3096.4488075830768
 30
0.0
 11
1728.3090577669441
 21
3097.9002661598201
 31
0.0
  0
LINE
  5
438
  8
0
 62
     0
 10
1703.89170182108
 20
3089.3923672445499
 30
0.0
 11
1703.772012510819
 21
3089.5996752110459
 31
0.0
  0
LINE
  5
439
  8
0
 62
     0
 10
1697.670603459592
 20
3090.00762568553
 30
0.0
 11
1696.8326034595921
 21
3091.4590842622738
 31
0.0
  0
LINE
  5
43A
  8
0
 62
     0
 10
1658.5741491522431
 20
3096.7646709416549
 30
0.0
 11
1657.7361491522429
 21
3098.2161295183978
 31
0.0
  0
LINE
  5
43B
  8
0
 62
     0
 10
1651.634740101018
 20
3098.6240799928792
 30
0.0
 11
1651.19116924945
 21
3099.3923672445512
 31
0.0
  0
LINE
  5
43C
  8
0
 62
     0
 10
1955.8004451344209
 20
3093.7203672445489
 30
0.0
 11
1957.476445134422
 21
3093.7203672445489
 31
0.0
  0
LINE
  5
43D
  8
0
 62
     0
 10
1945.640445134422
 20
3093.7203672445489
 30
0.0
 11
1947.3164451344221
 21
3093.7203672445489
 31
0.0
  0
LINE
  5
43E
  8
0
 62
     0
 10
1844.040445134422
 20
3093.7203672445489
 30
0.0
 11
1845.716445134422
 21
3093.7203672445489
 31
0.0
  0
LINE
  5
43F
  8
0
 62
     0
 10
1833.880445134422
 20
3093.7203672445489
 30
0.0
 11
1835.5564451344219
 21
3093.7203672445489
 31
0.0
  0
LINE
  5
440
  8
0
 62
     0
 10
1732.2804451344221
 20
3093.7203672445489
 30
0.0
 11
1733.956445134422
 21
3093.7203672445489
 31
0.0
  0
LINE
  5
441
  8
0
 62
     0
 10
1722.120445134422
 20
3093.7203672445489
 30
0.0
 11
1723.7964451344219
 21
3093.7203672445489
 31
0.0
  0
LINE
  5
442
  8
0
 62
     0
 10
1976.1204451344211
 20
3098.8003672445479
 30
0.0
 11
1977.796445134421
 21
3098.8003672445479
 31
0.0
  0
LINE
  5
443
  8
0
 62
     0
 10
1965.960445134421
 20
3098.8003672445479
 30
0.0
 11
1967.6364451344209
 21
3098.8003672445479
 31
0.0
  0
LINE
  5
444
  8
0
 62
     0
 10
1864.360445134422
 20
3098.8003672445479
 30
0.0
 11
1866.036445134421
 21
3098.8003672445479
 31
0.0
  0
LINE
  5
445
  8
0
 62
     0
 10
1854.200445134421
 20
3098.8003672445479
 30
0.0
 11
1855.8764451344221
 21
3098.8003672445479
 31
0.0
  0
LINE
  5
446
  8
0
 62
     0
 10
1752.600445134422
 20
3098.8003672445479
 30
0.0
 11
1754.2764451344219
 21
3098.8003672445479
 31
0.0
  0
LINE
  5
447
  8
0
 62
     0
 10
1742.4404451344219
 20
3098.8003672445479
 30
0.0
 11
1744.1164451344209
 21
3098.8003672445479
 31
0.0
  0
LINE
  5
448
  8
0
 62
     0
 10
1640.840445134422
 20
3098.8003672445479
 30
0.0
 11
1642.5164451344219
 21
3098.8003672445479
 31
0.0
  0
LINE
  5
449
  8
0
 62
     0
 10
1630.6804451344219
 20
3098.8003672445479
 30
0.0
 11
1632.3564451344221
 21
3098.8003672445479
 31
0.0
  0
LINE
  5
44A
  8
0
 62
     0
 10
2011.6804451344219
 20
3093.7203672445489
 30
0.0
 11
2013.356445134423
 21
3093.7203672445489
 31
0.0
  0
LINE
  5
44B
  8
0
 62
     0
 10
1930.4004451344219
 20
3093.7203672445489
 30
0.0
 11
1932.0764451344221
 21
3093.7203672445489
 31
0.0
  0
LINE
  5
44C
  8
0
 62
     0
 10
1899.9204451344219
 20
3093.7203672445489
 30
0.0
 11
1901.5964451344221
 21
3093.7203672445489
 31
0.0
  0
LINE
  5
44D
  8
0
 62
     0
 10
1818.640445134422
 20
3093.7203672445489
 30
0.0
 11
1820.3164451344221
 21
3093.7203672445489
 31
0.0
  0
LINE
  5
44E
  8
0
 62
     0
 10
1788.1604451344219
 20
3093.7203672445489
 30
0.0
 11
1789.8364451344221
 21
3093.7203672445489
 31
0.0
  0
LINE
  5
44F
  8
0
 62
     0
 10
1706.880445134422
 20
3093.7203672445489
 30
0.0
 11
1708.5564451344219
 21
3093.7203672445489
 31
0.0
  0
LINE
  5
450
  8
0
 62
     0
 10
1676.4004451344219
 20
3093.7203672445489
 30
0.0
 11
1678.0764451344221
 21
3093.7203672445489
 31
0.0
  0
LINE
  5
451
  8
0
 62
     0
 10
1950.7204451344221
 20
3098.8003672445479
 30
0.0
 11
1952.396445134422
 21
3098.8003672445479
 31
0.0
  0
LINE
  5
452
  8
0
 62
     0
 10
1920.2404451344221
 20
3098.8003672445479
 30
0.0
 11
1921.916445134422
 21
3098.8003672445479
 31
0.0
  0
LINE
  5
453
  8
0
 62
     0
 10
1838.9604451344219
 20
3098.8003672445479
 30
0.0
 11
1840.636445134422
 21
3098.8003672445479
 31
0.0
  0
LINE
  5
454
  8
0
 62
     0
 10
1808.4804451344221
 20
3098.8003672445479
 30
0.0
 11
1810.156445134422
 21
3098.8003672445479
 31
0.0
  0
LINE
  5
455
  8
0
 62
     0
 10
1727.2004451344219
 20
3098.8003672445479
 30
0.0
 11
1728.8764451344221
 21
3098.8003672445479
 31
0.0
  0
LINE
  5
456
  8
0
 62
     0
 10
1696.7204451344221
 20
3098.8003672445479
 30
0.0
 11
1698.396445134422
 21
3098.8003672445479
 31
0.0
  0
LINE
  5
457
  8
0
 62
     0
 10
1996.4404451344219
 20
3093.7203672445489
 30
0.0
 11
1998.1164451344221
 21
3093.7203672445489
 31
0.0
  0
LINE
  5
458
  8
0
 62
     0
 10
1981.2004451344219
 20
3093.7203672445489
 30
0.0
 11
1982.8764451344221
 21
3093.7203672445489
 31
0.0
  0
LINE
  5
459
  8
0
 62
     0
 10
1884.6804451344219
 20
3093.7203672445489
 30
0.0
 11
1886.3564451344221
 21
3093.7203672445489
 31
0.0
  0
LINE
  5
45A
  8
0
 62
     0
 10
1869.4404451344219
 20
3093.7203672445489
 30
0.0
 11
1871.1164451344221
 21
3093.7203672445489
 31
0.0
  0
LINE
  5
45B
  8
0
 62
     0
 10
1772.9204451344219
 20
3093.7203672445489
 30
0.0
 11
1774.5964451344221
 21
3093.7203672445489
 31
0.0
  0
LINE
  5
45C
  8
0
 62
     0
 10
1757.6804451344219
 20
3093.7203672445489
 30
0.0
 11
1759.3564451344221
 21
3093.7203672445489
 31
0.0
  0
LINE
  5
45D
  8
0
 62
     0
 10
1661.1604451344219
 20
3093.7203672445489
 30
0.0
 11
1662.8364451344221
 21
3093.7203672445489
 31
0.0
  0
LINE
  5
45E
  8
0
 62
     0
 10
1645.9204451344219
 20
3093.7203672445489
 30
0.0
 11
1647.5964451344221
 21
3093.7203672445489
 31
0.0
  0
LINE
  5
45F
  8
0
 62
     0
 10
2016.7604451344221
 20
3098.8003672445479
 30
0.0
 11
2018.436445134422
 21
3098.8003672445479
 31
0.0
  0
LINE
  5
460
  8
0
 62
     0
 10
2001.5204451344221
 20
3098.8003672445479
 30
0.0
 11
2003.196445134422
 21
3098.8003672445479
 31
0.0
  0
LINE
  5
461
  8
0
 62
     0
 10
1905.0004451344221
 20
3098.8003672445479
 30
0.0
 11
1906.676445134422
 21
3098.8003672445479
 31
0.0
  0
LINE
  5
462
  8
0
 62
     0
 10
1889.7604451344221
 20
3098.8003672445479
 30
0.0
 11
1891.436445134422
 21
3098.8003672445479
 31
0.0
  0
LINE
  5
463
  8
0
 62
     0
 10
1793.2404451344221
 20
3098.8003672445479
 30
0.0
 11
1794.916445134422
 21
3098.8003672445479
 31
0.0
  0
LINE
  5
464
  8
0
 62
     0
 10
1778.0004451344221
 20
3098.8003672445479
 30
0.0
 11
1779.676445134422
 21
3098.8003672445479
 31
0.0
  0
LINE
  5
465
  8
0
 62
     0
 10
1681.4804451344221
 20
3098.8003672445479
 30
0.0
 11
1683.156445134422
 21
3098.8003672445479
 31
0.0
  0
LINE
  5
466
  8
0
 62
     0
 10
1666.2404451344221
 20
3098.8003672445479
 30
0.0
 11
1667.916445134422
 21
3098.8003672445479
 31
0.0
  0
ENDBLK
  5
468
  8
0
  0
BLOCK
  8
0
  2
*X30
 70
     1
 10
0.0
 20
0.0
 30
0.0
  3
*X30
  1

  0
LINE
  5
46A
  8
0
 62
     0
 10
1638.1404744501399
 20
3513.1654004176171
 30
0.0
 11
1637.3412481879609
 21
3511.7810999247799
 31
0.0
  0
LINE
  5
46B
  8
0
 62
     0
 10
1632.418657239185
 20
3493.094922296621
 30
0.0
 11
1631.5806572391859
 21
3491.6434637198781
 31
0.0
  0
LINE
  5
46C
  8
0
 62
     0
 10
1637.4986572391849
 20
3501.8937403990708
 30
0.0
 11
1636.660657239185
 21
3500.4422818223288
 31
0.0
  0
LINE
  5
46D
  8
0
 62
     0
 10
1631.7380662904111
 20
3481.7561041941722
 30
0.0
 11
1630.9000662904109
 21
3480.3046456174302
 31
0.0
  0
LINE
  5
46E
  8
0
 62
     0
 10
1636.45333870021
 20
3408.6431955794728
 30
0.0
 11
1635.61533870021
 21
3407.19173700273
 31
0.0
  0
LINE
  5
46F
  8
0
 62
     0
 10
1630.692747751435
 20
3388.5055593745728
 30
0.0
 11
1629.9486546200339
 21
3387.216752265424
 31
0.0
  0
LINE
  5
470
  8
0
 62
     0
 10
1635.772747751435
 20
3397.3043774770231
 30
0.0
 11
1634.934747751435
 21
3395.8529189002802
 31
0.0
  0
LINE
  5
471
  8
0
 62
     0
 10
1630.0121568026591
 20
3377.166741272124
 30
0.0
 11
1629.9486546200339
 21
3377.0567522654242
 31
0.0
  0
LINE
  5
472
  8
0
 62
     0
 10
1639.9486546200339
 20
3323.2572603411131
 30
0.0
 11
1639.6500201612339
 21
3322.74001028558
 31
0.0
  0
LINE
  5
473
  8
0
 62
     0
 10
1634.7274292124589
 20
3304.0538326574242
 30
0.0
 11
1633.8894292124589
 21
3302.6023740806809
 31
0.0
  0
LINE
  5
474
  8
0
 62
     0
 10
1639.8074292124591
 20
3312.852650759874
 30
0.0
 11
1638.9694292124591
 21
3311.4011921831311
 31
0.0
  0
LINE
  5
475
  8
0
 62
     0
 10
1634.0468382636841
 20
3292.715014554974
 30
0.0
 11
1633.2088382636839
 21
3291.2635559782311
 31
0.0
  0
LINE
  5
476
  8
0
 62
     0
 10
1638.762110673483
 20
3219.6021059402751
 30
0.0
 11
1637.924110673483
 21
3218.1506473635318
 31
0.0
  0
LINE
  5
477
  8
0
 62
     0
 10
1633.001519724708
 20
3199.4644697353742
 30
0.0
 11
1632.1635197247081
 21
3198.0130111586309
 31
0.0
  0
LINE
  5
478
  8
0
 62
     0
 10
1638.081519724708
 20
3208.2632878378249
 30
0.0
 11
1637.243519724708
 21
3206.811829261082
 31
0.0
  0
LINE
  5
479
  8
0
 62
     0
 10
1632.320928775933
 20
3188.1256516329249
 30
0.0
 11
1631.4829287759319
 21
3186.674193056183
 31
0.0
  0
LINE
  5
47A
  8
0
 62
     0
 10
1637.0362011857319
 20
3115.0127430182251
 30
0.0
 11
1636.1982011857319
 21
3113.5612844414832
 31
0.0
  0
LINE
  5
47B
  8
0
 62
     0
 10
1636.3556102369571
 20
3103.6739249157758
 30
0.0
 11
1635.5176102369569
 21
3102.2224663390321
 31
0.0
  0
LINE
  5
47C
  8
0
 62
     0
 10
1639.358066290411
 20
3494.9543313478471
 30
0.0
 11
1638.520066290411
 21
3493.5028727711051
 31
0.0
  0
LINE
  5
47D
  8
0
 62
     0
 10
1633.5974753416349
 20
3474.816695142948
 30
0.0
 11
1632.7594753416349
 21
3473.3652365662051
 31
0.0
  0
LINE
  5
47E
  8
0
 62
     0
 10
1637.316293444085
 20
3460.9378770404969
 30
0.0
 11
1636.4782934440859
 21
3459.486418463754
 31
0.0
  0
LINE
  5
47F
  8
0
 62
     0
 10
1631.5557024953109
 20
3440.8002408355978
 30
0.0
 11
1630.717702495311
 21
3439.348782258855
 31
0.0
  0
LINE
  5
480
  8
0
 62
     0
 10
1637.6321568026599
 20
3390.3649684257989
 30
0.0
 11
1636.7941568026599
 21
3388.913509849056
 31
0.0
  0
LINE
  5
481
  8
0
 62
     0
 10
1631.871565853884
 20
3370.2273322208989
 30
0.0
 11
1631.033565853885
 21
3368.775873644156
 31
0.0
  0
LINE
  5
482
  8
0
 62
     0
 10
1635.590383956335
 20
3356.3485141184492
 30
0.0
 11
1634.7523839563351
 21
3354.8970555417059
 31
0.0
  0
LINE
  5
483
  8
0
 62
     0
 10
1635.906247314909
 20
3285.7756055037489
 30
0.0
 11
1635.0682473149091
 21
3284.3241469270051
 31
0.0
  0
LINE
  5
484
  8
0
 62
     0
 10
1630.1456563661329
 20
3265.6379692988489
 30
0.0
 11
1629.9486546200339
 21
3265.2967522654239
 31
0.0
  0
LINE
  5
485
  8
0
 62
     0
 10
1639.6250654173591
 20
3271.8967874012992
 30
0.0
 11
1638.787065417358
 21
3270.4453288245559
 31
0.0
  0
LINE
  5
486
  8
0
 62
     0
 10
1633.864474468583
 20
3251.7591511963992
 30
0.0
 11
1633.026474468584
 21
3250.3076926196568
 31
0.0
  0
LINE
  5
487
  8
0
 62
     0
 10
1639.9409287759329
 20
3201.3238787865998
 30
0.0
 11
1639.1029287759329
 21
3199.872420209857
 31
0.0
  0
LINE
  5
488
  8
0
 62
     0
 10
1634.1803378271579
 20
3181.1862425816998
 30
0.0
 11
1633.342337827158
 21
3179.734784004957
 31
0.0
  0
LINE
  5
489
  8
0
 62
     0
 10
1637.8991559296071
 20
3167.3074244792501
 30
0.0
 11
1637.0611559296069
 21
3165.8559659025068
 31
0.0
  0
LINE
  5
48A
  8
0
 62
     0
 10
1632.1385649808331
 20
3147.1697882743501
 30
0.0
 11
1631.300564980832
 21
3145.7183296976068
 31
0.0
  0
LINE
  5
48B
  8
0
 62
     0
 10
1631.239839136736
 20
3511.3731494502972
 30
0.0
 11
1630.401839136736
 21
3509.9216908735539
 31
0.0
  0
LINE
  5
48C
  8
0
 62
     0
 10
1639.1757024953099
 20
3453.9984679892732
 30
0.0
 11
1638.3377024953099
 21
3452.5470094125299
 31
0.0
  0
LINE
  5
48D
  8
0
 62
     0
 10
1633.4151115465349
 20
3433.8608317843718
 30
0.0
 11
1632.577111546535
 21
3432.409373207629
 31
0.0
  0
LINE
  5
48E
  8
0
 62
     0
 10
1635.2745205977601
 20
3426.9214227331481
 30
0.0
 11
1634.4365205977599
 21
3425.4699641564048
 31
0.0
  0
LINE
  5
48F
  8
0
 62
     0
 10
1637.449793007559
 20
3349.4091050672232
 30
0.0
 11
1636.6117930075591
 21
3347.9576464904799
 31
0.0
  0
LINE
  5
490
  8
0
 62
     0
 10
1631.6892020587841
 20
3329.2714688623232
 30
0.0
 11
1630.851202058783
 21
3327.8200102855808
 31
0.0
  0
LINE
  5
491
  8
0
 62
     0
 10
1639.309202058784
 20
3342.4696960159981
 30
0.0
 11
1638.471202058784
 21
3341.0182374392562
 31
0.0
  0
LINE
  5
492
  8
0
 62
     0
 10
1633.548611110009
 20
3322.332059811099
 30
0.0
 11
1632.710611110009
 21
3320.8806012343571
 31
0.0
  0
LINE
  5
493
  8
0
 62
     0
 10
1635.7238835198079
 20
3244.819742145175
 30
0.0
 11
1634.885883519808
 21
3243.3682835684322
 31
0.0
  0
LINE
  5
494
  8
0
 62
     0
 10
1629.963292571033
 20
3224.6821059402751
 30
0.0
 11
1629.948654620033
 21
3224.6567522654241
 31
0.0
  0
LINE
  5
495
  8
0
 62
     0
 10
1637.5832925710331
 20
3237.88033309395
 30
0.0
 11
1636.7452925710329
 21
3236.4288745172071
 31
0.0
  0
LINE
  5
496
  8
0
 62
     0
 10
1631.8227016222579
 20
3217.7426968890491
 30
0.0
 11
1630.9847016222579
 21
3216.2912383123071
 31
0.0
  0
LINE
  5
497
  8
0
 62
     0
 10
1639.7585649808329
 20
3160.368015428025
 30
0.0
 11
1638.920564980833
 21
3158.9165568512822
 31
0.0
  0
LINE
  5
498
  8
0
 62
     0
 10
1633.9979740320571
 20
3140.2303792231251
 30
0.0
 11
1633.1599740320571
 21
3138.7789206463822
 31
0.0
  0
LINE
  5
499
  8
0
 62
     0
 10
1635.857383083282
 20
3133.2909701719
 30
0.0
 11
1635.019383083282
 21
3131.8395115951571
 31
0.0
  0
LINE
  5
49A
  8
0
 62
     0
 10
1630.096792134507
 20
3113.153333967
 30
0.0
 11
1629.948654620033
 21
3112.8967522654239
 31
0.0
  0
LINE
  5
49B
  8
0
 62
     0
 10
1634.7526754307271
 20
3493.6228440070872
 30
0.0
 11
1633.9146754307269
 21
3495.0743025838301
 31
0.0
  0
LINE
  5
49C
  8
0
 62
     0
 10
1632.395039225828
 20
3457.0663896997362
 30
0.0
 11
1631.557039225828
 21
3458.5178482764791
 31
0.0
  0
LINE
  5
49D
  8
0
 62
     0
 10
1639.5168120721521
 20
3414.2511172899381
 30
0.0
 11
1638.6788120721519
 21
3415.7025758666809
 31
0.0
  0
LINE
  5
49E
  8
0
 62
     0
 10
1630.0374030209271
 20
3420.5099353923888
 30
0.0
 11
1629.9486546200339
 21
3420.663652131826
 31
0.0
  0
LINE
  5
49F
  8
0
 62
     0
 10
1637.1591758672521
 20
3377.6946629825889
 30
0.0
 11
1636.3211758672519
 21
3379.1461215593322
 31
0.0
  0
LINE
  5
4A0
  8
0
 62
     0
 10
1634.801539662353
 20
3341.1382086752378
 30
0.0
 11
1633.963539662353
 21
3342.5896672519812
 31
0.0
  0
LINE
  5
4A1
  8
0
 62
     0
 10
1639.8815396623529
 20
3332.3393905727871
 30
0.0
 11
1639.0435396623529
 21
3333.79084914953
 31
0.0
  0
LINE
  5
4A2
  8
0
 62
     0
 10
1632.4439034574541
 20
3304.5817543678868
 30
0.0
 11
1631.6059034574539
 21
3306.0332129446301
 31
0.0
  0
LINE
  5
4A3
  8
0
 62
     0
 10
1637.523903457454
 20
3295.782936265437
 30
0.0
 11
1636.6859034574541
 21
3297.2343948421799
 31
0.0
  0
LINE
  5
4A4
  8
0
 62
     0
 10
1630.0862672525529
 20
3268.025300060538
 30
0.0
 11
1629.948654620033
 21
3268.2636521318259
 31
0.0
  0
LINE
  5
4A5
  8
0
 62
     0
 10
1635.1662672525531
 20
3259.2264819580878
 30
0.0
 11
1634.3282672525529
 21
3260.6779405348311
 31
0.0
  0
LINE
  5
4A6
  8
0
 62
     0
 10
1632.8086310476519
 20
3222.6700276507399
 30
0.0
 11
1631.970631047652
 21
3224.1214862274828
 31
0.0
  0
LINE
  5
4A7
  8
0
 62
     0
 10
1639.9304038939781
 20
3179.8547552409391
 30
0.0
 11
1639.0924038939779
 21
3181.3062138176811
 31
0.0
  0
LINE
  5
4A8
  8
0
 62
     0
 10
1630.450994842754
 20
3186.113573343388
 30
0.0
 11
1629.9486546200319
 21
3186.9836521318271
 31
0.0
  0
LINE
  5
4A9
  8
0
 62
     0
 10
1637.572767689077
 20
3143.2983009335908
 30
0.0
 11
1636.7347676890761
 21
3144.7497595103332
 31
0.0
  0
LINE
  5
4AA
  8
0
 62
     0
 10
1635.2151314841781
 20
3106.7418466262402
 30
0.0
 11
1634.3771314841781
 21
3108.1933052029831
 31
0.0
  0
LINE
  5
4AB
  8
0
 62
     0
 10
1639.4583553835989
 20
3099.3923672445512
 30
0.0
 11
1639.4571314841769
 21
3099.3944871005328
 31
0.0
  0
LINE
  5
4AC
  8
0
 62
     0
 10
1639.9486546200339
 20
3443.983144056137
 30
0.0
 11
1639.1770392258279
 21
3445.3196211228042
 31
0.0
  0
LINE
  5
4AD
  8
0
 62
     0
 10
1639.9486546200339
 20
3433.8231440561372
 30
0.0
 11
1639.8576301746029
 21
3433.980803020354
 31
0.0
  0
LINE
  5
4AE
  8
0
 62
     0
 10
1637.6574030209269
 20
3407.3117082387139
 30
0.0
 11
1636.819403020927
 21
3408.7631668154572
 31
0.0
  0
LINE
  5
4AF
  8
0
 62
     0
 10
1638.337993969702
 20
3395.9728901362651
 30
0.0
 11
1637.499993969702
 21
3397.424348713007
 31
0.0
  0
LINE
  5
4B0
  8
0
 62
     0
 10
1635.2997668160269
 20
3370.7552539313642
 30
0.0
 11
1634.461766816027
 21
3372.2067125081071
 31
0.0
  0
LINE
  5
4B1
  8
0
 62
     0
 10
1635.980357764802
 20
3359.416435828914
 30
0.0
 11
1635.142357764802
 21
3360.867894405656
 31
0.0
  0
LINE
  5
4B2
  8
0
 62
     0
 10
1632.9421306111269
 20
3334.1987996240141
 30
0.0
 11
1632.1041306111269
 21
3335.650258200757
 31
0.0
  0
LINE
  5
4B3
  8
0
 62
     0
 10
1633.6227215599031
 20
3322.8599815215621
 30
0.0
 11
1632.7847215599029
 21
3324.3114400983059
 31
0.0
  0
LINE
  5
4B4
  8
0
 62
     0
 10
1630.5844944062269
 20
3297.6423453166649
 30
0.0
 11
1629.948654620033
 21
3298.7436521318259
 31
0.0
  0
LINE
  5
4B5
  8
0
 62
     0
 10
1631.2650853550019
 20
3286.3035272142138
 30
0.0
 11
1630.427085355002
 21
3287.7549857909571
 31
0.0
  0
LINE
  5
4B6
  8
0
 62
     0
 10
1639.948654620033
 20
3210.3031440561372
 30
0.0
 11
1639.5906310476521
 21
3210.9232590738079
 31
0.0
  0
LINE
  5
4B7
  8
0
 62
     0
 10
1638.0709948427541
 20
3172.9153461897131
 30
0.0
 11
1637.2329948427539
 21
3174.366804766456
 31
0.0
  0
LINE
  5
4B8
  8
0
 62
     0
 10
1638.7515857915289
 20
3161.5765280872629
 30
0.0
 11
1637.9135857915289
 21
3163.0279866640062
 31
0.0
  0
LINE
  5
4B9
  8
0
 62
     0
 10
1635.713358637852
 20
3136.3588918823662
 30
0.0
 11
1634.8753586378521
 21
3137.810350459109
 31
0.0
  0
LINE
  5
4BA
  8
0
 62
     0
 10
1636.3939495866271
 20
3125.0200737799159
 30
0.0
 11
1635.5559495866271
 21
3126.4715323566588
 31
0.0
  0
LINE
  5
4BB
  8
0
 62
     0
 10
1633.3557224329529
 20
3099.8024375750151
 30
0.0
 11
1632.517722432953
 21
3101.253896151758
 31
0.0
  0
LINE
  5
4BC
  8
0
 62
     0
 10
1638.4714935331781
 20
3507.501662109536
 30
0.0
 11
1637.6334935331779
 21
3508.9531206862789
 31
0.0
  0
LINE
  5
4BD
  8
0
 62
     0
 10
1631.5320844819521
 20
3509.361071160763
 30
0.0
 11
1630.6940844819519
 21
3510.812529737505
 31
0.0
  0
LINE
  5
4BE
  8
0
 62
     0
 10
1636.1138573282769
 20
3470.9452078021882
 30
0.0
 11
1635.275857328277
 21
3472.3966663789311
 31
0.0
  0
LINE
  5
4BF
  8
0
 62
     0
 10
1633.7562211233769
 20
3434.388753494839
 30
0.0
 11
1632.918221123377
 21
3435.8402120715818
 31
0.0
  0
LINE
  5
4C0
  8
0
 62
     0
 10
1631.398584918478
 20
3397.832299187487
 30
0.0
 11
1630.5605849184781
 21
3399.2837577642299
 31
0.0
  0
LINE
  5
4C1
  8
0
 62
     0
 10
1639.0185849184779
 20
3384.6340720338121
 30
0.0
 11
1638.180584918478
 21
3386.085530610555
 31
0.0
  0
LINE
  5
4C2
  8
0
 62
     0
 10
1636.660948713577
 20
3348.0776177264638
 30
0.0
 11
1635.822948713577
 21
3349.5290763032058
 31
0.0
  0
LINE
  5
4C3
  8
0
 62
     0
 10
1634.303312508679
 20
3311.521163419111
 30
0.0
 11
1633.4653125086791
 21
3312.9726219958538
 31
0.0
  0
LINE
  5
4C4
  8
0
 62
     0
 10
1638.885085355002
 20
3273.1053000605389
 30
0.0
 11
1638.0470853550021
 21
3274.5567586372822
 31
0.0
  0
LINE
  5
4C5
  8
0
 62
     0
 10
1631.945676303777
 20
3274.964709111764
 30
0.0
 11
1631.107676303777
 21
3276.4161676885069
 31
0.0
  0
LINE
  5
4C6
  8
0
 62
     0
 10
1636.527449150102
 20
3236.5488457531892
 30
0.0
 11
1635.689449150103
 21
3238.0003043299321
 31
0.0
  0
LINE
  5
4C7
  8
0
 62
     0
 10
1634.169812945202
 20
3199.9923914458391
 30
0.0
 11
1633.331812945202
 21
3201.443850022581
 31
0.0
  0
LINE
  5
4C8
  8
0
 62
     0
 10
1631.8121767403011
 20
3163.4359371384921
 30
0.0
 11
1630.9741767403009
 21
3164.887395715235
 31
0.0
  0
LINE
  5
4C9
  8
0
 62
     0
 10
1639.432176740301
 20
3150.2377099848168
 30
0.0
 11
1638.594176740301
 21
3151.6891685615601
 31
0.0
  0
LINE
  5
4CA
  8
0
 62
     0
 10
1637.0745405354021
 20
3113.6812556774662
 30
0.0
 11
1636.2365405354019
 21
3115.1327142542091
 31
0.0
  0
LINE
  5
4CB
  8
0
 62
     0
 10
1630.6796546200289
 20
3124.1999067242441
 30
0.0
 11
1632.3556546200291
 21
3124.1999067242441
 31
0.0
  0
LINE
  5
4CC
  8
0
 62
     0
 10
1630.679654620031
 20
3154.6799067242441
 30
0.0
 11
1632.3556546200309
 21
3154.6799067242441
 31
0.0
  0
LINE
  5
4CD
  8
0
 62
     0
 10
1630.679654620031
 20
3180.0799067242442
 30
0.0
 11
1632.3556546200309
 21
3180.0799067242442
 31
0.0
  0
LINE
  5
4CE
  8
0
 62
     0
 10
1630.679654620031
 20
3210.5599067242438
 30
0.0
 11
1632.3556546200309
 21
3210.5599067242438
 31
0.0
  0
LINE
  5
4CF
  8
0
 62
     0
 10
1630.6796546200319
 20
3235.9599067242439
 30
0.0
 11
1632.3556546200321
 21
3235.9599067242439
 31
0.0
  0
LINE
  5
4D0
  8
0
 62
     0
 10
1630.6796546200301
 20
3266.4399067242439
 30
0.0
 11
1632.35565462003
 21
3266.4399067242439
 31
0.0
  0
LINE
  5
4D1
  8
0
 62
     0
 10
1630.6796546200301
 20
3291.839906724244
 30
0.0
 11
1632.35565462003
 21
3291.839906724244
 31
0.0
  0
LINE
  5
4D2
  8
0
 62
     0
 10
1630.679654620031
 20
3322.319906724244
 30
0.0
 11
1632.35565462003
 21
3322.319906724244
 31
0.0
  0
LINE
  5
4D3
  8
0
 62
     0
 10
1630.679654620031
 20
3347.7199067242441
 30
0.0
 11
1632.3556546200309
 21
3347.7199067242441
 31
0.0
  0
LINE
  5
4D4
  8
0
 62
     0
 10
1630.679654620033
 20
3378.1999067242441
 30
0.0
 11
1632.355654620033
 21
3378.1999067242441
 31
0.0
  0
LINE
  5
4D5
  8
0
 62
     0
 10
1630.679654620033
 20
3403.5999067242442
 30
0.0
 11
1632.355654620033
 21
3403.5999067242442
 31
0.0
  0
LINE
  5
4D6
  8
0
 62
     0
 10
1630.679654620033
 20
3434.0799067242451
 30
0.0
 11
1632.355654620033
 21
3434.0799067242451
 31
0.0
  0
LINE
  5
4D7
  8
0
 62
     0
 10
1630.679654620033
 20
3459.4799067242438
 30
0.0
 11
1632.355654620033
 21
3459.4799067242438
 31
0.0
  0
LINE
  5
4D8
  8
0
 62
     0
 10
1630.679654620033
 20
3489.9599067242439
 30
0.0
 11
1632.355654620033
 21
3489.9599067242439
 31
0.0
  0
LINE
  5
4D9
  8
0
 62
     0
 10
1635.7596546200291
 20
3103.8799067242439
 30
0.0
 11
1637.435654620029
 21
3103.8799067242439
 31
0.0
  0
LINE
  5
4DA
  8
0
 62
     0
 10
1635.75965462003
 20
3139.4399067242439
 30
0.0
 11
1637.4356546200299
 21
3139.4399067242439
 31
0.0
  0
LINE
  5
4DB
  8
0
 62
     0
 10
1635.7596546200309
 20
3159.759906724244
 30
0.0
 11
1637.4356546200311
 21
3159.759906724244
 31
0.0
  0
LINE
  5
4DC
  8
0
 62
     0
 10
1635.759654620033
 20
3195.319906724244
 30
0.0
 11
1637.435654620032
 21
3195.319906724244
 31
0.0
  0
LINE
  5
4DD
  8
0
 62
     0
 10
1635.7596546200309
 20
3215.6399067242442
 30
0.0
 11
1637.4356546200311
 21
3215.6399067242442
 31
0.0
  0
LINE
  5
4DE
  8
0
 62
     0
 10
1635.7596546200291
 20
3251.1999067242441
 30
0.0
 11
1637.435654620029
 21
3251.1999067242441
 31
0.0
  0
LINE
  5
4DF
  8
0
 62
     0
 10
1635.75965462003
 20
3271.5199067242438
 30
0.0
 11
1637.4356546200299
 21
3271.5199067242438
 31
0.0
  0
LINE
  5
4E0
  8
0
 62
     0
 10
1635.75965462003
 20
3307.0799067242442
 30
0.0
 11
1637.435654620029
 21
3307.0799067242442
 31
0.0
  0
LINE
  5
4E1
  8
0
 62
     0
 10
1635.75965462003
 20
3327.3999067242439
 30
0.0
 11
1637.4356546200299
 21
3327.3999067242439
 31
0.0
  0
LINE
  5
4E2
  8
0
 62
     0
 10
1635.75965462003
 20
3362.9599067242448
 30
0.0
 11
1637.4356546200299
 21
3362.9599067242448
 31
0.0
  0
LINE
  5
4E3
  8
0
 62
     0
 10
1635.759654620033
 20
3383.279906724244
 30
0.0
 11
1637.435654620032
 21
3383.279906724244
 31
0.0
  0
LINE
  5
4E4
  8
0
 62
     0
 10
1635.7596546200321
 20
3418.839906724244
 30
0.0
 11
1637.435654620032
 21
3418.839906724244
 31
0.0
  0
LINE
  5
4E5
  8
0
 62
     0
 10
1635.759654620033
 20
3439.159906724245
 30
0.0
 11
1637.435654620032
 21
3439.159906724245
 31
0.0
  0
LINE
  5
4E6
  8
0
 62
     0
 10
1635.759654620033
 20
3474.719906724245
 30
0.0
 11
1637.435654620032
 21
3474.719906724245
 31
0.0
  0
LINE
  5
4E7
  8
0
 62
     0
 10
1635.759654620033
 20
3495.0399067242452
 30
0.0
 11
1637.4356546200329
 21
3495.0399067242452
 31
0.0
  0
LINE
  5
4E8
  8
0
 62
     0
 10
1630.6796546200301
 20
3114.0399067242438
 30
0.0
 11
1632.35565462003
 21
3114.0399067242438
 31
0.0
  0
LINE
  5
4E9
  8
0
 62
     0
 10
1635.75965462003
 20
3119.1199067242442
 30
0.0
 11
1637.435654620029
 21
3119.1199067242442
 31
0.0
  0
LINE
  5
4EA
  8
0
 62
     0
 10
1630.6796546200319
 20
3169.9199067242439
 30
0.0
 11
1632.3556546200321
 21
3169.9199067242439
 31
0.0
  0
LINE
  5
4EB
  8
0
 62
     0
 10
1635.7596546200321
 20
3174.9999067242438
 30
0.0
 11
1637.435654620032
 21
3174.9999067242438
 31
0.0
  0
LINE
  5
4EC
  8
0
 62
     0
 10
1630.679654620033
 20
3225.799906724244
 30
0.0
 11
1632.355654620033
 21
3225.799906724244
 31
0.0
  0
LINE
  5
4ED
  8
0
 62
     0
 10
1635.7596546200321
 20
3230.8799067242439
 30
0.0
 11
1637.435654620032
 21
3230.8799067242439
 31
0.0
  0
LINE
  5
4EE
  8
0
 62
     0
 10
1630.679654620031
 20
3281.679906724245
 30
0.0
 11
1632.3556546200309
 21
3281.679906724245
 31
0.0
  0
LINE
  5
4EF
  8
0
 62
     0
 10
1635.75965462003
 20
3286.759906724244
 30
0.0
 11
1637.4356546200311
 21
3286.759906724244
 31
0.0
  0
LINE
  5
4F0
  8
0
 62
     0
 10
1630.6796546200289
 20
3337.5599067242438
 30
0.0
 11
1632.3556546200291
 21
3337.5599067242438
 31
0.0
  0
LINE
  5
4F1
  8
0
 62
     0
 10
1635.7596546200309
 20
3342.6399067242442
 30
0.0
 11
1637.4356546200311
 21
3342.6399067242442
 31
0.0
  0
LINE
  5
4F2
  8
0
 62
     0
 10
1630.6796546200319
 20
3393.4399067242448
 30
0.0
 11
1632.3556546200321
 21
3393.4399067242448
 31
0.0
  0
LINE
  5
4F3
  8
0
 62
     0
 10
1635.759654620033
 20
3398.5199067242438
 30
0.0
 11
1637.4356546200329
 21
3398.5199067242438
 31
0.0
  0
LINE
  5
4F4
  8
0
 62
     0
 10
1630.6796546200319
 20
3449.3199067242449
 30
0.0
 11
1632.3556546200321
 21
3449.3199067242449
 31
0.0
  0
LINE
  5
4F5
  8
0
 62
     0
 10
1635.759654620033
 20
3454.3999067242448
 30
0.0
 11
1637.4356546200329
 21
3454.3999067242448
 31
0.0
  0
LINE
  5
4F6
  8
0
 62
     0
 10
1630.6796546200319
 20
3505.199906724245
 30
0.0
 11
1632.3556546200321
 21
3505.199906724245
 31
0.0
  0
LINE
  5
4F7
  8
0
 62
     0
 10
1635.7596546200321
 20
3510.2799067242449
 30
0.0
 11
1637.435654620032
 21
3510.2799067242449
 31
0.0
  0
ENDBLK
  5
4F9
  8
0
  0
BLOCK
  8
0
  2
*X31
 70
     1
 10
0.0
 20
0.0
 30
0.0
  3
*X31
  1

  0
LINE
  5
4FB
  8
0
 62
     0
 10
1523.9996546200221
 20
3040.392367244553
 30
0.0
 11
1523.9996546200221
 21
3513.1654004176162
 31
0.0
  0
LINE
  5
4FC
  8
0
 62
     0
 10
1511.9996546200221
 20
3040.392367244553
 30
0.0
 11
1511.9996546200221
 21
3513.1654004176162
 31
0.0
  0
LINE
  5
4FD
  8
0
 62
     0
 10
1509.948654620031
 20
3047.9999067242379
 30
0.0
 11
1529.948654620031
 21
3047.9999067242379
 31
0.0
  0
LINE
  5
4FE
  8
0
 62
     0
 10
1509.948654620031
 20
3059.9999067242379
 30
0.0
 11
1529.948654620031
 21
3059.9999067242379
 31
0.0
  0
LINE
  5
4FF
  8
0
 62
     0
 10
1509.948654620031
 20
3071.9999067242379
 30
0.0
 11
1529.948654620031
 21
3071.9999067242379
 31
0.0
  0
LINE
  5
500
  8
0
 62
     0
 10
1509.948654620031
 20
3083.999906724237
 30
0.0
 11
1529.948654620031
 21
3083.999906724237
 31
0.0
  0
LINE
  5
501
  8
0
 62
     0
 10
1509.948654620031
 20
3095.9999067242379
 30
0.0
 11
1529.948654620031
 21
3095.9999067242379
 31
0.0
  0
LINE
  5
502
  8
0
 62
     0
 10
1509.948654620031
 20
3107.9999067242379
 30
0.0
 11
1529.948654620031
 21
3107.9999067242379
 31
0.0
  0
LINE
  5
503
  8
0
 62
     0
 10
1509.948654620031
 20
3119.9999067242379
 30
0.0
 11
1529.948654620031
 21
3119.9999067242379
 31
0.0
  0
LINE
  5
504
  8
0
 62
     0
 10
1509.948654620031
 20
3131.999906724237
 30
0.0
 11
1529.948654620031
 21
3131.999906724237
 31
0.0
  0
LINE
  5
505
  8
0
 62
     0
 10
1509.9486546200319
 20
3143.9999067242379
 30
0.0
 11
1529.948654620031
 21
3143.9999067242379
 31
0.0
  0
LINE
  5
506
  8
0
 62
     0
 10
1509.9486546200319
 20
3155.9999067242379
 30
0.0
 11
1529.948654620031
 21
3155.9999067242379
 31
0.0
  0
LINE
  5
507
  8
0
 62
     0
 10
1509.9486546200319
 20
3167.999906724237
 30
0.0
 11
1529.9486546200319
 21
3167.999906724237
 31
0.0
  0
LINE
  5
508
  8
0
 62
     0
 10
1509.9486546200319
 20
3179.999906724237
 30
0.0
 11
1529.9486546200319
 21
3179.999906724237
 31
0.0
  0
LINE
  5
509
  8
0
 62
     0
 10
1509.9486546200319
 20
3191.9999067242379
 30
0.0
 11
1529.9486546200319
 21
3191.9999067242379
 31
0.0
  0
LINE
  5
50A
  8
0
 62
     0
 10
1509.9486546200319
 20
3203.9999067242379
 30
0.0
 11
1529.9486546200319
 21
3203.9999067242379
 31
0.0
  0
LINE
  5
50B
  8
0
 62
     0
 10
1509.9486546200319
 20
3215.999906724237
 30
0.0
 11
1529.9486546200319
 21
3215.999906724237
 31
0.0
  0
LINE
  5
50C
  8
0
 62
     0
 10
1509.9486546200319
 20
3227.999906724237
 30
0.0
 11
1529.9486546200319
 21
3227.999906724237
 31
0.0
  0
LINE
  5
50D
  8
0
 62
     0
 10
1509.9486546200319
 20
3239.9999067242379
 30
0.0
 11
1529.9486546200319
 21
3239.9999067242379
 31
0.0
  0
LINE
  5
50E
  8
0
 62
     0
 10
1509.9486546200319
 20
3251.999906724237
 30
0.0
 11
1529.9486546200319
 21
3251.999906724237
 31
0.0
  0
LINE
  5
50F
  8
0
 62
     0
 10
1509.9486546200319
 20
3263.9999067242379
 30
0.0
 11
1529.9486546200319
 21
3263.9999067242379
 31
0.0
  0
LINE
  5
510
  8
0
 62
     0
 10
1509.9486546200319
 20
3275.9999067242379
 30
0.0
 11
1529.9486546200319
 21
3275.9999067242379
 31
0.0
  0
LINE
  5
511
  8
0
 62
     0
 10
1509.9486546200319
 20
3287.9999067242379
 30
0.0
 11
1529.9486546200319
 21
3287.9999067242379
 31
0.0
  0
LINE
  5
512
  8
0
 62
     0
 10
1509.9486546200319
 20
3299.9999067242379
 30
0.0
 11
1529.9486546200319
 21
3299.9999067242379
 31
0.0
  0
LINE
  5
513
  8
0
 62
     0
 10
1509.9486546200319
 20
3311.9999067242379
 30
0.0
 11
1529.9486546200319
 21
3311.9999067242379
 31
0.0
  0
LINE
  5
514
  8
0
 62
     0
 10
1509.9486546200319
 20
3323.9999067242379
 30
0.0
 11
1529.9486546200319
 21
3323.9999067242379
 31
0.0
  0
LINE
  5
515
  8
0
 62
     0
 10
1509.9486546200319
 20
3335.9999067242379
 30
0.0
 11
1529.9486546200319
 21
3335.9999067242379
 31
0.0
  0
LINE
  5
516
  8
0
 62
     0
 10
1509.9486546200319
 20
3347.9999067242379
 30
0.0
 11
1529.9486546200319
 21
3347.9999067242379
 31
0.0
  0
LINE
  5
517
  8
0
 62
     0
 10
1509.9486546200319
 20
3359.999906724237
 30
0.0
 11
1529.9486546200319
 21
3359.999906724237
 31
0.0
  0
LINE
  5
518
  8
0
 62
     0
 10
1509.9486546200319
 20
3371.9999067242379
 30
0.0
 11
1529.9486546200319
 21
3371.9999067242379
 31
0.0
  0
LINE
  5
519
  8
0
 62
     0
 10
1509.9486546200319
 20
3383.9999067242379
 30
0.0
 11
1529.9486546200319
 21
3383.9999067242379
 31
0.0
  0
LINE
  5
51A
  8
0
 62
     0
 10
1509.9486546200319
 20
3395.9999067242379
 30
0.0
 11
1529.9486546200319
 21
3395.9999067242379
 31
0.0
  0
LINE
  5
51B
  8
0
 62
     0
 10
1509.9486546200319
 20
3407.9999067242379
 30
0.0
 11
1529.9486546200319
 21
3407.9999067242379
 31
0.0
  0
LINE
  5
51C
  8
0
 62
     0
 10
1509.9486546200319
 20
3419.9999067242379
 30
0.0
 11
1529.9486546200319
 21
3419.9999067242379
 31
0.0
  0
LINE
  5
51D
  8
0
 62
     0
 10
1509.9486546200319
 20
3431.9999067242379
 30
0.0
 11
1529.9486546200319
 21
3431.9999067242379
 31
0.0
  0
LINE
  5
51E
  8
0
 62
     0
 10
1509.9486546200319
 20
3443.9999067242379
 30
0.0
 11
1529.9486546200319
 21
3443.9999067242379
 31
0.0
  0
LINE
  5
51F
  8
0
 62
     0
 10
1509.9486546200319
 20
3455.999906724237
 30
0.0
 11
1529.9486546200319
 21
3455.999906724237
 31
0.0
  0
LINE
  5
520
  8
0
 62
     0
 10
1509.9486546200319
 20
3467.9999067242379
 30
0.0
 11
1529.9486546200319
 21
3467.9999067242379
 31
0.0
  0
LINE
  5
521
  8
0
 62
     0
 10
1509.9486546200319
 20
3479.9999067242379
 30
0.0
 11
1529.9486546200319
 21
3479.9999067242379
 31
0.0
  0
LINE
  5
522
  8
0
 62
     0
 10
1509.9486546200319
 20
3491.999906724237
 30
0.0
 11
1529.9486546200319
 21
3491.999906724237
 31
0.0
  0
LINE
  5
523
  8
0
 62
     0
 10
1509.9486546200319
 20
3503.9999067242379
 30
0.0
 11
1529.9486546200319
 21
3503.9999067242379
 31
0.0
  0
ENDBLK
  5
525
  8
0
  0
ENDSEC
  0
SECTION
  2
ENTITIES
  0
LINE
  5
1BD
  8
_LINES
 10
1639.855840842341
 20
3287.7558827880612
 30
0.0
 11
1646.105840842341
 21
3294.0058827880612
 31
0.0
1001
REVIT
1002
{
1070
     1
1000
471911
1002
}
1002
{
1070
     5
1000
256069
1002
}
1002
{
1070
     2
1000
-2005022
1002
}
  0
LINE
  5
1BE
  8
_LINES
 10
1639.855840842341
 20
3287.7558827880612
 30
0.0
 11
1646.105840842341
 21
3281.5058827880598
 31
0.0
1001
REVIT
1002
{
1070
     1
1000
471911
1002
}
1002
{
1070
     5
1000
256069
1002
}
1002
{
1070
     2
1000
-2005022
1002
}
  0
LINE
  5
1BF
  8
_LINES
 10
1639.855840842341
 20
3287.7558827880612
 30
0.0
 11
1825.9568415349211
 21
3287.7558827880598
 31
0.0
1001
REVIT
1002
{
1070
     1
1000
471911
1002
}
1002
{
1070
     5
1000
256069
1002
}
1002
{
1070
     2
1000
-2005022
1002
}
  0
INSERT
  5
1C1
  8
_HATCH
  2
*U20
 10
0.0
 20
0.0
 30
0.0
  0
LINE
  5
1C2
  8
_LINES
 10
1766.867302090996
 20
2971.5371872636838
 30
0.0
 11
1773.117302090996
 21
2965.2871872636838
 31
0.0
1001
REVIT
1002
{
1070
     1
1000
471914
1002
}
1002
{
1070
     5
1000
256069
1002
}
1002
{
1070
     2
1000
-2005022
1002
}
  0
LINE
  5
1C3
  8
_LINES
 10
1766.867302090996
 20
2971.5371872636838
 30
0.0
 11
1760.617302090996
 21
2965.2871872636838
 31
0.0
1001
REVIT
1002
{
1070
     1
1000
471914
1002
}
1002
{
1070
     5
1000
256069
1002
}
1002
{
1070
     2
1000
-2005022
1002
}
  0
LINE
  5
1C4
  8
_LINES
 10
1766.867302090996
 20
2888.7028546015699
 30
0.0
 11
1825.9568415349211
 21
2888.702854601569
 31
0.0
1001
REVIT
1002
{
1070
     1
1000
471914
1002
}
1002
{
1070
     5
1000
256069
1002
}
1002
{
1070
     2
1000
-2005022
1002
}
  0
LINE
  5
1C5
  8
_LINES
 10
1766.867302090996
 20
2971.5371872636838
 30
0.0
 11
1766.867302090996
 21
2888.7028546015699
 31
0.0
1001
REVIT
1002
{
1070
     1
1000
471914
1002
}
1002
{
1070
     5
1000
256069
1002
}
1002
{
1070
     2
1000
-2005022
1002
}
  0
INSERT
  5
1C6
  8
_HATCH
  2
*U21
 10
0.0
 20
0.0
 30
0.0
  0
LINE
  5
1C7
  8
_LINES
 10
1625.8933859244171
 20
3355.4668151521792
 30
0.0
 11
1632.1433859244171
 21
3361.7168151521792
 31
0.0
1001
REVIT
1002
{
1070
     1
1000
471915
1002
}
1002
{
1070
     5
1000
256069
1002
}
1002
{
1070
     2
1000
-2005022
1002
}
  0
LINE
  5
1C8
  8
_LINES
 10
1625.8933859244171
 20
3355.4668151521792
 30
0.0
 11
1632.1433859244171
 21
3349.2168151521778
 31
0.0
1001
REVIT
1002
{
1070
     1
1000
471915
1002
}
1002
{
1070
     5
1000
256069
1002
}
1002
{
1070
     2
1000
-2005022
1002
}
  0
LINE
  5
1C9
  8
_LINES
 10
1625.8933859244171
 20
3355.4668151521792
 30
0.0
 11
1825.9568415349199
 21
3355.4668151521778
 31
0.0
1001
REVIT
1002
{
1070
     1
1000
471915
1002
}
1002
{
1070
     5
1000
256069
1002
}
1002
{
1070
     2
1000
-2005022
1002
}
  0
INSERT
  5
1CA
  8
_HATCH
  2
*U22
 10
0.0
 20
0.0
 30
0.0
  0
LINE
  5
1CB
  8
_LINES
 10
1483.0146230223879
 20
3433.537790799694
 30
0.0
 11
1489.2646230223879
 21
3439.787790799694
 31
0.0
1001
REVIT
1002
{
1070
     1
1000
471916
1002
}
1002
{
1070
     5
1000
256069
1002
}
1002
{
1070
     2
1000
-2005022
1002
}
  0
LINE
  5
1CC
  8
_LINES
 10
1483.0146230223879
 20
3433.537790799694
 30
0.0
 11
1489.2646230223879
 21
3427.287790799694
 31
0.0
1001
REVIT
1002
{
1070
     1
1000
471916
1002
}
1002
{
1070
     5
1000
256069
1002
}
1002
{
1070
     2
1000
-2005022
1002
}
  0
LINE
  5
1CD
  8
_LINES
 10
1483.0146230223879
 20
3433.537790799694
 30
0.0
 11
1826.256841534921
 21
3433.537790799694
 31
0.0
1001
REVIT
1002
{
1070
     1
1000
471916
1002
}
1002
{
1070
     5
1000
256069
1002
}
1002
{
1070
     2
1000
-2005022
1002
}
  0
INSERT
  5
1CE
  8
_HATCH
  2
*U23
 10
0.0
 20
0.0
 30
0.0
  0
LINE
  5
1CF
  8
_LINES
 10
1598.7191577553299
 20
2944.6192311859099
 30
0.0
 11
1604.9691577553299
 21
2938.3692311859099
 31
0.0
1001
REVIT
1002
{
1070
     1
1000
471917
1002
}
1002
{
1070
     5
1000
256069
1002
}
1002
{
1070
     2
1000
-2005022
1002
}
  0
LINE
  5
1D0
  8
_LINES
 10
1598.7191577553299
 20
2944.6192311859099
 30
0.0
 11
1592.4691577553299
 21
2938.3692311859099
 31
0.0
1001
REVIT
1002
{
1070
     1
1000
471917
1002
}
1002
{
1070
     5
1000
256069
1002
}
1002
{
1070
     2
1000
-2005022
1002
}
  0
LINE
  5
1D1
  8
_LINES
 10
1598.7191577553299
 20
2845.4255741750849
 30
0.0
 11
1825.9568415349211
 21
2845.4255741750849
 31
0.0
1001
REVIT
1002
{
1070
     1
1000
471917
1002
}
1002
{
1070
     5
1000
256069
1002
}
1002
{
1070
     2
1000
-2005022
1002
}
  0
LINE
  5
1D2
  8
_LINES
 10
1598.7191577553299
 20
2944.6192311859099
 30
0.0
 11
1598.7191577553299
 21
2845.4255741750849
 31
0.0
1001
REVIT
1002
{
1070
     1
1000
471917
1002
}
1002
{
1070
     5
1000
256069
1002
}
1002
{
1070
     2
1000
-2005022
1002
}
  0
INSERT
  5
1D3
  8
_HATCH
  2
*U24
 10
0.0
 20
0.0
 30
0.0
  0
LINE
  5
1D4
  8
_LINES
 10
1532.9146514659351
 20
3229.877530465546
 30
0.0
 11
1539.164651465934
 21
3236.127530465546
 31
0.0
1001
REVIT
1002
{
1070
     1
1000
471918
1002
}
1002
{
1070
     5
1000
256069
1002
}
1002
{
1070
     2
1000
-2005022
1002
}
  0
LINE
  5
1D5
  8
_LINES
 10
1532.9146514659351
 20
3229.877530465546
 30
0.0
 11
1539.164651465934
 21
3223.627530465546
 31
0.0
1001
REVIT
1002
{
1070
     1
1000
471918
1002
}
1002
{
1070
     5
1000
256069
1002
}
1002
{
1070
     2
1000
-2005022
1002
}
  0
LINE
  5
1D6
  8
_LINES
 10
1532.9146514659351
 20
3229.877530465546
 30
0.0
 11
1825.9568415349211
 21
3229.8775304655451
 31
0.0
1001
REVIT
1002
{
1070
     1
1000
471918
1002
}
1002
{
1070
     5
1000
256069
1002
}
1002
{
1070
     2
1000
-2005022
1002
}
  0
INSERT
  5
1D7
  8
_HATCH
  2
*U25
 10
0.0
 20
0.0
 30
0.0
  0
LINE
  5
1D8
  8
_LINES
 10
1521.4236730864559
 20
2995.2693870188468
 30
0.0
 11
1527.6736730864559
 21
2989.0193870188468
 31
0.0
1001
REVIT
1002
{
1070
     1
1000
471919
1002
}
1002
{
1070
     5
1000
256069
1002
}
1002
{
1070
     2
1000
-2005022
1002
}
  0
LINE
  5
1D9
  8
_LINES
 10
1521.4236730864559
 20
2995.2693870188468
 30
0.0
 11
1515.1736730864559
 21
2989.0193870188468
 31
0.0
1001
REVIT
1002
{
1070
     1
1000
471919
1002
}
1002
{
1070
     5
1000
256069
1002
}
1002
{
1070
     2
1000
-2005022
1002
}
  0
LINE
  5
1DA
  8
_LINES
 10
1521.423673086457
 20
2801.0176027247212
 30
0.0
 11
1825.9568415349211
 21
2801.0176027247198
 31
0.0
1001
REVIT
1002
{
1070
     1
1000
471919
1002
}
1002
{
1070
     5
1000
256069
1002
}
1002
{
1070
     2
1000
-2005022
1002
}
  0
LINE
  5
1DB
  8
_LINES
 10
1521.4236730864559
 20
2995.2693870188468
 30
0.0
 11
1521.423673086457
 21
2801.0176027247212
 31
0.0
1001
REVIT
1002
{
1070
     1
1000
471919
1002
}
1002
{
1070
     5
1000
256069
1002
}
1002
{
1070
     2
1000
-2005022
1002
}
  0
INSERT
  5
1DC
  8
_HATCH
  2
*U26
 10
0.0
 20
0.0
 30
0.0
  0
INSERT
  5
1DF
  8
_HATCH
  2
*U27
 10
0.0
 20
0.0
 30
0.0
  0
LINE
  5
23D
  8
_LINES
 10
1464.948654620031
 20
3513.165400417613
 30
0.0
 11
1561.2133000280201
 21
3513.165400417613
 31
0.0
  0
LINE
  5
23E
  8
_LINES
 10
1561.2133000280201
 20
3513.165400417613
 30
0.0
 11
1563.080977324026
 21
3502.573276123866
 31
0.0
  0
LINE
  5
23F
  8
_LINES
 10
1563.080977324026
 20
3502.573276123866
 30
0.0
 11
1566.8069650444661
 21
3523.7044025429168
 31
0.0
  0
LINE
  5
240
  8
_LINES
 10
1566.8069650444661
 20
3523.7044025429168
 30
0.0
 11
1568.665275468901
 21
3513.165400417613
 31
0.0
  0
LINE
  5
241
  8
_LINES
 10
1568.665275468901
 20
3513.165400417613
 30
0.0
 11
1664.948654620031
 21
3513.165400417613
 31
0.0
  0
LINE
  5
242
  8
_LINES
 10
1482.9486546200301
 20
3512.392367244548
 30
0.0
 11
1482.948654620033
 21
3316.3923672445462
 31
0.0
1001
REVIT
1002
{
1070
     3
1000
241982
1002
}
  0
ARC
  5
243
  8
_LINES
 10
1484.9486546200319
 20
3512.392367244548
 30
0.0
 40
1.9999999999999429
 50
155.40223505594179
 51
180.0
1001
REVIT
1002
{
1070
     3
1000
241982
1002
}
  0
ARC
  5
244
  8
_LINES
 10
1484.948654620031
 20
3316.3923672445471
 30
0.0
 40
1.99999999999995
 50
180.0
 51
270.0
1001
REVIT
1002
{
1070
     3
1000
241982
1002
}
  0
LINE
  5
245
  8
_LINES
 10
1500.9486546200319
 20
3314.3923672445462
 30
0.0
 11
1484.948654620031
 21
3314.3923672445462
 31
0.0
1001
REVIT
1002
{
1070
     3
1000
241982
1002
}
  0
ARC
  5
246
  8
_LINES
 10
1500.9486546200319
 20
3316.3923672445462
 30
0.0
 40
1.9999999999999529
 50
270.0
 51
0.0
1001
REVIT
1002
{
1070
     3
1000
241982
1002
}
  0
LINE
  5
247
  8
_LINES
 10
1502.9486546200319
 20
3316.3923672445462
 30
0.0
 11
1502.948654620033
 21
3351.792367244549
 31
0.0
1001
REVIT
1002
{
1070
     3
1000
241982
1002
}
  0
LINE
  5
248
  8
_LINES
 10
1505.148654620031
 20
3309.3923672445471
 30
0.0
 11
1505.148654620031
 21
3351.792367244549
 31
0.0
1001
REVIT
1002
{
1070
     3
1000
241982
1002
}
  0
ARC
  5
249
  8
_LINES
 10
1504.0486546200329
 20
3351.792367244549
 30
0.0
 40
1.0999999999994821
 50
0.0
 51
180.0
1001
REVIT
1002
{
1070
     3
1000
241982
1002
}
  0
LINE
  5
24A
  8
_LINES
 10
1507.548654620032
 20
3294.3923672445462
 30
0.0
 11
1505.148654620031
 21
3309.3923672445471
 31
0.0
1001
REVIT
1002
{
1070
     3
1000
241982
1002
}
  0
LINE
  5
24B
  8
_LINES
 10
1507.548654620032
 20
3294.3923672445462
 30
0.0
 11
1507.548654620032
 21
3279.3923672445471
 31
0.0
1001
REVIT
1002
{
1070
     3
1000
241982
1002
}
  0
LINE
  5
24C
  8
_LINES
 10
2024.8630922281311
 20
3118.892367244548
 30
0.0
 11
2024.86309222813
 21
3022.6277218365581
 31
0.0
  0
LINE
  5
24D
  8
_LINES
 10
2024.86309222813
 20
3022.6277218365581
 30
0.0
 11
2014.270967934383
 21
3020.7600445405542
 31
0.0
  0
LINE
  5
24E
  8
_LINES
 10
2014.270967934383
 20
3020.7600445405542
 30
0.0
 11
2035.402094353434
 21
3017.0340568201132
 31
0.0
  0
LINE
  5
24F
  8
_LINES
 10
2035.402094353434
 20
3017.0340568201132
 30
0.0
 11
2024.86309222813
 21
3015.1757463956778
 31
0.0
  0
LINE
  5
250
  8
_LINES
 10
2024.86309222813
 20
3015.1757463956778
 30
0.0
 11
2024.8630922281279
 21
2918.892367244548
 31
0.0
  0
LINE
  5
251
  8
_LINES
 10
1854.9486546200339
 20
2944.3923672445462
 30
0.0
 11
2024.8630922281279
 21
2944.392367244549
 31
0.0
1001
REVIT
1002
{
1070
     3
1000
241982
1002
}
  0
LINE
  5
252
  8
_LINES
 10
1852.9486546200339
 20
2963.7923672445449
 30
0.0
 11
1852.9486546200339
 21
2946.392367244548
 31
0.0
1001
REVIT
1002
{
1070
     3
1000
241982
1002
}
  0
ARC
  5
253
  8
_LINES
 10
1854.9486546200339
 20
2946.392367244548
 30
0.0
 40
1.9999999999999429
 50
180.0
 51
270.0
1001
REVIT
1002
{
1070
     3
1000
241982
1002
}
  0
LINE
  5
254
  8
_LINES
 10
2024.8630922281291
 20
2964.392367244549
 30
0.0
 11
2015.5486546200329
 21
2964.3923672445499
 31
0.0
1001
REVIT
1002
{
1070
     3
1000
241982
1002
}
  0
LINE
  5
255
  8
_LINES
 10
2024.8630922281291
 20
2966.5923672445469
 30
0.0
 11
2015.5486546200329
 21
2966.5923672445469
 31
0.0
1001
REVIT
1002
{
1070
     3
1000
241982
1002
}
  0
ARC
  5
256
  8
_LINES
 10
2015.5486546200329
 20
2965.4923672445489
 30
0.0
 40
1.0999999999994829
 50
90.0
 51
270.0
1001
REVIT
1002
{
1070
     3
1000
241982
1002
}
  0
LINE
  5
257
  8
_LINES
 10
1850.9486546200339
 20
2965.7923672445459
 30
0.0
 11
1820.586810344749
 21
2965.7923672445459
 31
0.0
1001
REVIT
1002
{
1070
     3
1000
241982
1002
}
  0
ARC
  5
258
  8
_LINES
 10
1850.9486546200339
 20
2963.7923672445449
 30
0.0
 40
1.999999999999954
 50
0.0
 51
90.0
1001
REVIT
1002
{
1070
     3
1000
241982
1002
}
  0
LINE
  5
259
  8
_LINES
 10
1814.948654620033
 20
2965.7923672445459
 30
0.0
 11
1817.767732482391
 21
2964.7663068145689
 31
0.0
1001
REVIT
1002
{
1070
     3
1000
241982
1002
}
  0
LINE
  5
25A
  8
_LINES
 10
1820.586810344749
 20
2965.7923672445459
 30
0.0
 11
1817.767732482391
 21
2964.7663068145689
 31
0.0
1001
REVIT
1002
{
1070
     3
1000
241982
1002
}
  0
LINE
  5
25B
  8
_LINES
 10
1644.9486546200351
 20
2944.3923672445462
 30
0.0
 11
1840.9486546200351
 21
2944.3923672445499
 31
0.0
1001
REVIT
1002
{
1070
     3
1000
241982
1002
}
  0
LINE
  5
25C
  8
_LINES
 10
1642.9486546200351
 20
2963.7923672445459
 30
0.0
 11
1642.9486546200339
 21
2946.392367244548
 31
0.0
1001
REVIT
1002
{
1070
     3
1000
241982
1002
}
  0
ARC
  5
25D
  8
_LINES
 10
1644.9486546200351
 20
2946.392367244548
 30
0.0
 40
1.9999999999999429
 50
180.0
 51
270.0
1001
REVIT
1002
{
1070
     3
1000
241982
1002
}
  0
ARC
  5
25E
  8
_LINES
 10
1840.9486546200351
 20
2946.392367244548
 30
0.0
 40
1.99999999999995
 50
270.0
 51
0.0
1001
REVIT
1002
{
1070
     3
1000
241982
1002
}
  0
LINE
  5
25F
  8
_LINES
 10
1842.9486546200351
 20
2962.392367244549
 30
0.0
 11
1842.9486546200351
 21
2946.392367244548
 31
0.0
1001
REVIT
1002
{
1070
     3
1000
241982
1002
}
  0
ARC
  5
260
  8
_LINES
 10
1840.948654620036
 20
2962.392367244549
 30
0.0
 40
1.9999999999999529
 50
0.0
 51
90.0
1001
REVIT
1002
{
1070
     3
1000
241982
1002
}
  0
LINE
  5
261
  8
_LINES
 10
1840.948654620036
 20
2964.392367244549
 30
0.0
 11
1805.5486546200329
 21
2964.3923672445499
 31
0.0
1001
REVIT
1002
{
1070
     3
1000
241982
1002
}
  0
LINE
  5
262
  8
_LINES
 10
1847.9486546200351
 20
2966.5923672445479
 30
0.0
 11
1805.5486546200329
 21
2966.5923672445479
 31
0.0
1001
REVIT
1002
{
1070
     3
1000
241982
1002
}
  0
ARC
  5
263
  8
_LINES
 10
1805.5486546200329
 20
2965.4923672445502
 30
0.0
 40
1.0999999999994829
 50
90.0
 51
270.0
1001
REVIT
1002
{
1070
     3
1000
241982
1002
}
  0
LINE
  5
264
  8
_LINES
 10
1862.9486546200351
 20
2968.9923672445489
 30
0.0
 11
1847.9486546200351
 21
2966.5923672445479
 31
0.0
1001
REVIT
1002
{
1070
     3
1000
241982
1002
}
  0
LINE
  5
265
  8
_LINES
 10
1640.9486546200351
 20
2965.7923672445459
 30
0.0
 11
1610.5868103447499
 21
2965.7923672445459
 31
0.0
1001
REVIT
1002
{
1070
     3
1000
241982
1002
}
  0
ARC
  5
266
  8
_LINES
 10
1640.9486546200351
 20
2963.7923672445459
 30
0.0
 40
1.999999999999954
 50
0.0
 51
90.0
1001
REVIT
1002
{
1070
     3
1000
241982
1002
}
  0
LINE
  5
267
  8
_LINES
 10
1604.9486546200339
 20
2965.7923672445459
 30
0.0
 11
1607.7677324823919
 21
2964.7663068145689
 31
0.0
1001
REVIT
1002
{
1070
     3
1000
241982
1002
}
  0
LINE
  5
268
  8
_LINES
 10
1610.5868103447499
 20
2965.7923672445459
 30
0.0
 11
1607.7677324823919
 21
2964.7663068145689
 31
0.0
1001
REVIT
1002
{
1070
     3
1000
241982
1002
}
  0
LINE
  5
269
  8
_LINES
 10
1862.9486546200351
 20
2968.9923672445489
 30
0.0
 11
1877.9486546200351
 21
2968.9923672445489
 31
0.0
1001
REVIT
1002
{
1070
     3
1000
241982
1002
}
  0
LINE
  5
26A
  8
_LINES
 10
1482.9486546200289
 20
3302.392367244549
 30
0.0
 11
1482.948654620033
 21
3106.3923672445471
 31
0.0
1001
REVIT
1002
{
1070
     3
1000
241982
1002
}
  0
LINE
  5
26B
  8
_LINES
 10
1502.348654620029
 20
3304.392367244548
 30
0.0
 11
1484.9486546200319
 21
3304.392367244548
 31
0.0
1001
REVIT
1002
{
1070
     3
1000
241982
1002
}
  0
ARC
  5
26C
  8
_LINES
 10
1484.9486546200319
 20
3302.392367244549
 30
0.0
 40
1.999999999999942
 50
90.0
 51
180.0
1001
REVIT
1002
{
1070
     3
1000
241982
1002
}
  0
ARC
  5
26D
  8
_LINES
 10
1484.948654620031
 20
3106.3923672445471
 30
0.0
 40
1.99999999999995
 50
180.0
 51
270.0
1001
REVIT
1002
{
1070
     3
1000
241982
1002
}
  0
LINE
  5
26E
  8
_LINES
 10
1500.948654620031
 20
3104.3923672445471
 30
0.0
 11
1484.948654620031
 21
3104.3923672445471
 31
0.0
1001
REVIT
1002
{
1070
     3
1000
241982
1002
}
  0
ARC
  5
26F
  8
_LINES
 10
1500.948654620031
 20
3106.3923672445471
 30
0.0
 40
1.9999999999999529
 50
270.0
 51
0.0
1001
REVIT
1002
{
1070
     3
1000
241982
1002
}
  0
LINE
  5
270
  8
_LINES
 10
1502.948654620031
 20
3106.3923672445471
 30
0.0
 11
1502.948654620033
 21
3141.792367244549
 31
0.0
1001
REVIT
1002
{
1070
     3
1000
241982
1002
}
  0
LINE
  5
271
  8
_LINES
 10
1505.1486546200299
 20
3099.392367244548
 30
0.0
 11
1505.148654620031
 21
3141.792367244549
 31
0.0
1001
REVIT
1002
{
1070
     3
1000
241982
1002
}
  0
ARC
  5
272
  8
_LINES
 10
1504.048654620032
 20
3141.792367244549
 30
0.0
 40
1.0999999999994821
 50
0.0
 51
180.0
1001
REVIT
1002
{
1070
     3
1000
241982
1002
}
  0
LINE
  5
273
  8
_LINES
 10
1507.5486546200309
 20
3084.3923672445471
 30
0.0
 11
1505.1486546200299
 21
3099.392367244548
 31
0.0
1001
REVIT
1002
{
1070
     3
1000
241982
1002
}
  0
LINE
  5
274
  8
_LINES
 10
1504.348654620029
 20
3306.392367244548
 30
0.0
 11
1504.3486546200299
 21
3336.754211519833
 31
0.0
1001
REVIT
1002
{
1070
     3
1000
241982
1002
}
  0
ARC
  5
275
  8
_LINES
 10
1502.348654620029
 20
3306.392367244548
 30
0.0
 40
1.9999999999999529
 50
270.0
 51
0.0
1001
REVIT
1002
{
1070
     3
1000
241982
1002
}
  0
LINE
  5
276
  8
_LINES
 10
1504.3486546200299
 20
3342.392367244548
 30
0.0
 11
1503.322594190053
 21
3339.5732893821901
 31
0.0
1001
REVIT
1002
{
1070
     3
1000
241982
1002
}
  0
LINE
  5
277
  8
_LINES
 10
1504.3486546200299
 20
3336.754211519833
 30
0.0
 11
1503.322594190053
 21
3339.5732893821901
 31
0.0
1001
REVIT
1002
{
1070
     3
1000
241982
1002
}
  0
LINE
  5
278
  8
_LINES
 10
1507.5486546200309
 20
3084.3923672445471
 30
0.0
 11
1507.5486546200309
 21
3069.3923672445471
 31
0.0
1001
REVIT
1002
{
1070
     3
1000
241982
1002
}
  0
LINE
  5
279
  8
_LINES
 10
1482.9486546200351
 20
2944.3923672445471
 30
0.0
 11
1630.9486546200351
 21
2944.3923672445499
 31
0.0
1001
REVIT
1002
{
1070
     3
1000
241982
1002
}
  0
LINE
  5
27A
  8
_LINES
 10
1502.3486546200311
 20
3094.392367244549
 30
0.0
 11
1484.9486546200339
 21
3094.392367244548
 31
0.0
1001
REVIT
1002
{
1070
     3
1000
241982
1002
}
  0
ARC
  5
27B
  8
_LINES
 10
1484.9486546200339
 20
3092.392367244548
 30
0.0
 40
1.999999999999944
 50
90.0
 51
180.0
1001
REVIT
1002
{
1070
     3
1000
241982
1002
}
  0
ARC
  5
27C
  8
_LINES
 10
1630.9486546200351
 20
2946.392367244548
 30
0.0
 40
1.9999999999999509
 50
270.0
 51
0.0
1001
REVIT
1002
{
1070
     3
1000
241982
1002
}
  0
LINE
  5
27D
  8
_LINES
 10
1632.9486546200351
 20
2962.392367244549
 30
0.0
 11
1632.9486546200351
 21
2946.392367244548
 31
0.0
1001
REVIT
1002
{
1070
     3
1000
241982
1002
}
  0
ARC
  5
27E
  8
_LINES
 10
1630.9486546200351
 20
2962.392367244549
 30
0.0
 40
1.999999999999954
 50
0.0
 51
90.0
1001
REVIT
1002
{
1070
     3
1000
241982
1002
}
  0
LINE
  5
27F
  8
_LINES
 10
1630.9486546200351
 20
2964.392367244549
 30
0.0
 11
1595.5486546200329
 21
2964.3923672445499
 31
0.0
1001
REVIT
1002
{
1070
     3
1000
241982
1002
}
  0
LINE
  5
280
  8
_LINES
 10
1637.9486546200351
 20
2966.5923672445479
 30
0.0
 11
1595.5486546200329
 21
2966.5923672445479
 31
0.0
1001
REVIT
1002
{
1070
     3
1000
241982
1002
}
  0
ARC
  5
281
  8
_LINES
 10
1595.5486546200329
 20
2965.4923672445502
 30
0.0
 40
1.0999999999994829
 50
90.0
 51
270.0
1001
REVIT
1002
{
1070
     3
1000
241982
1002
}
  0
LINE
  5
282
  8
_LINES
 10
1652.9486546200351
 20
2968.392367244548
 30
0.0
 11
1667.9486546200351
 21
2968.392367244548
 31
0.0
1001
REVIT
1002
{
1070
     3
1000
241982
1002
}
  0
LINE
  5
283
  8
_LINES
 10
1652.9486546200351
 20
2968.392367244548
 30
0.0
 11
1637.9486546200351
 21
2966.5923672445479
 31
0.0
1001
REVIT
1002
{
1070
     3
1000
241982
1002
}
  0
LINE
  5
284
  8
_LINES
 10
1504.3486546200311
 20
3096.392367244548
 30
0.0
 11
1504.3486546200311
 21
3126.754211519833
 31
0.0
1001
REVIT
1002
{
1070
     3
1000
241982
1002
}
  0
ARC
  5
285
  8
_LINES
 10
1502.3486546200311
 20
3096.392367244548
 30
0.0
 40
1.999999999999938
 50
270.0
 51
0.0
1001
REVIT
1002
{
1070
     3
1000
241982
1002
}
  0
LINE
  5
286
  8
_LINES
 10
1504.3486546200311
 20
3132.392367244548
 30
0.0
 11
1503.3225941900539
 21
3129.5732893821901
 31
0.0
1001
REVIT
1002
{
1070
     3
1000
241982
1002
}
  0
LINE
  5
287
  8
_LINES
 10
1504.3486546200311
 20
3126.754211519833
 30
0.0
 11
1503.3225941900539
 21
3129.5732893821901
 31
0.0
1001
REVIT
1002
{
1070
     3
1000
241982
1002
}
  0
LINE
  5
288
  8
_LINES
 10
1482.9486546200351
 20
2944.3923672445471
 30
0.0
 11
1482.9486546200351
 21
3092.392367244548
 31
0.0
1001
REVIT
1002
{
1070
     3
1000
241982
1002
}
  0
LINE
  5
289
  8
_LINES
 10
1830.9486546200301
 20
2971.3923672445471
 30
0.0
 11
1830.9486546200301
 21
2991.3923672445471
 31
0.0
  0
LINE
  5
28A
  8
_LINES
 10
1830.9486546200301
 20
2991.3923672445471
 30
0.0
 11
1785.9486546200301
 21
2991.3923672445471
 31
0.0
  0
LINE
  5
28B
  8
_LINES
 10
1785.9486546200301
 20
2991.3923672445471
 30
0.0
 11
1785.9486546200301
 21
2971.3923672445471
 31
0.0
  0
LINE
  5
28C
  8
_LINES
 10
1785.9486546200301
 20
2971.3923672445471
 30
0.0
 11
1830.9486546200301
 21
2971.3923672445471
 31
0.0
  0
LINE
  5
28D
  8
_LINES
 10
1785.9486546200301
 20
2991.3923672445471
 30
0.0
 11
1830.9486546200301
 21
2971.3923672445471
 31
0.0
  0
LINE
  5
28E
  8
_LINES
 10
1830.9486546200301
 20
2991.3923672445471
 30
0.0
 11
1785.9486546200301
 21
2971.3923672445471
 31
0.0
  0
LINE
  5
28F
  8
_LINES
  6
DASH
 10
1532.948654620031
 20
2993.392367244549
 30
0.0
 11
2024.86309222813
 21
2993.392367244549
 31
0.0
1001
REVIT
1002
{
1070
     3
1000
247276
1002
}
  0
LINE
  5
290
  8
_LINES
 10
1580.9486546200301
 20
2971.3923672445471
 30
0.0
 11
1580.9486546200301
 21
2991.3923672445471
 31
0.0
  0
LINE
  5
291
  8
_LINES
 10
1580.9486546200301
 20
2991.3923672445471
 30
0.0
 11
1535.9486546200301
 21
2991.3923672445471
 31
0.0
  0
LINE
  5
292
  8
_LINES
 10
1535.9486546200301
 20
2991.3923672445471
 30
0.0
 11
1535.9486546200301
 21
2971.3923672445471
 31
0.0
  0
LINE
  5
293
  8
_LINES
 10
1535.9486546200301
 20
2971.3923672445471
 30
0.0
 11
1580.9486546200301
 21
2971.3923672445471
 31
0.0
  0
LINE
  5
294
  8
_LINES
 10
1535.9486546200301
 20
2991.3923672445471
 30
0.0
 11
1580.9486546200301
 21
2971.3923672445471
 31
0.0
  0
LINE
  5
295
  8
_LINES
 10
1580.9486546200301
 20
2991.3923672445471
 30
0.0
 11
1535.9486546200301
 21
2971.3923672445471
 31
0.0
  0
INSERT
  5
296
  8
_HATCH
  6
CONTINUOUS
  2
*X28
 10
0.0
 20
0.0
 30
0.0
1001
ACAD
1000
HATCH
1002
{
1070
    19
1000
FP_4
1040
1.0
1040
3.1415926535897931
1000
R14_HATCH_DATA
1000
296
1011
1.0
1021
0.0
1031
0.0
1021
0.0
1031
0.0
1011
0.0
1021
0.0
1031
0.0
1021
1.0
1031
0.0
1011
0.0
1021
0.0
1031
0.0
1021
0.0
1031
1.0
1040
0.0
1010
0.0
1020
0.0
1030
1.0
1000
FP_4
1070
     0
1070
     0
1071
        2
1071
        0
1071
        4
1070
     1
1040
2024.8630922281311
1040
2971.3923672445512
1040
2024.8630922281311
1040
2991.3923672445512
1070
     1
1040
2024.8630922281311
1040
2991.3923672445512
1040
1830.9486546200319
1040
2991.3923672445512
1070
     1
1040
1830.9486546200319
1040
2991.3923672445521
1040
1830.9486546200319
1040
2971.3923672445512
1070
     1
1040
1830.9486546200319
1040
2971.3923672445512
1040
2024.8630922281311
1040
2971.3923672445512
1071
        0
1071
        0
1071
        4
1070
     1
1040
1785.9486546200319
1040
2971.3923672445512
1040
1785.9486546200319
1040
2991.3923672445512
1070
     1
1040
1785.9486546200319
1040
2991.3923672445512
1040
1580.9486546200319
1040
2991.3923672445512
1070
     1
1040
1580.9486546200319
1040
2991.3923672445512
1040
1580.9486546200319
1040
2971.3923672445512
1070
     1
1040
1580.9486546200319
1040
2971.3923672445512
1040
1785.9486546200319
1040
2971.3923672445512
1071
        0
1070
     0
1070
     2
1040
3.1415926535897931
1040
1.0
1070
     0
1070
     2
1040
6.2831853071795862
1040
0.0004451344207155
1040
0.0003672445463963
1040
0.0
1040
12.0
1070
     0
1040
1.5707963267948959
1040
0.0004451344207155
1040
0.0003672445463963
1040
-12.0
1040
0.0000000000000007
1070
     0
1071
        1
1040
1854.027445134421
1040
2981.3923672445471
1040
0.0
1002
}
  0
LINE
  5
297
  8
_LINES
 10
1580.948654620031
 20
2971.392367244548
 30
0.0
 11
1785.9486546200301
 21
2971.392367244548
 31
0.0
  0
LINE
  5
298
  8
_LINES
 10
1830.9486546200301
 20
2971.392367244548
 30
0.0
 11
2024.8630922281291
 21
2971.392367244548
 31
0.0
  0
LINE
  5
299
  8
_LINES
 10
2024.86309222813
 20
2991.392367244548
 30
0.0
 11
1830.9486546200301
 21
2991.392367244548
 31
0.0
  0
LINE
  5
29A
  8
_LINES
 10
1785.9486546200301
 20
2991.392367244548
 30
0.0
 11
1580.948654620031
 21
2991.392367244548
 31
0.0
  0
LINE
  5
29B
  8
_LINES
 10
1670.948654620031
 20
2995.3923672445439
 30
0.0
 11
2024.86309222813
 21
2995.3923672445439
 31
0.0
  0
LINE
  5
29C
  8
_LINES
 10
2024.86309222813
 20
3085.3923672445439
 30
0.0
 11
1670.948654620031
 21
3085.3923672445439
 31
0.0
  0
LINE
  5
29D
  8
_LINES
 10
1670.948654620031
 20
3085.3923672445439
 30
0.0
 11
1670.948654620031
 21
2995.3923672445439
 31
0.0
  0
INSERT
  5
29E
  8
_HATCH
  6
CONTINUOUS
  2
*X29
 10
0.0
 20
0.0
 30
0.0
1001
ACAD
1000
HATCH
1002
{
1070
    19
1000
FP_3
1040
1.0
1040
3.1415926535897931
1000
R14_HATCH_DATA
1000
29E
1011
1.0
1021
0.0
1031
0.0
1021
0.0
1031
0.0
1011
0.0
1021
0.0
1031
0.0
1021
1.0
1031
0.0
1011
0.0
1021
0.0
1031
0.0
1021
0.0
1031
1.0
1040
0.0
1010
0.0
1020
0.0
1030
1.0
1000
FP_3
1070
     0
1070
     0
1071
        1
1071
        0
1071
        4
1070
     1
1040
2024.8630922281329
1040
3089.392367244548
1040
2024.8630922281329
1040
3099.392367244548
1070
     1
1040
2024.8630922281329
1040
3099.392367244549
1040
1629.948654620033
1040
3099.392367244549
1070
     1
1040
1629.948654620033
1040
3099.392367244548
1040
1629.948654620033
1040
3089.392367244548
1070
     1
1040
1629.948654620033
1040
3089.392367244548
1040
2024.8630922281329
1040
3089.392367244548
1071
        0
1070
     0
1070
     2
1040
3.1415926535897931
1040
1.0
1070
     0
1070
     9
1040
6.2831853071795862
1040
0.000445134421625
1040
0.0003672445454868
1040
20.32
1040
5.0800000000000001
1070
     5
1040
1.675999999999999
1040
-13.564
1040
1.675999999999999
1040
-13.564
1040
-81.280000000000001
1040
6.2831853071795862
1040
0.000445134421625
1040
0.0003672445454868
1040
20.32
1040
5.0800000000000001
1070
     6
1040
-30.48
1040
1.675999999999999
1040
-28.803999999999998
1040
1.675999999999999
1040
-13.564
1040
-35.560000000000002
1040
6.2831853071795862
1040
0.000445134421625
1040
0.0003672445454868
1040
20.32
1040
5.0800000000000001
1070
     5
1040
-76.200000000000003
1040
1.675999999999999
1040
-8.4839999999999982
1040
1.675999999999999
1040
-23.724
1040
2.0943951023931948
1040
7.6204451344215149
1040
2.5403672445454499
1040
-14.55940905122495
1040
15.05763620489979
1070
     5
1040
1.675999999999999
1040
-13.564
1040
1.675999999999999
1040
-13.564
1040
-81.280000000000001
1040
2.0943951023931948
1040
7.6204451344215149
1040
2.5403672445454499
1040
-14.55940905122495
1040
15.05763620489979
1070
     6
1040
-30.48
1040
1.675999999999999
1040
-28.803999999999998
1040
1.675999999999999
1040
-13.564
1040
-35.560000000000002
1040
2.0943951023931948
1040
7.6204451344215149
1040
2.5403672445454499
1040
-14.55940905122495
1040
15.05763620489979
1070
     5
1040
-76.200000000000003
1040
1.675999999999999
1040
-8.4839999999999982
1040
1.675999999999999
1040
-23.724
1040
4.1887902047863896
1040
10.160445134421479
1040
12.70036724454576
1040
-5.7605909487750564
1040
-20.137636204899788
1070
     5
1040
1.675999999999999
1040
-13.564
1040
1.675999999999999
1040
-13.564
1040
-81.279999999999987
1040
4.1887902047863896
1040
10.160445134421479
1040
12.70036724454576
1040
-5.7605909487750564
1040
-20.137636204899788
1070
     6
1040
-30.48
1040
1.675999999999999
1040
-28.803999999999998
1040
1.675999999999999
1040
-13.564
1040
-35.560000000000002
1040
4.1887902047863896
1040
10.160445134421479
1040
12.70036724454576
1040
-5.7605909487750564
1040
-20.137636204899788
1070
     5
1040
-76.199999999999989
1040
1.675999999999999
1040
-8.4839999999999982
1040
1.675999999999999
1040
-23.724
1071
        1
1040
1878.5274451344219
1040
3094.3923672445449
1040
0.0
1002
}
  0
LINE
  5
29F
  8
_LINES
 10
1629.948654620031
 20
3099.3923672445462
 30
0.0
 11
1629.948654620031
 21
3089.3923672445462
 31
0.0
  0
LINE
  5
2A0
  8
_LINES
 10
1629.948654620031
 20
3089.3923672445462
 30
0.0
 11
2024.8630922281311
 21
3089.3923672445462
 31
0.0
  0
LINE
  5
2A1
  8
_LINES
 10
2024.8630922281311
 20
3099.3923672445462
 30
0.0
 11
1629.948654620031
 21
3099.3923672445462
 31
0.0
  0
LINE
  5
2A2
  8
_LINES
 10
1670.9486546200301
 20
3085.3923672445471
 30
0.0
 11
1625.948654620031
 21
3085.3923672445471
 31
0.0
  0
LINE
  5
2A3
  8
_LINES
 10
1625.948654620031
 20
3085.3923672445471
 30
0.0
 11
1625.948654620031
 21
2995.392367244548
 31
0.0
  0
LINE
  5
2A4
  8
_LINES
 10
1625.948654620031
 20
2995.392367244548
 30
0.0
 11
1670.9486546200301
 21
2995.392367244548
 31
0.0
  0
LINE
  5
2A5
  8
_LINES
 10
1625.948654620031
 20
2995.392367244548
 30
0.0
 11
1670.9486546200301
 21
3085.3923672445471
 31
0.0
  0
LINE
  5
2A6
  8
_LINES
 10
1625.9486546200301
 20
3085.392367244548
 30
0.0
 11
1670.948654620031
 21
2995.392367244548
 31
0.0
  0
LINE
  5
2A7
  8
_LINES
 10
1625.948654620031
 20
3040.392367244548
 30
0.0
 11
1535.948654620031
 21
3040.392367244548
 31
0.0
  0
LINE
  5
2A8
  8
_LINES
 10
1535.948654620031
 20
3040.392367244548
 30
0.0
 11
1535.948654620031
 21
2995.392367244548
 31
0.0
  0
LINE
  5
2A9
  8
_LINES
 10
1535.948654620031
 20
2995.392367244548
 30
0.0
 11
1625.948654620031
 21
2995.392367244548
 31
0.0
  0
LINE
  5
2AA
  8
_LINES
 10
1535.948654620031
 20
3040.392367244548
 30
0.0
 11
1625.948654620031
 21
2995.392367244548
 31
0.0
  0
LINE
  5
2AB
  8
_LINES
 10
1625.948654620031
 20
3040.392367244548
 30
0.0
 11
1535.9486546200301
 21
2995.392367244548
 31
0.0
  0
LINE
  5
2AC
  8
_LINES
 10
1625.948654620031
 20
3085.392367244549
 30
0.0
 11
1535.948654620031
 21
3085.392367244549
 31
0.0
  0
LINE
  5
2AD
  8
_LINES
 10
1535.948654620031
 20
3085.392367244549
 30
0.0
 11
1535.948654620031
 21
3040.392367244549
 31
0.0
  0
LINE
  5
2AE
  8
_LINES
 10
1535.948654620031
 20
3085.392367244549
 30
0.0
 11
1625.948654620031
 21
3040.392367244549
 31
0.0
  0
LINE
  5
2AF
  8
_LINES
 10
1625.948654620031
 20
3085.3923672445499
 30
0.0
 11
1535.9486546200301
 21
3040.392367244549
 31
0.0
  0
LINE
  5
2B0
  8
_LINES
 10
1625.948654620031
 20
3085.392367244549
 30
0.0
 11
1625.948654620031
 21
3130.392367244549
 31
0.0
  0
LINE
  5
2B1
  8
_LINES
 10
1625.948654620031
 20
3130.392367244549
 30
0.0
 11
1535.948654620031
 21
3130.392367244549
 31
0.0
  0
LINE
  5
2B2
  8
_LINES
 10
1535.948654620031
 20
3130.392367244549
 30
0.0
 11
1535.948654620031
 21
3085.392367244549
 31
0.0
  0
LINE
  5
2B3
  8
_LINES
 10
1535.948654620031
 20
3130.392367244549
 30
0.0
 11
1625.948654620031
 21
3085.392367244549
 31
0.0
  0
LINE
  5
2B4
  8
_LINES
 10
1625.948654620031
 20
3130.3923672445499
 30
0.0
 11
1535.9486546200301
 21
3085.392367244549
 31
0.0
  0
INSERT
  5
2B5
  8
_HATCH
  6
CONTINUOUS
  2
*X30
 10
0.0
 20
0.0
 30
0.0
1001
ACAD
1000
HATCH
1002
{
1070
    19
1000
FP_2
1040
1.0
1040
1.5707963267948899
1000
R14_HATCH_DATA
1000
2B5
1011
1.0
1021
0.0
1031
0.0
1021
0.0
1031
0.0
1011
0.0
1021
0.0
1031
0.0
1021
1.0
1031
0.0
1011
0.0
1021
0.0
1031
0.0
1021
0.0
1031
1.0
1040
0.0
1010
0.0
1020
0.0
1030
1.0
1000
FP_2
1070
     0
1070
     0
1071
        1
1071
        0
1071
        4
1070
     1
1040
1639.9486546200319
1040
3099.3923672445499
1040
1639.9486546200339
1040
3513.1654004176162
1070
     1
1040
1639.9486546200339
1040
3513.1654004176162
1040
1629.9486546200339
1040
3513.1654004176162
1070
     1
1040
1629.9486546200339
1040
3513.1654004176162
1040
1629.9486546200319
1040
3099.3923672445499
1070
     1
1040
1629.9486546200319
1040
3099.3923672445512
1040
1639.9486546200319
1040
3099.3923672445512
1071
        0
1070
     0
1070
     2
1040
1.5707963267948899
1040
1.0
1070
     0
1070
     9
1040
6.28318530717958
1040
-0.0003453799872659
1040
-0.0000932757548071
1040
20.320000000000029
1040
5.0799999999998819
1070
     5
1040
1.675999999999999
1040
-13.564
1040
1.675999999999999
1040
-13.564
1040
-81.280000000000001
1040
6.28318530717958
1040
-0.0003453799872659
1040
-0.0000932757548071
1040
20.320000000000029
1040
5.0799999999998819
1070
     6
1040
-30.48
1040
1.675999999999999
1040
-28.803999999999998
1040
1.675999999999999
1040
-13.564
1040
-35.560000000000002
1040
6.28318530717958
1040
-0.0003453799872659
1040
-0.0000932757548071
1040
20.320000000000029
1040
5.0799999999998819
1070
     5
1040
-76.200000000000003
1040
1.675999999999999
1040
-8.4839999999999982
1040
1.675999999999999
1040
-23.724
1040
2.094395102393189
1040
7.6196546200126241
1040
2.5399067242451561
1040
-14.55940905122486
1040
15.057636204899881
1070
     5
1040
1.675999999999999
1040
-13.564
1040
1.675999999999999
1040
-13.564
1040
-81.279999999999987
1040
2.094395102393189
1040
7.6196546200126241
1040
2.5399067242451561
1040
-14.55940905122486
1040
15.057636204899881
1070
     6
1040
-30.48
1040
1.675999999999999
1040
-28.803999999999998
1040
1.675999999999999
1040
-13.564
1040
-35.560000000000002
1040
2.094395102393189
1040
7.6196546200126241
1040
2.5399067242451561
1040
-14.55940905122486
1040
15.057636204899881
1070
     5
1040
-76.199999999999989
1040
1.675999999999999
1040
-8.4839999999999982
1040
1.675999999999999
1040
-23.724
1040
4.1887902047863852
1040
10.15965462001259
1040
12.699906724245009
1040
-5.7605909487751656
1040
-20.13763620489976
1070
     5
1040
1.675999999999999
1040
-13.564
1040
1.675999999999999
1040
-13.564
1040
-81.280000000000001
1040
4.1887902047863852
1040
10.15965462001259
1040
12.699906724245009
1040
-5.7605909487751656
1040
-20.13763620489976
1070
     6
1040
-30.48
1040
1.675999999999999
1040
-28.803999999999998
1040
1.675999999999999
1040
-13.564
1040
-35.560000000000002
1040
4.1887902047863852
1040
10.15965462001259
1040
12.699906724245009
1040
-5.7605909487751656
1040
-20.13763620489976
1070
     5
1040
-76.200000000000003
1040
1.675999999999999
1040
-8.4839999999999982
1040
1.675999999999999
1040
-23.724
1071
        1
1040
1634.9486546200319
1040
3322.2569067242362
1040
0.0
1002
}
  0
LINE
  5
2B6
  8
_LINES
 10
1629.948654620033
 20
3513.165400417613
 30
0.0
 11
1629.9486546200301
 21
3099.392367244548
 31
0.0
  0
LINE
  5
2B7
  8
_LINES
 10
1629.9486546200301
 20
3099.392367244548
 30
0.0
 11
1639.9486546200301
 21
3099.392367244548
 31
0.0
  0
LINE
  5
2B8
  8
_LINES
 10
1639.9486546200301
 20
3099.392367244548
 30
0.0
 11
1639.948654620033
 21
3513.165400417613
 31
0.0
  0
LINE
  5
2B9
  8
_LINES
 10
1625.948654620031
 20
3130.392367244549
 30
0.0
 11
1625.9486546200319
 21
3513.1654004176121
 31
0.0
  0
LINE
  5
2BA
  8
_LINES
 10
1535.9486546200319
 20
3513.1654004176139
 30
0.0
 11
1535.9486546200301
 21
3130.3923672445499
 31
0.0
  0
LINE
  5
2BB
  8
_LINES
 10
1529.948654620031
 20
3040.3923672445499
 30
0.0
 11
1509.948654620031
 21
3040.3923672445499
 31
0.0
  0
LINE
  5
2BC
  8
_LINES
 10
1509.948654620031
 20
3040.3923672445499
 30
0.0
 11
1509.948654620031
 21
2995.3923672445499
 31
0.0
  0
LINE
  5
2BD
  8
_LINES
 10
1509.948654620031
 20
2995.3923672445499
 30
0.0
 11
1529.948654620031
 21
2995.3923672445499
 31
0.0
  0
LINE
  5
2BE
  8
_LINES
 10
1529.948654620031
 20
2995.3923672445499
 30
0.0
 11
1529.948654620031
 21
3040.3923672445499
 31
0.0
  0
LINE
  5
2BF
  8
_LINES
 10
1509.948654620031
 20
2995.3923672445499
 30
0.0
 11
1529.948654620031
 21
3040.3923672445499
 31
0.0
  0
LINE
  5
2C0
  8
_LINES
 10
1509.948654620031
 20
3040.392367244549
 30
0.0
 11
1529.948654620031
 21
2995.392367244549
 31
0.0
  0
LINE
  5
2C1
  8
_LINES
  6
DASH
 10
1532.9486546200301
 20
2993.392367244549
 30
0.0
 11
1532.948654620031
 21
3513.165400417613
 31
0.0
1001
REVIT
1002
{
1070
     3
1000
247276
1002
}
  0
INSERT
  5
2C2
  8
_HATCH
  6
CONTINUOUS
  2
*X31
 10
0.0
 20
0.0
 30
0.0
1001
ACAD
1000
HATCH
1002
{
1070
    19
1000
FP_1
1040
1.0
1040
-1.570796326794899
1000
R14_HATCH_DATA
1000
2C2
1011
1.0
1021
0.0
1031
0.0
1021
0.0
1031
0.0
1011
0.0
1021
0.0
1031
0.0
1021
1.0
1031
0.0
1011
0.0
1021
0.0
1031
0.0
1021
0.0
1031
1.0
1040
0.0
1010
0.0
1020
0.0
1030
1.0
1000
FP_1
1070
     0
1070
     0
1071
        1
1071
        0
1071
        4
1070
     1
1040
1529.948654620031
1040
3040.392367244553
1040
1529.9486546200319
1040
3513.1654004176162
1070
     1
1040
1529.9486546200319
1040
3513.1654004176162
1040
1509.9486546200319
1040
3513.1654004176162
1070
     1
1040
1509.9486546200319
1040
3513.1654004176162
1040
1509.948654620031
1040
3040.392367244553
1070
     1
1040
1509.948654620031
1040
3040.392367244553
1040
1529.948654620031
1040
3040.392367244553
1071
        0
1070
     0
1070
     2
1040
-1.570796326794899
1040
1.0
1070
     0
1070
     2
1040
6.2831853071795827
1040
-0.0003453799777162
1040
-0.0000932757579903
1040
0.0000000000000349
1040
12.0
1070
     0
1040
1.5707963267948959
1040
-0.0003453799777162
1040
-0.0000932757579903
1040
-12.0
1040
0.0000000000000327
1070
     0
1071
        1
1040
1519.948654620031
1040
3292.756906724238
1040
0.0
1002
}
  0
LINE
  5
2C3
  8
_LINES
 10
1529.9486546200289
 20
3040.3923672445499
 30
0.0
 11
1529.948654620031
 21
3513.1654004176139
 31
0.0
  0
LINE
  5
2C4
  8
_LINES
 10
1509.948654620031
 20
3513.1654004176139
 30
0.0
 11
1509.9486546200289
 21
3040.3923672445499
 31
0.0
  0
VIEWPORT
  5
22C
 67
     1
  8
0
 10
128.5
 20
97.5
 30
0.0
 40
625.60341753343243
 41
222.18000000000001
 68
     1
 69
     1
1001
ACAD
1000
MVIEW
1002
{
1070
    16
1010
0.0
1020
0.0
1030
0.0
1010
0.0
1020
0.0
1030
1.0
1040
0.0
1040
222.18000000000001
1040
128.5
1040
97.5
1040
50.0
1040
0.0
1040
0.0
1070
     0
1070
   100
1070
     1
1070
     1
1070
     0
1070
     0
1070
     0
1070
     0
1040
0.0
1040
0.0
1040
0.0
1040
10.0
1040
10.0
1040
10.0
1040
10.0
1070
     0
1002
{
1002
}
1002
}
  0
VIEWPORT
  5
230
 67
     1
  8
0
 10
128.5
 20
97.5
 30
0.0
 40
205.59999999999999
 41
156.0
 68
     2
 69
     2
1001
ACAD
1000
MVIEW
1002
{
1070
    16
1010
0.0
1020
0.0
1030
0.0
1010
0.0
1020
0.0
1030
1.0
1040
0.0
1040
811.34093806231226
1040
1802.605548884178
1040
3182.1254161522252
1040
50.0
1040
0.0
1040
0.0
1070
     0
1070
  1000
1070
     1
1070
     1
1070
     0
1070
     0
1070
     0
1070
     0
1040
0.0
1040
0.0
1040
0.0
1040
1.0
1040
1.0
1040
0.0
1040
0.0
1070
     0
1002
{
1002
}
1002
}
  0
ENDSEC
  0
EOF
