  0
SECTION
  2
HEADER
  9
$ACADVER
  1
AC1015
  9
$ACADMAINTVER
 70
     6
  9
$DWGCODEPAGE
  3
ANSI_949
  9
$INSBASE
 10
0.0
 20
0.0
 30
0.0
  9
$EXTMIN
 10
1.000000000000000E+20
 20
1.000000000000000E+20
 30
1.000000000000000E+20
  9
$EXTMAX
 10
-1.000000000000000E+20
 20
-1.000000000000000E+20
 30
-1.000000000000000E+20
  9
$LIMMIN
 10
0.0
 20
0.0
  9
$LIMMAX
 10
12.0
 20
9.0
  9
$ORTHOMODE
 70
     0
  9
$REGENMODE
 70
     1
  9
$FILLMODE
 70
     1
  9
$QTEXTMODE
 70
     0
  9
$MIRRTEXT
 70
     1
  9
$LTSCALE
 40
1.0
  9
$ATTMODE
 70
     1
  9
$TEXTSIZE
 40
0.2
  9
$TRACEWID
 40
0.05
  9
$TEXTSTYLE
  7
Standard
  9
$CLAYER
  8
0
  9
$CELTYPE
  6
ByLayer
  9
$CECOLOR
 62
   256
  9
$CELTSCALE
 40
1.0
  9
$DISPSILH
 70
     0
  9
$DIMSCALE
 40
1.0
  9
$DIMASZ
 40
0.18
  9
$DIMEXO
 40
0.0625
  9
$DIMDLI
 40
0.38
  9
$DIMRND
 40
0.0
  9
$DIMDLE
 40
0.0
  9
$DIMEXE
 40
0.18
  9
$DIMTP
 40
0.0
  9
$DIMTM
 40
0.0
  9
$DIMTXT
 40
0.18
  9
$DIMCEN
 40
0.09
  9
$DIMTSZ
 40
0.0
  9
$DIMTOL
 70
     0
  9
$DIMLIM
 70
     0
  9
$DIMTIH
 70
     1
  9
$DIMTOH
 70
     1
  9
$DIMSE1
 70
     0
  9
$DIMSE2
 70
     0
  9
$DIMTAD
 70
     0
  9
$DIMZIN
 70
     0
  9
$DIMBLK
  1

  9
$DIMASO
 70
     1
  9
$DIMSHO
 70
     1
  9
$DIMPOST
  1

  9
$DIMAPOST
  1

  9
$DIMALT
 70
     0
  9
$DIMALTD
 70
     2
  9
$DIMALTF
 40
25.4
  9
$DIMLFAC
 40
1.0
  9
$DIMTOFL
 70
     0
  9
$DIMTVP
 40
0.0
  9
$DIMTIX
 70
     0
  9
$DIMSOXD
 70
     0
  9
$DIMSAH
 70
     0
  9
$DIMBLK1
  1

  9
$DIMBLK2
  1

  9
$DIMSTYLE
  2
Standard
  9
$DIMCLRD
 70
     0
  9
$DIMCLRE
 70
     0
  9
$DIMCLRT
 70
     0
  9
$DIMTFAC
 40
1.0
  9
$DIMGAP
 40
0.09
  9
$DIMJUST
 70
     0
  9
$DIMSD1
 70
     0
  9
$DIMSD2
 70
     0
  9
$DIMTOLJ
 70
     1
  9
$DIMTZIN
 70
     0
  9
$DIMALTZ
 70
     0
  9
$DIMALTTZ
 70
     0
  9
$DIMUPT
 70
     0
  9
$DIMDEC
 70
     4
  9
$DIMTDEC
 70
     4
  9
$DIMALTU
 70
     2
  9
$DIMALTTD
 70
     2
  9
$DIMTXSTY
  7
Standard
  9
$DIMAUNIT
 70
     0
  9
$DIMADEC
 70
     0
  9
$DIMALTRND
 40
0.0
  9
$DIMAZIN
 70
     0
  9
$DIMDSEP
 70
    46
  9
$DIMATFIT
 70
     3
  9
$DIMFRAC
 70
     0
  9
$DIMLDRBLK
  1

  9
$DIMLUNIT
 70
     2
  9
$DIMLWD
 70
    -2
  9
$DIMLWE
 70
    -2
  9
$DIMTMOVE
 70
     0
  9
$LUNITS
 70
     2
  9
$LUPREC
 70
     4
  9
$SKETCHINC
 40
0.1
  9
$FILLETRAD
 40
0.5
  9
$AUNITS
 70
     0
  9
$AUPREC
 70
     0
  9
$MENU
  1
.
  9
$ELEVATION
 40
0.0
  9
$PELEVATION
 40
0.0
  9
$THICKNESS
 40
0.0
  9
$LIMCHECK
 70
     0
  9
$CHAMFERA
 40
0.5
  9
$CHAMFERB
 40
0.5
  9
$CHAMFERC
 40
1.0
  9
$CHAMFERD
 40
0.0
  9
$SKPOLY
 70
     0
  9
$TDCREATE
 40
2456522.591133622
  9
$TDUCREATE
 40
2456522.091133622
  9
$TDUPDATE
 40
2456522.591159838
  9
$TDUUPDATE
 40
2456522.091159838
  9
$TDINDWG
 40
0.0000000116
  9
$TDUSRTIMER
 40
0.0000000116
  9
$USRTIMER
 70
     1
  9
$ANGBASE
 50
0.0
  9
$ANGDIR
 70
     0
  9
$PDMODE
 70
     0
  9
$PDSIZE
 40
0.0
  9
$PLINEWID
 40
0.0
  9
$SPLFRAME
 70
     0
  9
$SPLINETYPE
 70
     6
  9
$SPLINESEGS
 70
     8
  9
$HANDSEED
  5
1EA
  9
$SURFTAB1
 70
     6
  9
$SURFTAB2
 70
     6
  9
$SURFTYPE
 70
     6
  9
$SURFU
 70
     6
  9
$SURFV
 70
     6
  9
$UCSBASE
  2

  9
$UCSNAME
  2

  9
$UCSORG
 10
0.0
 20
0.0
 30
0.0
  9
$UCSXDIR
 10
1.0
 20
0.0
 30
0.0
  9
$UCSYDIR
 10
0.0
 20
1.0
 30
0.0
  9
$UCSORTHOREF
  2

  9
$UCSORTHOVIEW
 70
     0
  9
$UCSORGTOP
 10
0.0
 20
0.0
 30
0.0
  9
$UCSORGBOTTOM
 10
0.0
 20
0.0
 30
0.0
  9
$UCSORGLEFT
 10
0.0
 20
0.0
 30
0.0
  9
$UCSORGRIGHT
 10
0.0
 20
0.0
 30
0.0
  9
$UCSORGFRONT
 10
0.0
 20
0.0
 30
0.0
  9
$UCSORGBACK
 10
0.0
 20
0.0
 30
0.0
  9
$PUCSBASE
  2

  9
$PUCSNAME
  2

  9
$PUCSORG
 10
0.0
 20
0.0
 30
0.0
  9
$PUCSXDIR
 10
1.0
 20
0.0
 30
0.0
  9
$PUCSYDIR
 10
0.0
 20
1.0
 30
0.0
  9
$PUCSORTHOREF
  2

  9
$PUCSORTHOVIEW
 70
     0
  9
$PUCSORGTOP
 10
0.0
 20
0.0
 30
0.0
  9
$PUCSORGBOTTOM
 10
0.0
 20
0.0
 30
0.0
  9
$PUCSORGLEFT
 10
0.0
 20
0.0
 30
0.0
  9
$PUCSORGRIGHT
 10
0.0
 20
0.0
 30
0.0
  9
$PUCSORGFRONT
 10
0.0
 20
0.0
 30
0.0
  9
$PUCSORGBACK
 10
0.0
 20
0.0
 30
0.0
  9
$USERI1
 70
     0
  9
$USERI2
 70
     0
  9
$USERI3
 70
     0
  9
$USERI4
 70
     0
  9
$USERI5
 70
     0
  9
$USERR1
 40
0.0
  9
$USERR2
 40
0.0
  9
$USERR3
 40
0.0
  9
$USERR4
 40
0.0
  9
$USERR5
 40
0.0
  9
$WORLDVIEW
 70
     1
  9
$SHADEDGE
 70
     3
  9
$SHADEDIF
 70
    70
  9
$TILEMODE
 70
     1
  9
$MAXACTVP
 70
    64
  9
$PINSBASE
 10
0.0
 20
0.0
 30
0.0
  9
$PLIMCHECK
 70
     0
  9
$PEXTMIN
 10
1.000000000000000E+20
 20
1.000000000000000E+20
 30
1.000000000000000E+20
  9
$PEXTMAX
 10
-1.000000000000000E+20
 20
-1.000000000000000E+20
 30
-1.000000000000000E+20
  9
$PLIMMIN
 10
0.0
 20
0.0
  9
$PLIMMAX
 10
12.0
 20
9.0
  9
$UNITMODE
 70
     0
  9
$VISRETAIN
 70
     1
  9
$PLINEGEN
 70
     0
  9
$PSLTSCALE
 70
     1
  9
$TREEDEPTH
 70
  3020
  9
$CMLSTYLE
  2
Standard
  9
$CMLJUST
 70
     0
  9
$CMLSCALE
 40
1.0
  9
$PROXYGRAPHICS
 70
     1
  9
$MEASUREMENT
 70
     0
  9
$CELWEIGHT
370
    -1
  9
$ENDCAPS
280
     0
  9
$JOINSTYLE
280
     0
  9
$LWDISPLAY
290
     1
  9
$INSUNITS
 70
     4
  9
$HYPERLINKBASE
  1

  9
$STYLESHEET
  1

  9
$XEDIT
290
     1
  9
$CEPSNTYPE
380
     0
  9
$PSTYLEMODE
290
     1
  9
$FINGERPRINTGUID
  2
{3EDC72BF-F99E-44E5-9E99-252ACAA04006}
  9
$VERSIONGUID
  2
{FAEB1C32-E019-11D5-929B-00C0DF256EC4}
  9
$EXTNAMES
290
     1
  9
$PSVPSCALE
 40
0.0
  9
$OLESTARTUP
290
     0
  0
ENDSEC
  0
SECTION
  2
CLASSES
  0
CLASS
  1
ACDBDICTIONARYWDFLT
  2
AcDbDictionaryWithDefault
  3
ObjectDBX Classes
 90
        0
280
     0
281
     0
  0
CLASS
  1
VISUALSTYLE
  2
AcDbVisualStyle
  3
ObjectDBX Classes
 90
     4095
280
     0
281
     0
  0
CLASS
  1
MATERIAL
  2
AcDbMaterial
  3
ObjectDBX Classes
 90
     1153
280
     0
281
     0
  0
CLASS
  1
SPATIAL_FILTER
  2
AcDbSpatialFilter
  3
ObjectDBX Classes
 90
        0
280
     0
281
     0
  0
CLASS
  1
SCALE
  2
AcDbScale
  3
ObjectDBX Classes
 90
     1153
280
     0
281
     0
  0
CLASS
  1
DICTIONARYVAR
  2
AcDbDictionaryVar
  3
ObjectDBX Classes
 90
        0
280
     0
281
     0
  0
CLASS
  1
ACDBPLACEHOLDER
  2
AcDbPlaceHolder
  3
ObjectDBX Classes
 90
        0
280
     0
281
     0
  0
CLASS
  1
LAYOUT
  2
AcDbLayout
  3
ObjectDBX Classes
 90
        0
280
     0
281
     0
  0
ENDSEC
  0
SECTION
  2
TABLES
  0
TABLE
  2
VPORT
  5
8
330
0
100
AcDbSymbolTable
 70
     1
  0
VPORT
  5
29
330
8
100
AcDbSymbolTableRecord
100
AcDbViewportTableRecord
  2
*Active
 70
     0
 10
0.0
 20
0.0
 11
1.0
 21
1.0
 12
148.6203422501967
 22
95.2418538737119
 13
0.0
 23
0.0
 14
0.5
 24
0.5
 15
0.5
 25
0.5
 16
0.0
 26
0.0
 36
1.0
 17
0.0
 27
0.0
 37
0.0
 40
190.1584697889838
 41
1.519288083816875
 42
50.0
 43
0.0
 44
0.0
 50
0.0
 51
0.0
 71
     0
 72
   100
 73
     1
 74
     3
 75
     0
 76
     0
 77
     0
 78
     0
281
     0
 65
     1
110
0.0
120
0.0
130
0.0
111
1.0
121
0.0
131
0.0
112
0.0
122
1.0
132
0.0
 79
     0
146
0.0
  0
ENDTAB
  0
TABLE
  2
LTYPE
  5
5
330
0
100
AcDbSymbolTable
 70
     2
  0
LTYPE
  5
14
330
5
100
AcDbSymbolTableRecord
100
AcDbLinetypeTableRecord
  2
ByBlock
 70
     0
  3

 72
    65
 73
     0
 40
0.0
  0
LTYPE
  5
15
330
5
100
AcDbSymbolTableRecord
100
AcDbLinetypeTableRecord
  2
ByLayer
 70
     0
  3

 72
    65
 73
     0
 40
0.0
  0
LTYPE
  5
16
330
5
100
AcDbSymbolTableRecord
100
AcDbLinetypeTableRecord
  2
Continuous
 70
     0
  3
Solid line
 72
    65
 73
     0
 40
0.0
  0
LTYPE
  5
120
330
5
100
AcDbSymbolTableRecord
100
AcDbLinetypeTableRecord
  2
Dashed
 70
     0
  3
- - - - - 
 72
    65
 73
     2
 40
5.644444465637207
 49
2.822222232818604
 74
     0
 49
-2.822222232818603
 74
     0
  0
ENDTAB
  0
TABLE
  2
LAYER
  5
2
330
0
100
AcDbSymbolTable
 70
     3
  0
LAYER
  5
10
330
2
100
AcDbSymbolTableRecord
100
AcDbLayerTableRecord
  2
0
 70
     0
 62
     7
  6
Continuous
370
    -3
390
F
  0
LAYER
  5
40
330
2
100
AcDbSymbolTableRecord
100
AcDbLayerTableRecord
  2
Doc_ Finishes
 70
     0
 62
     7
  6
Continuous
370
    -3
390
F
  0
LAYER
  5
DB
330
2
100
AcDbSymbolTableRecord
100
AcDbLayerTableRecord
  2
Doc_ Floor
 70
     0
 62
     7
  6
Continuous
370
    -3
390
F
  0
ENDTAB
  0
TABLE
  2
STYLE
  5
3
330
0
100
AcDbSymbolTable
 70
     4
  0
STYLE
  5
11
330
3
100
AcDbSymbolTableRecord
100
AcDbTextStyleTableRecord
  2
Standard
 70
     0
 40
0.0
 41
1.0
 50
0.0
 71
     0
 42
0.2
  3
txt
  4

  0
STYLE
  5
D6
330
3
100
AcDbSymbolTableRecord
100
AcDbTextStyleTableRecord
  2
GENERATED_STYLE_1
 70
     0
 40
0.0
 41
1.0
 50
0.0
 71
     0
 42
0.2
  3

  4

1001
ACAD
1000
Century Gothic
1071
       34
  0
STYLE
  5
D9
330
3
100
AcDbSymbolTableRecord
100
AcDbTextStyleTableRecord
  2
GENERATED_STYLE_2
 70
     0
 40
0.0
 41
1.0
 50
0.0
 71
     0
 42
0.2
  3

  4

1001
ACAD
1000
DilleniaUPC
1071
 33554450
  0
STYLE
  5
14E
330
3
100
AcDbSymbolTableRecord
100
AcDbTextStyleTableRecord
  2
GENERATED_STYLE_3
 70
     0
 40
0.0
 41
1.0
 50
0.0
 71
     0
 42
0.2
  3

  4

1001
ACAD
1000
Arial
1071
       34
  0
ENDTAB
  0
TABLE
  2
VIEW
  5
6
330
0
100
AcDbSymbolTable
 70
     0
  0
ENDTAB
  0
TABLE
  2
UCS
  5
7
330
0
100
AcDbSymbolTable
 70
     0
  0
ENDTAB
  0
TABLE
  2
APPID
  5
9
330
0
100
AcDbSymbolTable
 70
     1
  0
APPID
  5
12
330
9
100
AcDbSymbolTableRecord
100
AcDbRegAppTableRecord
  2
ACAD
 70
     0
  0
ENDTAB
  0
TABLE
  2
DIMSTYLE
  5
A
330
0
100
AcDbSymbolTable
 70
     1
100
AcDbDimStyleTable
  0
DIMSTYLE
105
27
330
A
100
AcDbSymbolTableRecord
100
AcDbDimStyleTableRecord
  2
Standard
 70
     0
178
     0
340
11
  0
ENDTAB
  0
TABLE
  2
BLOCK_RECORD
  5
1
330
0
100
AcDbSymbolTable
 70
     3
  0
BLOCK_RECORD
  5
1F
330
1
100
AcDbSymbolTableRecord
100
AcDbBlockTableRecord
  2
*Model_Space
340
22
  0
BLOCK_RECORD
  5
1B
330
1
100
AcDbSymbolTableRecord
100
AcDbBlockTableRecord
  2
*Paper_Space
340
1E
  0
BLOCK_RECORD
  5
E3
330
1
100
AcDbSymbolTableRecord
100
AcDbBlockTableRecord
  2
Drawing_1_2
340
0
102
{BLKREFS
331
18E
102
}
  0
BLOCK_RECORD
  5
192
330
1
100
AcDbSymbolTableRecord
100
AcDbBlockTableRecord
  2
R-TRSS-11 TOP RIDGE DETAIL_STORY_MARKER
340
0
  0
ENDTAB
  0
ENDSEC
  0
SECTION
  2
BLOCKS
  0
BLOCK
  5
20
330
1F
100
AcDbEntity
  8
0
100
AcDbBlockBegin
  2
*Model_Space
 70
     0
 10
0.0
 20
0.0
 30
0.0
  3
*Model_Space
  1

  0
ENDBLK
  5
21
330
1F
100
AcDbEntity
  8
0
100
AcDbBlockEnd
  0
BLOCK
  5
1C
330
1B
100
AcDbEntity
 67
     1
  8
0
100
AcDbBlockBegin
  2
*Paper_Space
 70
     0
 10
0.0
 20
0.0
 30
0.0
  3
*Paper_Space
  1

  0
ENDBLK
  5
1D
330
1B
100
AcDbEntity
 67
     1
  8
0
100
AcDbBlockEnd
  0
BLOCK
  5
E4
330
E3
100
AcDbEntity
  8
0
100
AcDbBlockBegin
  2
Drawing_1_2
 70
     0
 10
113.0696479778444
 20
-41.81440729035931
 30
0.0
  3
Drawing_1_2
  1

  0
HATCH
  5
E6
330
E3
100
AcDbEntity
  8
0
  6
Continuous
 62
   255
370
     0
100
AcDbHatch
 10
0.0
 20
0.0
 30
0.0
210
0.0
220
0.0
230
1.0
  2
SOLID
 70
     1
 71
     0
 91
        1
 92
        3
 72
     0
 73
     1
 93
        5
 10
134.4749892052748
 20
123.4692253338156
 10
15.06824076095747
 20
102.4145976247819
 10
15.06824076095747
 20
38.1923495738556
 10
286.3132518474321
 20
38.1923495738556
 10
286.3132518474321
 20
96.69605102582615
 97
        0
 75
     0
 76
     1
 98
        0
  0
HATCH
  5
E7
330
E3
100
AcDbEntity
  8
0
  6
Continuous
 62
   255
370
     0
100
AcDbHatch
 10
0.0
 20
0.0
 30
0.0
210
0.0
220
0.0
230
1.0
  2
SOLID
 70
     1
 71
     0
 91
        1
 92
        3
 72
     0
 73
     1
 93
        4
 10
286.3132442440976
 20
114.9737200553231
 10
134.474991587672
 20
141.7469032175089
 10
134.474991587672
 20
123.4692284372686
 10
286.3132442440976
 20
96.69604527508281
 97
        0
 75
     0
 76
     1
 98
        0
  0
LINE
  5
E8
330
E3
100
AcDbEntity
  8
0
  6
Continuous
100
AcDbLine
 10
134.474991587672
 20
141.7469074512121
 30
0.0
 11
286.3132442440976
 21
114.9737242890262
 31
0.0
  0
LINE
  5
E9
330
E3
100
AcDbEntity
  8
0
  6
Continuous
100
AcDbLine
 10
134.4749872566198
 20
123.4692245092786
 30
0.0
 11
134.4749872566198
 21
141.7469056745459
 31
0.0
  0
LINE
  5
EA
330
E3
100
AcDbEntity
  8
0
  6
Continuous
100
AcDbLine
 10
286.3132442440976
 20
96.69604527508281
 30
0.0
 11
134.474991587672
 21
123.4692284372686
 31
0.0
  0
HATCH
  5
EB
330
E3
100
AcDbEntity
  8
0
  6
Continuous
 62
   255
370
     0
100
AcDbHatch
 10
0.0
 20
0.0
 30
0.0
210
0.0
220
0.0
230
1.0
  2
SOLID
 70
     1
 71
     0
 91
        1
 92
        3
 72
     0
 73
     1
 93
        4
 10
134.474987885602
 20
141.7469084788179
 10
15.06824406868573
 20
120.6922823703445
 10
15.06824406868573
 20
102.4146005307167
 10
134.474987885602
 20
123.4692266391901
 97
        0
 75
     0
 76
     1
 98
        0
  0
LINE
  5
EC
330
E3
100
AcDbEntity
  8
0
  6
Continuous
100
AcDbLine
 10
134.474987885602
 20
123.4692266391901
 30
0.0
 11
15.06824406868573
 21
102.4146005307167
 31
0.0
  0
LINE
  5
ED
330
E3
100
AcDbEntity
  8
0
  6
Continuous
100
AcDbLine
 10
134.4749872566198
 20
141.7469056745459
 30
0.0
 11
134.4749872566198
 21
123.4692245092786
 31
0.0
  0
LINE
  5
EE
330
E3
100
AcDbEntity
  8
0
  6
Continuous
100
AcDbLine
 10
15.06824406868573
 20
120.6922795446601
 30
0.0
 11
134.474987885602
 21
141.7469056531336
 31
0.0
  0
HATCH
  5
EF
330
E3
100
AcDbEntity
  8
0
  6
Continuous
 62
   255
370
     0
100
AcDbHatch
 10
0.0
 20
0.0
 30
0.0
210
0.0
220
0.0
230
1.0
  2
SOLID
 70
     1
 71
     0
 91
        1
 92
        3
 72
     0
 73
     1
 93
        5
 10
129.4749886358118
 20
122.5875911672994
 10
129.4749886358118
 20
38.19234699213921
 10
139.4749899192972
 20
38.19234699213921
 10
139.4749899192972
 20
122.5875911672994
 10
134.4749872566198
 20
123.4692279786858
 97
        0
 75
     0
 76
     1
 98
        0
  0
LINE
  5
F0
330
E3
100
AcDbEntity
  8
0
  6
Continuous
100
AcDbLine
 10
139.4749899192972
 20
122.5875911672994
 30
0.0
 11
139.4749899192972
 21
38.19234699213921
 31
0.0
  0
LINE
  5
F1
330
E3
100
AcDbEntity
  8
0
  6
Continuous
100
AcDbLine
 10
134.4749872566198
 20
123.4692245092786
 30
0.0
 11
139.4749899192972
 21
122.5875917397616
 31
0.0
  0
LINE
  5
F2
330
E3
100
AcDbEntity
  8
0
  6
Continuous
100
AcDbLine
 10
129.4749886358118
 20
122.5875917397616
 30
0.0
 11
134.4749872566198
 21
123.4692245092786
 31
0.0
  0
LINE
  5
F3
330
E3
100
AcDbEntity
  8
0
  6
Continuous
100
AcDbLine
 10
129.4749886358118
 20
38.19234699213921
 30
0.0
 11
129.4749886358118
 21
122.5875911672994
 31
0.0
  0
HATCH
  5
F4
330
E3
100
AcDbEntity
  8
0
  6
Continuous
 62
   255
370
     0
100
AcDbHatch
 10
0.0
 20
0.0
 30
0.0
210
0.0
220
0.0
230
1.0
  2
SOLID
 70
     1
 71
     0
 91
        1
 92
        3
 72
     0
 73
     1
 93
        6
 10
285.8456416823691
 20
96.77849469532353
 10
139.4749877525511
 20
41.02349769482893
 10
139.4749877525511
 20
38.19234555218883
 10
160.135078159437
 20
38.19234555218883
 10
286.3132492806977
 20
86.25569432170413
 10
286.3132492806977
 20
96.69604230925991
 97
        0
 75
     0
 76
     1
 98
        0
  0
LINE
  5
F5
330
E3
100
AcDbEntity
  8
0
  6
Continuous
100
AcDbLine
 10
286.3132492806977
 20
86.25569432170413
 30
0.0
 11
160.135078159437
 21
38.19234555218883
 31
0.0
  0
LINE
  5
F6
330
E3
100
AcDbEntity
  8
0
  6
Continuous
100
AcDbLine
 10
285.8456416823691
 20
96.77849670773608
 30
0.0
 11
286.3132492806977
 21
96.69604432167245
 31
0.0
  0
LINE
  5
F7
330
E3
100
AcDbEntity
  8
0
  6
Continuous
100
AcDbLine
 10
139.4749899192972
 20
41.02349925837689
 30
0.0
 11
285.8456408095916
 21
96.77849721313409
 31
0.0
  0
LINE
  5
F8
330
E3
100
AcDbEntity
  8
0
  6
Continuous
100
AcDbLine
 10
139.4749899192972
 20
38.19234699213921
 30
0.0
 11
139.4749899192972
 21
41.02349868591472
 31
0.0
  0
HATCH
  5
F9
330
E3
100
AcDbEntity
  8
0
  6
Continuous
 62
   255
370
     0
100
AcDbHatch
 10
0.0
 20
0.0
 30
0.0
210
0.0
220
0.0
230
1.0
  2
SOLID
 70
     1
 71
     0
 91
        1
 92
        3
 72
     0
 73
     1
 93
        5
 10
15.06824302744677
 20
73.90199271210969
 10
108.8148932049675
 20
38.19234742985212
 10
129.4749906848207
 20
38.19234742985212
 10
129.4749906848207
 20
41.02349917103348
 10
15.06824302744677
 20
84.60292041435932
 97
        0
 75
     0
 76
     1
 98
        0
  0
LINE
  5
FA
330
E3
100
AcDbEntity
  8
0
  6
Continuous
100
AcDbLine
 10
15.06824295345775
 20
84.6029179974867
 30
0.0
 11
129.4749912343821
 21
41.0235001374147
 31
0.0
  0
LINE
  5
FB
330
E3
100
AcDbEntity
  8
0
  6
Continuous
100
AcDbLine
 10
108.8148932049675
 20
38.19234742985212
 30
0.0
 11
15.06824302744677
 21
73.90199271210969
 31
0.0
  0
LINE
  5
FC
330
E3
100
AcDbEntity
  8
0
  6
Continuous
100
AcDbLine
 10
129.4749886358118
 20
41.02349868591472
 30
0.0
 11
129.4749886358118
 21
38.19234699213921
 31
0.0
  0
HATCH
  5
FD
330
E3
100
AcDbEntity
  8
0
  6
Continuous
 62
   255
370
     0
100
AcDbHatch
 10
0.0
 20
0.0
 30
0.0
210
0.0
220
0.0
230
1.0
  2
SOLID
 70
     1
 71
     0
 91
        1
 92
        3
 72
     0
 73
     1
 93
        4
 10
138.0074383103017
 20
150.2628785113296
 10
136.4446047112993
 20
141.3996087342198
 10
150.2319132534703
 20
138.9685342468827
 10
151.7947468524726
 20
147.8318040239926
 97
        0
 75
     0
 76
     1
 98
        0
  0
LINE
  5
FE
330
E3
100
AcDbEntity
  8
0
  6
Continuous
100
AcDbLine
 10
136.4446063975559
 20
141.3996080437345
 30
0.0
 11
151.7947453668704
 21
147.8318026785282
 31
0.0
  0
LINE
  5
FF
330
E3
100
AcDbEntity
  8
0
  6
Continuous
100
AcDbLine
 10
138.0074396734033
 20
150.2628780104695
 30
0.0
 11
150.231912091023
 21
138.9685327117932
 31
0.0
  0
LINE
  5
100
330
E3
100
AcDbEntity
  8
0
  6
Continuous
100
AcDbLine
 10
138.0074396734033
 20
150.2628780104695
 30
0.0
 11
136.4446063975559
 21
141.3996080437345
 31
0.0
  0
LINE
  5
101
330
E3
100
AcDbEntity
  8
0
  6
Continuous
100
AcDbLine
 10
136.4446063975559
 20
141.3996080437345
 30
0.0
 11
150.231912091023
 21
138.9685327117932
 31
0.0
  0
LINE
  5
102
330
E3
100
AcDbEntity
  8
0
  6
Continuous
100
AcDbLine
 10
150.231912091023
 20
138.9685327117932
 30
0.0
 11
151.7947453668704
 21
147.8318026785282
 31
0.0
  0
LINE
  5
103
330
E3
100
AcDbEntity
  8
0
  6
Continuous
100
AcDbLine
 10
151.7947453668704
 20
147.8318026785282
 30
0.0
 11
138.0074396734033
 21
150.2628780104695
 31
0.0
  0
HATCH
  5
104
330
E3
100
AcDbEntity
  8
0
  6
Continuous
 62
   255
370
     0
100
AcDbHatch
 10
0.0
 20
0.0
 30
0.0
210
0.0
220
0.0
230
1.0
  2
SOLID
 70
     1
 71
     0
 91
        1
 92
        3
 72
     0
 73
     1
 93
        4
 10
130.9425401002481
 20
150.2628785113297
 10
117.1552315580772
 20
147.8318040239926
 10
118.7180651570796
 20
138.9685342468827
 10
132.5053736992505
 20
141.3996087342198
 97
        0
 75
     0
 76
     1
 98
        0
  0
LINE
  5
105
330
E3
100
AcDbEntity
  8
0
  6
Continuous
100
AcDbLine
 10
132.505372157553
 20
141.3996080437345
 30
0.0
 11
117.1552331882386
 21
147.8318026785282
 31
0.0
  0
LINE
  5
106
330
E3
100
AcDbEntity
  8
0
  6
Continuous
100
AcDbLine
 10
130.9425388817057
 20
150.2628780104695
 30
0.0
 11
118.7180664640859
 21
138.9685327117932
 31
0.0
  0
LINE
  5
107
330
E3
100
AcDbEntity
  8
0
  6
Continuous
100
AcDbLine
 10
130.9425388817057
 20
150.2628780104695
 30
0.0
 11
132.505372157553
 21
141.3996080437345
 31
0.0
  0
LINE
  5
108
330
E3
100
AcDbEntity
  8
0
  6
Continuous
100
AcDbLine
 10
132.505372157553
 20
141.3996080437345
 30
0.0
 11
118.7180664640859
 21
138.9685327117932
 31
0.0
  0
LINE
  5
109
330
E3
100
AcDbEntity
  8
0
  6
Continuous
100
AcDbLine
 10
118.7180664640859
 20
138.9685327117932
 30
0.0
 11
117.1552331882386
 21
147.8318026785282
 31
0.0
  0
LINE
  5
10A
330
E3
100
AcDbEntity
  8
0
  6
Continuous
100
AcDbLine
 10
117.1552331882386
 20
147.8318026785282
 30
0.0
 11
130.9425388817057
 21
150.2628780104695
 31
0.0
  0
HATCH
  5
10B
330
E3
100
AcDbEntity
  8
0
  6
Continuous
 62
   255
370
     0
100
AcDbHatch
 10
0.0
 20
0.0
 30
0.0
210
0.0
220
0.0
230
1.0
  2
SOLID
 70
     1
 71
     0
 91
        1
 92
        3
 72
     0
 73
     1
 93
        4
 10
130.4215944594696
 20
153.2173010023922
 10
15.06824313308186
 20
132.8773921284185
 10
15.06824313308186
 20
129.8311115840016
 10
130.9425402964179
 20
150.2628792885383
 97
        0
 75
     0
 76
     1
 98
        0
  0
HATCH
  5
10C
330
E3
100
AcDbEntity
  8
0
  6
Continuous
100
AcDbHatch
 10
0.0
 20
0.0
 30
0.0
210
0.0
220
0.0
230
1.0
  2
Wood_0002
 70
     0
 71
     0
 91
        1
 92
        3
 72
     0
 73
     1
 93
        4
 10
130.4215944594696
 20
153.2173010023922
 10
15.06824313308186
 20
132.8773921284185
 10
15.06824313308186
 20
129.8311115840016
 10
130.9425402964179
 20
150.2628792885383
 97
        0
 75
     0
 76
     2
 52
0.0
 41
1.0
 77
     0
 78
     1
 53
9.999999999999996
 43
113.0696479778444
 44
-41.81440729035931
 45
-0.1562833557601421
 46
0.8863269542313407
 79
     0
 98
        0
  0
LINE
  5
10D
330
E3
100
AcDbEntity
  8
0
  6
Continuous
100
AcDbLine
 10
15.06824079620971
 20
129.8311129838397
 30
0.0
 11
130.9425421311123
 21
150.2628773611271
 31
0.0
  0
LINE
  5
10E
330
E3
100
AcDbEntity
  8
0
  6
Continuous
100
AcDbLine
 10
130.9425388817057
 20
150.2628780104695
 30
0.0
 11
130.4215944564232
 21
153.2173026800043
 31
0.0
  0
LINE
  5
10F
330
E3
100
AcDbEntity
  8
0
  6
Continuous
100
AcDbLine
 10
130.4215944594696
 20
153.2173010023922
 30
0.0
 11
15.06824313308186
 21
132.8773921284185
 31
0.0
  0
HATCH
  5
110
330
E3
100
AcDbEntity
  8
0
  6
Continuous
 62
   255
370
     0
100
AcDbHatch
 10
0.0
 20
0.0
 30
0.0
210
0.0
220
0.0
230
1.0
  2
SOLID
 70
     1
 71
     0
 91
        1
 92
        3
 72
     0
 73
     1
 93
        4
 10
282.0820606663602
 20
124.8586353545736
 10
282.603005199361
 20
127.8130586136102
 10
138.5283828433025
 20
153.2173017703663
 10
138.0074383103017
 20
150.2628785113296
 97
        0
 75
     0
 76
     1
 98
        0
  0
HATCH
  5
111
330
E3
100
AcDbEntity
  8
0
  6
Continuous
100
AcDbHatch
 10
0.0
 20
0.0
 30
0.0
210
0.0
220
0.0
230
1.0
  2
Wood_0002
 70
     0
 71
     0
 91
        1
 92
        3
 72
     0
 73
     1
 93
        4
 10
282.0820606663602
 20
124.8586353545736
 10
282.603005199361
 20
127.8130586136102
 10
138.5283828433025
 20
153.2173017703663
 10
138.0074383103017
 20
150.2628785113296
 97
        0
 75
     0
 76
     2
 52
0.0
 41
1.0
 77
     0
 78
     1
 53
9.999999999999996
 43
113.0696479778444
 44
-41.81440729035931
 45
-0.1562833557601421
 46
0.8863269542313407
 79
     0
 98
        0
  0
LINE
  5
112
330
E3
100
AcDbEntity
  8
0
  6
Continuous
100
AcDbLine
 10
282.6030065984492
 20
127.8130579630084
 30
0.0
 11
282.0820621731667
 21
124.858637335343
 31
0.0
  0
LINE
  5
113
330
E3
100
AcDbEntity
  8
0
  6
Continuous
100
AcDbLine
 10
138.5283840986857
 20
153.2173026800043
 30
0.0
 11
282.6030065984492
 21
127.8130579630084
 31
0.0
  0
LINE
  5
114
330
E3
100
AcDbEntity
  8
0
  6
Continuous
100
AcDbLine
 10
138.0074396734033
 20
150.2628780104695
 30
0.0
 11
138.5283840986857
 21
153.2173026800043
 31
0.0
  0
LINE
  5
115
330
E3
100
AcDbEntity
  8
0
  6
Continuous
100
AcDbLine
 10
282.0820621731667
 20
124.858637335343
 30
0.0
 11
138.0074396734033
 21
150.2628780104695
 31
0.0
  0
HATCH
  5
116
330
E3
100
AcDbEntity
  8
0
  6
Continuous
 62
   253
370
    25
100
AcDbHatch
 10
0.0
 20
0.0
 30
0.0
210
0.0
220
0.0
230
1.0
  2
SOLID
 70
     1
 71
     0
 91
        1
 92
        3
 72
     0
 73
     1
 93
        4
 10
145.8766301423772
 20
152.9405436494323
 10
250.8861722290903
 20
134.4245281477036
 10
251.7891427529583
 20
139.5455284633671
 10
146.7796006662452
 20
158.0615439650958
 97
        0
 75
     0
 76
     1
 98
        0
  0
LINE
  5
117
330
E3
100
AcDbEntity
  8
0
  6
Continuous
100
AcDbLine
 10
145.8766320630662
 20
152.9405437544931
 30
0.0
 11
250.8861742468453
 21
134.4245297163898
 31
0.0
  0
LINE
  5
118
330
E3
100
AcDbEntity
  8
0
  6
Continuous
100
AcDbLine
 10
250.8861742468453
 20
134.4245297163898
 30
0.0
 11
251.7891440450857
 21
139.5455297823372
 31
0.0
  0
LINE
  5
119
330
E3
100
AcDbEntity
  8
0
  6
Continuous
100
AcDbLine
 10
251.7891440450857
 20
139.5455297823372
 30
0.0
 11
146.7796018613065
 21
158.0615438204405
 31
0.0
  0
LINE
  5
11A
330
E3
100
AcDbEntity
  8
0
  6
Continuous
100
AcDbLine
 10
146.7796018613065
 20
158.0615438204405
 30
0.0
 11
145.8766320630662
 21
152.9405437544931
 31
0.0
  0
HATCH
  5
11B
330
E3
100
AcDbEntity
  8
0
  6
Continuous
 62
   253
370
    25
100
AcDbHatch
 10
0.0
 20
0.0
 30
0.0
210
0.0
220
0.0
230
1.0
  2
SOLID
 70
     1
 71
     0
 91
        1
 92
        3
 72
     0
 73
     1
 93
        4
 10
122.4894949530619
 20
152.958137786267
 10
121.5865244291939
 20
158.0791381019305
 10
16.57698234248081
 20
139.5631226002018
 10
17.47995286634886
 20
134.4421222845384
 97
        0
 75
     0
 76
     1
 98
        0
  0
LINE
  5
11C
330
E3
100
AcDbEntity
  8
0
  6
Continuous
100
AcDbLine
 10
121.5865246127045
 20
158.0791380780712
 30
0.0
 11
122.4894944109448
 21
152.9581380121238
 31
0.0
  0
LINE
  5
11D
330
E3
100
AcDbEntity
  8
0
  6
Continuous
100
AcDbLine
 10
16.57698242892529
 20
139.5631240399679
 30
0.0
 11
121.5865246127045
 21
158.0791380780712
 31
0.0
  0
LINE
  5
11E
330
E3
100
AcDbEntity
  8
0
  6
Continuous
100
AcDbLine
 10
17.47995222716562
 20
134.4421239740205
 30
0.0
 11
16.57698242892529
 21
139.5631240399679
 31
0.0
  0
LINE
  5
11F
330
E3
100
AcDbEntity
  8
0
  6
Continuous
100
AcDbLine
 10
122.4894944109448
 20
152.9581380121238
 30
0.0
 11
17.47995222716562
 21
134.4421239740205
 31
0.0
  0
LINE
  5
121
330
E3
100
AcDbEntity
  8
0
  6
Dashed
100
AcDbLine
 10
134.4749872566198
 20
154.5101309941587
 30
0.0
 11
241.611005450192
 21
135.6191608127314
 31
0.0
  0
LINE
  5
122
330
E3
100
AcDbEntity
  8
0
  6
Continuous
 62
     9
370
    18
100
AcDbLine
 10
146.7796018613065
 20
158.0615438204405
 30
0.0
 11
147.2717722181136
 21
152.6945434553475
 31
0.0
  0
LINE
  5
123
330
E3
100
AcDbEntity
  8
0
  6
Dashed
100
AcDbLine
 10
134.4749872566198
 20
154.5101309941587
 30
0.0
 11
27.3389690630475
 21
135.6191608127314
 31
0.0
  0
LINE
  5
124
330
E3
100
AcDbEntity
  8
0
  6
Continuous
 62
     9
370
    18
100
AcDbLine
 10
121.5865246127045
 20
158.0791380780712
 30
0.0
 11
121.0943542558974
 21
152.7121377129783
 31
0.0
  0
LWPOLYLINE
  5
125
330
E3
100
AcDbEntity
  8
0
  6
Continuous
100
AcDbPolyline
 90
        4
 70
   128
 43
0.0
 10
159.6848652147789
 20
155.4543849686753
 10
166.018276829949
 20
154.2870502788204
 10
165.6775908544338
 20
156.3009297964126
 10
134.1863350768774
 20
161.9656105066774
  0
LWPOLYLINE
  5
126
330
E3
100
AcDbEntity
  8
0
  6
Continuous
100
AcDbPolyline
 90
        4
 70
   128
 43
0.0
 10
129.5268308732832
 20
156.9716622630242
 10
130.0351541214665
 20
154.4432496086961
 10
123.9116178977436
 20
153.2595609131116
 10
123.5177056362731
 20
155.3322711084742
  0
LWPOLYLINE
  5
127
330
E3
100
AcDbEntity
  8
0
  6
Continuous
100
AcDbPolyline
 90
        6
 70
   128
 43
0.0
 10
123.2140782431458
 20
156.9299151903746
 10
122.7932112567103
 20
159.1444573080024
 10
103.794665088591
 20
155.7945010243275
 10
103.6762438486166
 20
155.071540703301
 10
109.8594472881974
 20
156.1769119581965
 10
110.5754292041912
 20
151.3558280914355
  0
LWPOLYLINE
  5
128
330
E3
100
AcDbEntity
  8
0
  6
Continuous
100
AcDbPolyline
 90
        6
 70
   128
 43
0.0
 10
145.735900167404
 20
156.9299151903746
 10
146.1567671538395
 20
159.1444573080024
 10
165.1553133219588
 20
155.7945010243275
 10
165.2737345619332
 20
155.071540703301
 10
159.0905311223524
 20
156.1769119581965
 10
158.3745492063586
 20
151.3558280914355
  0
LWPOLYLINE
  5
129
330
E3
100
AcDbEntity
  8
0
  6
Continuous
100
AcDbPolyline
 90
        4
 70
   128
 43
0.0
 10
109.265113195771
 20
155.4543849686753
 10
102.9317015806008
 20
154.2870502788204
 10
103.272387556116
 20
156.3009297964126
 10
134.7636433336724
 20
161.9656105066774
  0
LWPOLYLINE
  5
12A
330
E3
100
AcDbEntity
  8
0
  6
Continuous
100
AcDbPolyline
 90
        4
 70
   128
 43
0.0
 10
139.4231475372666
 20
156.9716622630242
 10
138.9148242890833
 20
154.4432496086961
 10
145.0383605128062
 20
153.2595609131116
 10
145.4322727742767
 20
155.3322711084742
  0
HATCH
  5
12B
330
E3
100
AcDbEntity
  8
0
  6
Continuous
 62
   255
370
     0
100
AcDbHatch
 10
0.0
 20
0.0
 30
0.0
210
0.0
220
0.0
230
1.0
  2
SOLID
 70
     1
 71
     0
 91
        1
 92
        3
 72
     0
 73
     1
 93
        8
 10
208.1096771361016
 20
123.7459694336245
 10
201.8781463952087
 20
122.4328920626411
 10
213.6466185787642
 20
121.1198146916576
 10
207.4150878378712
 20
119.8067373206741
 10
202.6204498537118
 20
92.61501193642796
 10
286.3132489148966
 20
92.61501193642796
 10
286.3132489148966
 20
150.9376990239849
 10
212.904315120261
 20
150.9376990239849
 97
        0
 75
     0
 76
     1
 98
        0
  0
LINE
  5
12C
330
E3
100
AcDbEntity
  8
0
  6
Continuous
100
AcDbLine
 10
212.9043149382219
 20
150.9377004468386
 30
0.0
 11
208.1096796613056
 21
123.7459713091815
 31
0.0
  0
LINE
  5
12D
330
E3
100
AcDbEntity
  8
0
  6
Continuous
100
AcDbLine
 10
207.4150884415521
 20
119.8067411110481
 30
0.0
 11
202.6204491227664
 21
92.61501197339095
 31
0.0
  0
LINE
  5
12E
330
E3
100
AcDbEntity
  8
0
  6
Continuous
100
AcDbLine
 10
207.4150884415521
 20
119.8067411110481
 30
0.0
 11
213.6466163847323
 21
121.1198151491796
 31
0.0
  0
LINE
  5
12F
330
E3
100
AcDbEntity
  8
0
  6
Continuous
100
AcDbLine
 10
213.6466163847323
 20
121.1198151491796
 30
0.0
 11
201.878147676256
 21
122.4328932291805
 31
0.0
  0
LINE
  5
130
330
E3
100
AcDbEntity
  8
0
  6
Continuous
100
AcDbLine
 10
201.878147676256
 20
122.4328932291805
 30
0.0
 11
208.1096796613056
 21
123.7459713091815
 31
0.0
  0
HATCH
  5
131
330
E3
100
AcDbEntity
  8
0
  6
Continuous
 62
   255
370
     0
100
AcDbHatch
 10
0.0
 20
0.0
 30
0.0
210
0.0
220
0.0
230
1.0
  2
SOLID
 70
     1
 71
     0
 91
        1
 92
        3
 72
     0
 73
     1
 93
        8
 10
15.06824269157586
 20
150.9376985621054
 10
15.06824269157586
 20
92.61501158981469
 10
66.32952707275581
 20
92.61501158981469
 10
61.53489198012358
 20
119.8067396413234
 10
55.30335992784178
 20
121.1198181608751
 10
67.071828093694
 20
122.4328919910449
 10
60.84030073079409
 20
123.7459705105966
 10
56.04566563816188
 20
150.9376985621054
 97
        0
 75
     0
 76
     1
 98
        0
  0
LINE
  5
132
330
E3
100
AcDbEntity
  8
0
  6
Continuous
100
AcDbLine
 10
56.04566361688713
 20
150.9377004468386
 30
0.0
 11
60.84029889380337
 21
123.7459713091815
 31
0.0
  0
LINE
  5
133
330
E3
100
AcDbEntity
  8
0
  6
Continuous
100
AcDbLine
 10
61.53489011355683
 20
119.8067411110481
 30
0.0
 11
66.32952539047307
 21
92.61501197339095
 31
0.0
  0
LINE
  5
134
330
E3
100
AcDbEntity
  8
0
  6
Continuous
100
AcDbLine
 10
61.53489011355683
 20
119.8067411110481
 30
0.0
 11
55.30336217037664
 21
121.1198151491796
 31
0.0
  0
LINE
  5
135
330
E3
100
AcDbEntity
  8
0
  6
Continuous
100
AcDbLine
 10
55.30336217037664
 20
121.1198151491796
 30
0.0
 11
67.07183087885299
 21
122.4328932291805
 31
0.0
  0
LINE
  5
136
330
E3
100
AcDbEntity
  8
0
  6
Continuous
100
AcDbLine
 10
67.07183087885299
 20
122.4328932291805
 30
0.0
 11
60.84029889380337
 21
123.7459713091815
 31
0.0
  0
LINE
  5
137
330
E3
100
AcDbEntity
  8
Doc_ Floor
  6
Continuous
100
AcDbLine
 10
149.4440506922925
 20
167.3496344736629
 30
0.0
 11
148.4814956549085
 21
167.5227760344551
 31
0.0
  0
LINE
  5
138
330
E3
100
AcDbEntity
  8
Doc_ Floor
  6
Continuous
100
AcDbLine
 10
148.4814956549085
 20
167.5227760344551
 30
0.0
 11
141.5260931479512
 21
168.7739245910428
 31
0.0
  0
LINE
  5
139
330
E3
100
AcDbEntity
  8
Doc_ Floor
  6
Continuous
100
AcDbLine
 10
147.7362274762361
 20
166.6407875804283
 30
0.0
 11
149.2267678754503
 21
168.4047685303514
 31
0.0
  0
LINE
  5
13A
330
E3
100
AcDbEntity
  8
Doc_ Floor
  6
Continuous
100
AcDbLine
 10
142.2713653684931
 20
169.6559130450696
 30
0.0
 11
140.7808249692788
 21
167.8919320951465
 31
0.0
  0
LINE
  5
13B
330
E3
100
AcDbEntity
  8
Doc_ Floor
  6
Continuous
100
AcDbLine
 10
141.5260931479512
 20
168.7739245910428
 30
0.0
 11
140.5635421524366
 21
168.9470661518349
 31
0.0
  0
LINE
  5
13C
330
E3
100
AcDbEntity
  8
Doc_ Floor
  6
Continuous
100
AcDbLine
 10
148.7470586020974
 20
168.9990850114048
 30
0.0
 11
148.215936749589
 21
166.0464710993749
 31
0.0
  0
LINE
  5
13D
330
E3
100
AcDbEntity
  8
Doc_ Floor
  6
Continuous
100
AcDbLine
 10
141.7916560951401
 20
170.250229526123
 30
0.0
 11
141.2605342426318
 21
167.297615614093
 31
0.0
  0
MTEXT
  5
13E
330
E3
100
AcDbEntity
  8
Doc_ Floor
  6
Continuous
100
AcDbMText
 10
140.6497563034009
 20
170.871619266217
 30
0.0
 40
2.5
 41
0.0
 71
     7
 72
     1
  1
{30MIN.}
  7
GENERATED_STYLE_1
 11
0.9842037258725145
 21
-0.1770396169750163
 31
0.0
 73
     1
 44
1.0
  0
LINE
  5
13F
330
E3
100
AcDbEntity
  8
Doc_ Floor
  6
Continuous
100
AcDbLine
 10
168.7374051429989
 20
163.8791237059011
 30
0.0
 11
167.7748541474843
 21
164.0522693085627
 31
0.0
  0
LINE
  5
140
330
E3
100
AcDbEntity
  8
Doc_ Floor
  6
Continuous
100
AcDbLine
 10
167.7748541474843
 20
164.0522693085627
 30
0.0
 11
148.4814956549085
 21
167.5227760344551
 31
0.0
  0
LINE
  5
141
330
E3
100
AcDbEntity
  8
Doc_ Floor
  6
Continuous
100
AcDbLine
 10
167.0295859688118
 20
163.1702768126664
 30
0.0
 11
168.5201223261567
 21
164.9342577625896
 31
0.0
  0
LINE
  5
142
330
E3
100
AcDbEntity
  8
Doc_ Floor
  6
Continuous
100
AcDbLine
 10
149.2267678754503
 20
168.4047685303514
 30
0.0
 11
147.7362274762361
 21
166.6407875804283
 31
0.0
  0
LINE
  5
143
330
E3
100
AcDbEntity
  8
Doc_ Floor
  6
Continuous
100
AcDbLine
 10
148.4814956549085
 20
167.5227760344551
 30
0.0
 11
147.5189446593939
 21
167.6959216371168
 31
0.0
  0
LINE
  5
144
330
E3
100
AcDbEntity
  8
Doc_ Floor
  6
Continuous
100
AcDbLine
 10
168.0404130528037
 20
165.528574243643
 30
0.0
 11
167.5092952421648
 21
162.5759643734824
 31
0.0
  0
LINE
  5
145
330
E3
100
AcDbEntity
  8
Doc_ Floor
  6
Continuous
100
AcDbLine
 10
148.7470586020974
 20
168.9990850114048
 30
0.0
 11
148.215936749589
 21
166.0464710993749
 31
0.0
  0
MTEXT
  5
146
330
E3
100
AcDbEntity
  8
Doc_ Floor
  6
Continuous
100
AcDbMText
 10
157.2436394213978
 20
167.3255590819654
 30
0.0
 40
2.5
 41
0.0
 71
     7
 72
     1
  1
{A}
  7
GENERATED_STYLE_1
 11
0.9842037258725145
 21
-0.1770396169750163
 31
0.0
 73
     1
 44
1.0
  0
LINE
  5
147
330
E3
100
AcDbEntity
  8
Doc_ Floor
  6
Continuous
100
AcDbLine
 10
131.5273731370752
 20
139.4455218070195
 30
0.0
 11
132.505372157553
 21
139.4455218070195
 31
0.0
  0
LINE
  5
148
330
E3
100
AcDbEntity
  8
Doc_ Floor
  6
Continuous
100
AcDbLine
 10
132.505372157553
 20
139.4455218070195
 30
0.0
 11
136.4446063975559
 21
139.4455218070195
 31
0.0
  0
LINE
  5
149
330
E3
100
AcDbEntity
  8
Doc_ Floor
  6
Continuous
100
AcDbLine
 10
133.0827249126068
 20
140.4455247646767
 30
0.0
 11
131.9280234443686
 21
138.4455228912319
 31
0.0
  0
LINE
  5
14A
330
E3
100
AcDbEntity
  8
Doc_ Floor
  6
Continuous
100
AcDbLine
 10
135.8672536425021
 20
138.4455228912319
 30
0.0
 11
137.0219551107403
 21
140.4455247646767
 31
0.0
  0
LINE
  5
14B
330
E3
100
AcDbEntity
  8
Doc_ Floor
  6
Continuous
100
AcDbLine
 10
136.4446063975559
 20
139.4455218070195
 30
0.0
 11
137.4226054180337
 21
139.4455218070195
 31
0.0
  0
LINE
  5
14C
330
E3
100
AcDbEntity
  8
Doc_ Floor
  6
Continuous
100
AcDbLine
 10
132.505372157553
 20
137.945523433338
 30
0.0
 11
132.505372157553
 21
140.9455242225706
 31
0.0
  0
LINE
  5
14D
330
E3
100
AcDbEntity
  8
Doc_ Floor
  6
Continuous
100
AcDbLine
 10
136.4446063975559
 20
137.945523433338
 30
0.0
 11
136.4446063975559
 21
140.9455242225706
 31
0.0
  0
MTEXT
  5
14F
330
E3
100
AcDbEntity
  8
Doc_ Floor
  6
Continuous
100
AcDbMText
 10
86.93938514512384
 20
130.9215021827483
 30
0.0
 40
2.5
 41
0.0
 71
     7
 72
     1
  1
{20MM AIR GAP IN PLY AND PURLINS}
  7
GENERATED_STYLE_3
 73
     1
 44
1.0
  0
MTEXT
  5
150
102
{ACAD_XDICTIONARY
360
1C2
102
}
330
E3
100
AcDbEntity
  8
Doc_ Floor
  6
Continuous
100
AcDbMText
 10
217.7760891359183
 20
153.6140106835336
 30
0.0
 40
2.5
 41
71.71419670729514
 71
     4
 72
     1
  1
{TRS SEAM\PMIN. ROOF PITCH 5° FOR ANGLE SEAM\PMIN. ROOF PITCH 3° FOR DOUBLE\PSTANDING SEAM}
  7
GENERATED_STYLE_1
 73
     1
 44
1.06374321355081
  0
LINE
  5
151
330
E3
100
AcDbEntity
  8
Doc_ Floor
  6
Continuous
100
AcDbLine
 10
196.4765529507079
 20
149.2986294297941
 30
0.0
 11
199.6692336975594
 21
151.4746345075879
 31
0.0
  0
LINE
  5
152
330
E3
100
AcDbEntity
  8
Doc_ Floor
  6
Continuous
100
AcDbLine
 10
196.4765529507079
 20
149.2986294297941
 30
0.0
 11
200.3294973202401
 21
149.5867662177521
 31
0.0
  0
LINE
  5
153
330
E3
100
AcDbEntity
  8
Doc_ Floor
  6
Continuous
100
AcDbLine
 10
199.6692336975594
 20
151.4746345075879
 30
0.0
 11
200.3294973202401
 21
149.5867662177521
 31
0.0
  0
LWPOLYLINE
  5
154
330
E3
100
AcDbEntity
  8
Doc_ Floor
  6
Continuous
100
AcDbPolyline
 90
        5
 70
   128
 43
0.0
 10
199.9993656158874
 20
150.5306993881893
 10
204.7608560010308
 20
151.9851667293663
 10
208.9416251718237
 20
152.9437703520314
 10
212.8454454446561
 20
153.4713692577881
 10
216.7760891359183
 20
153.6328224482395
  0
MTEXT
  5
155
330
E3
100
AcDbEntity
  8
Doc_ Floor
  6
Continuous
100
AcDbMText
 10
223.6089297910916
 20
129.1681517204519
 30
0.0
 40
2.5
 41
0.0
 71
     4
 72
     1
  1
{UNDERLAY}
  7
GENERATED_STYLE_1
 73
     1
 44
1.0
  0
LINE
  5
156
330
E3
100
AcDbEntity
  8
Doc_ Floor
  6
Continuous
100
AcDbLine
 10
196.7193318799173
 20
143.534774072803
 30
0.0
 11
199.4681628190028
 21
140.8196078642037
 31
0.0
  0
LINE
  5
157
330
E3
100
AcDbEntity
  8
Doc_ Floor
  6
Continuous
100
AcDbLine
 10
196.7193318799173
 20
143.534774072803
 30
0.0
 11
197.7423088234171
 21
139.8089545805973
 31
0.0
  0
LINE
  5
158
330
E3
100
AcDbEntity
  8
Doc_ Floor
  6
Continuous
100
AcDbLine
 10
199.4681628190028
 20
140.8196078642037
 30
0.0
 11
197.7423088234171
 21
139.8089545805973
 31
0.0
  0
LWPOLYLINE
  5
159
330
E3
100
AcDbEntity
  8
Doc_ Floor
  6
Continuous
100
AcDbPolyline
 90
       14
 70
   128
 43
0.0
 10
198.6052356706208
 20
140.31428231684
 10
200.6666008653232
 20
137.4702874656259
 10
201.7540967740565
 20
136.2286243048189
 10
202.8884536961829
 20
135.1022153198191
 10
204.0764107360559
 20
134.087334010082
 10
205.3247069980293
 20
133.1802538750631
 10
206.6400815864567
 20
132.3772484142178
 10
208.0292736056918
 20
131.6745911270015
 10
209.4990221600883
 20
131.0685555128697
 10
211.0560663539999
 20
130.5554150712778
 10
212.7071452917801
 20
130.1314433016813
 10
214.4589980777829
 20
129.7929137035356
 10
218.2919816118703
 20
129.3572750194183
 10
222.6089297910916
 20
129.2186870145695
  0
MTEXT
  5
15A
330
E3
100
AcDbEntity
  8
Doc_ Floor
  6
Continuous
100
AcDbMText
 10
161.6407058795538
 20
110.4377521361685
 30
0.0
 40
2.499999999999999
 41
0.0
 71
     4
 72
     1
  1
{PURLIN}
  7
GENERATED_STYLE_1
 73
     1
 44
1.0
  0
LINE
  5
15B
330
E3
100
AcDbEntity
  8
Doc_ Floor
  6
Continuous
100
AcDbLine
 10
147.9360575008775
 20
141.4828503446546
 30
0.0
 11
149.3706786365215
 21
137.8953638337061
 31
0.0
  0
LINE
  5
15C
330
E3
100
AcDbEntity
  8
Doc_ Floor
  6
Continuous
100
AcDbLine
 10
147.9360575008775
 20
141.4828503446546
 30
0.0
 11
147.3847343849558
 21
137.6586840854672
 31
0.0
  0
LINE
  5
15D
330
E3
100
AcDbEntity
  8
Doc_ Floor
  6
Continuous
100
AcDbLine
 10
149.3706786365215
 20
137.8953638337061
 30
0.0
 11
147.3847343849558
 21
137.6586840854672
 31
0.0
  0
LWPOLYLINE
  5
15E
330
E3
100
AcDbEntity
  8
Doc_ Floor
  6
Continuous
100
AcDbPolyline
 90
       14
 70
   128
 43
0.0
 10
148.377707177542
 20
137.7770232525418
 10
149.3715268571704
 20
130.7557039472636
 10
150.4565702174711
 20
124.9190671878669
 10
151.6642332978399
 20
120.1905184624818
 10
152.323858495361
 20
118.2178413275843
 10
153.0259121376724
 20
116.4934632592384
 10
153.7743187296987
 20
115.0078099434606
 10
154.5730027763643
 20
113.751307066267
 10
155.4258887825937
 20
112.714380313674
 10
156.3369012533114
 20
111.8874553716977
 10
157.3099646934417
 20
111.2609579263545
 10
158.3490036079093
 20
110.8253136636607
 10
159.4579425016385
 20
110.5709482696325
 10
160.6407058795538
 20
110.4882874302861
  0
MTEXT
  5
15F
330
E3
100
AcDbEntity
  8
Doc_ Floor
  6
Continuous
100
AcDbMText
 10
158.6656331918997
 20
99.0688665874658
 30
0.0
 40
2.5
 41
0.0
 71
     4
 72
     1
  1
{ROOF FRAME}
  7
GENERATED_STYLE_1
 73
     1
 44
1.0
  0
LINE
  5
160
330
E3
100
AcDbEntity
  8
Doc_ Floor
  6
Continuous
100
AcDbLine
 10
146.346208369757
 20
125.1594251746182
 30
0.0
 11
147.6241302694519
 21
121.5131779658899
 31
0.0
  0
LINE
  5
161
330
E3
100
AcDbEntity
  8
Doc_ Floor
  6
Continuous
100
AcDbLine
 10
146.346208369757
 20
125.1594251746182
 30
0.0
 11
145.629799138818
 21
121.3627234182108
 31
0.0
  0
LINE
  5
162
330
E3
100
AcDbEntity
  8
Doc_ Floor
  6
Continuous
100
AcDbLine
 10
147.6241302694519
 20
121.5131779658899
 30
0.0
 11
145.629799138818
 21
121.3627234182108
 31
0.0
  0
LWPOLYLINE
  5
163
330
E3
100
AcDbEntity
  8
Doc_ Floor
  6
Continuous
100
AcDbPolyline
 90
       15
 70
   128
 43
0.0
 10
146.6269640374001
 20
121.4379507412414
 10
147.2336459128394
 20
115.6919030292418
 10
148.0072474302684
 20
110.9136907227362
 10
148.4650775646357
 20
108.8680958196276
 10
148.9747590213883
 20
107.0411473355931
 10
149.5396656044891
 20
105.4250744598663
 10
150.1631711179006
 20
104.0121063816806
 10
150.8486493655855
 20
102.7944722902696
 10
151.5994741515065
 20
101.7644013748669
 10
152.4190192796263
 20
100.914122824706
 10
153.3106585539075
 20
100.2358658290203
 10
154.2777657783127
 20
99.72185957704343
 10
155.3237147568047
 20
99.36433325800893
 10
156.4518792933461
 20
99.15551606115031
 10
157.6656331918997
 20
99.0876371757011
  0
MTEXT
  5
164
330
E3
100
AcDbEntity
  8
Doc_ Floor
  6
Continuous
100
AcDbMText
 10
189.8001909413795
 20
179.64011812556
 30
0.0
 40
2.5
 41
77.34363313125678
 71
     4
 72
     1
  1
{NOTCHED TURN-DOWN OVER TRS SEAM.\P5MM MAX. GAP BETWEEN PAN AND EDGE OF FLASHING}
  7
GENERATED_STYLE_1
 73
     1
 44
1.065340909090909
  0
LINE
  5
165
330
E3
100
AcDbEntity
  8
Doc_ Floor
  6
Continuous
100
AcDbLine
 10
158.5494124704337
 20
152.5332728650726
 30
0.0
 11
160.1269217741831
 21
156.0602647162556
 31
0.0
  0
LINE
  5
166
330
E3
100
AcDbEntity
  8
Doc_ Floor
  6
Continuous
100
AcDbLine
 10
158.5494124704337
 20
152.5332728650726
 30
0.0
 11
161.6790723891258
 21
154.7989831930058
 31
0.0
  0
LINE
  5
167
330
E3
100
AcDbEntity
  8
Doc_ Floor
  6
Continuous
100
AcDbLine
 10
160.1269217741831
 20
156.0602647162556
 30
0.0
 11
161.6790723891258
 21
154.7989831930058
 31
0.0
  0
LWPOLYLINE
  5
168
330
E3
100
AcDbEntity
  8
Doc_ Floor
  6
Continuous
100
AcDbPolyline
 90
       13
 70
   128
 43
0.0
 10
160.9029966175719
 20
155.4296234934674
 10
166.1093014158577
 20
161.6664862271648
 10
170.671990468786
 20
166.8500393994989
 10
174.6672780050628
 20
171.0486237903269
 10
178.1713782533938
 20
174.3305801795061
 10
179.7630500910503
 20
175.6491793671829
 10
181.2605054424851
 20
176.764249346894
 10
182.6732710862865
 20
177.6843327161215
 10
184.0108738010425
 20
178.4179720723477
 10
185.2828403653417
 20
178.9737100130546
 10
186.498697557772
 20
179.3600891357245
 10
187.6679721569219
 20
179.5856520378395
 10
188.8001909413795
 20
179.6589413168819
  0
MTEXT
  5
169
330
E3
100
AcDbEntity
  8
Doc_ Floor
  6
Continuous
100
AcDbMText
 10
113.8775462057163
 20
168.2898083830502
 30
0.0
 40
2.500000000000001
 41
0.0
 71
     6
 72
     1
  1
{STOPEND}
  7
GENERATED_STYLE_1
 73
     1
 44
1.0
  0
LINE
  5
16A
330
E3
100
AcDbEntity
  8
Doc_ Floor
  6
Continuous
100
AcDbLine
 10
121.3404394343009
 20
155.3956358745901
 30
0.0
 11
120.6475377159694
 21
159.1967028499824
 31
0.0
  0
LINE
  5
16B
330
E3
100
AcDbEntity
  8
Doc_ Floor
  6
Continuous
100
AcDbLine
 10
121.3404394343009
 20
155.3956358745901
 30
0.0
 11
122.6409028398095
 21
159.0339044330628
 31
0.0
  0
LINE
  5
16C
330
E3
100
AcDbEntity
  8
Doc_ Floor
  6
Continuous
100
AcDbLine
 10
120.6475377159694
 20
159.1967028499824
 30
0.0
 11
122.6409028398095
 21
159.0339044330628
 31
0.0
  0
LWPOLYLINE
  5
16D
330
E3
100
AcDbEntity
  8
Doc_ Floor
  6
Continuous
100
AcDbPolyline
 90
       10
 70
   128
 43
0.0
 10
121.644220773855
 20
159.1153031432011
 10
121.6404951244553
 20
161.4658301437593
 10
121.420172846857
 20
163.4251452861771
 10
120.9712510163567
 20
165.0172305678037
 10
120.2817267082513
 20
166.266067985988
 10
119.842987711127
 20
166.769263120461
 10
119.3395969978378
 20
167.1956395380793
 10
118.1328589604128
 20
167.8299272214266
 10
116.6495096712734
 20
168.192913033379
 10
114.8775462057163
 20
168.3085789712855
  0
MTEXT
  5
16E
330
E3
100
AcDbEntity
  8
Doc_ Floor
  6
Continuous
100
AcDbMText
 10
113.2599242339673
 20
183.939988096499
 30
0.0
 40
2.500000000000002
 41
0.0
 71
     6
 72
     1
  1
{VENT HOLE IN FLASHING}
  7
GENERATED_STYLE_1
 73
     1
 44
1.0
  0
LINE
  5
16F
330
E3
100
AcDbEntity
  8
Doc_ Floor
  6
Continuous
100
AcDbLine
 10
145.2610634325475
 20
156.359617691883
 30
0.0
 11
142.094844804857
 21
158.5739477756163
 31
0.0
  0
LINE
  5
170
330
E3
100
AcDbEntity
  8
Doc_ Floor
  6
Continuous
100
AcDbLine
 10
145.2610634325475
 20
156.359617691883
 30
0.0
 11
143.6262040434495
 21
159.8603899360706
 31
0.0
  0
LINE
  5
171
330
E3
100
AcDbEntity
  8
Doc_ Floor
  6
Continuous
100
AcDbLine
 10
142.094844804857
 20
158.5739477756163
 30
0.0
 11
143.6262040434495
 21
159.8603899360706
 31
0.0
  0
LWPOLYLINE
  5
172
330
E3
100
AcDbEntity
  8
Doc_ Floor
  6
Continuous
100
AcDbPolyline
 90
       12
 70
   128
 43
0.0
 10
142.8605228556609
 20
159.2171690067012
 10
137.3793290079115
 20
165.5865944892448
 10
132.5997084405591
 20
170.8800697750516
 10
128.4431772305536
 20
175.1674661378057
 10
124.8312514548446
 20
178.5186548511913
 10
121.6854471903818
 20
181.0035071888927
 10
120.2628143989145
 20
181.9428919898882
 10
118.9272805141148
 20
182.6918944245942
 10
117.6690350456016
 20
183.2592484022212
 10
116.4782675029935
 20
183.6536878319799
 10
115.3451673959091
 20
183.8839466230808
 10
114.2599242339673
 20
183.9587586847342
  0
HATCH
  5
173
330
E3
100
AcDbEntity
  8
Doc_ Finishes
  6
Continuous
 62
   255
370
    18
100
AcDbHatch
 10
0.0
 20
0.0
 30
0.0
210
0.0
220
0.0
230
1.0
  2
SOLID
 70
     1
 71
     0
 91
        1
 92
        3
 72
     0
 73
     1
 93
        7
 10
15.0682445554345
 20
38.19234708095393
 10
286.3132481452244
 20
38.19234708095393
 10
286.3132481452244
 20
114.3249697935822
 10
242.2233226002824
 20
97.82649743886024
 10
135.8845474605214
 20
78.56747432109925
 10
52.99738877104092
 20
79.19061044005667
 10
15.0682445554345
 20
97.37728676507604
 97
        0
 75
     0
 76
     1
 98
        0
  0
LINE
  5
174
330
E3
100
AcDbEntity
  8
Doc_ Finishes
  6
Continuous
 62
   255
370
    18
100
AcDbLine
 10
135.884548801795
 20
78.56747455851374
 30
0.0
 11
52.99738673917726
 21
79.19060956860623
 31
0.0
  0
LINE
  5
175
330
E3
100
AcDbEntity
  8
Doc_ Finishes
  6
Continuous
 62
   255
370
    18
100
AcDbLine
 10
52.99738947567378
 20
79.19060886647951
 30
0.0
 11
15.0682390070311
 21
97.37728745994087
 31
0.0
  0
LINE
  5
176
330
E3
100
AcDbEntity
  8
Doc_ Finishes
  6
Continuous
 62
   255
370
    18
100
AcDbLine
 10
286.3132509310774
 20
114.3249753904945
 30
0.0
 11
242.2233269245231
 21
97.82649970631236
 31
0.0
  0
LINE
  5
177
330
E3
100
AcDbEntity
  8
Doc_ Finishes
  6
Continuous
 62
   255
370
    18
100
AcDbLine
 10
242.2233244176886
 20
97.82649737027782
 30
0.0
 11
135.884548801795
 21
78.56747455851374
 31
0.0
  0
HATCH
  5
178
330
E3
100
AcDbEntity
  8
0
  6
Continuous
 62
   255
370
     0
100
AcDbHatch
 10
0.0
 20
0.0
 30
0.0
210
0.0
220
0.0
230
1.0
  2
SOLID
 70
     1
 71
     0
 91
        1
 92
        3
 72
     0
 73
     1
 93
        8
 10
117.6689556320301
 20
72.4714432658318
 10
149.6747048746605
 20
72.4714432658318
 10
149.6747048746605
 20
102.336647999115
 10
135.6718302533453
 20
102.336647999115
 10
134.3384969200119
 20
108.336647999115
 10
133.0051635866786
 20
96.33664799911504
 10
131.6718302533453
 20
102.336647999115
 10
117.6689556320301
 20
102.336647999115
 97
        0
 75
     0
 76
     1
 98
        0
  0
LINE
  5
179
330
E3
100
AcDbEntity
  8
0
  6
Continuous
100
AcDbLine
 10
117.6689547928488
 20
102.3366497092013
 30
0.0
 11
131.6718295505195
 21
102.3366497092013
 31
0.0
  0
LINE
  5
17A
330
E3
100
AcDbEntity
  8
0
  6
Continuous
100
AcDbLine
 10
135.6718292555398
 20
102.3366497092013
 30
0.0
 11
149.6747040132106
 21
102.3366497092013
 31
0.0
  0
LINE
  5
17B
330
E3
100
AcDbEntity
  8
0
  6
Continuous
100
AcDbLine
 10
135.6718292555398
 20
102.3366497092013
 30
0.0
 11
134.3384973678229
 21
108.336647245797
 31
0.0
  0
LINE
  5
17C
330
E3
100
AcDbEntity
  8
0
  6
Continuous
100
AcDbLine
 10
134.3384973678229
 20
108.336647245797
 30
0.0
 11
133.0051654801059
 21
96.33664813073611
 31
0.0
  0
LINE
  5
17D
330
E3
100
AcDbEntity
  8
0
  6
Continuous
100
AcDbLine
 10
133.0051654801059
 20
96.33664813073611
 30
0.0
 11
131.6718295505195
 21
102.3366497092013
 31
0.0
  0
LINE
  5
17E
330
E3
100
AcDbEntity
  8
0
  6
Continuous
100
AcDbLine
 10
126.0983422018332
 20
154.4266057623784
 30
0.0
 11
127.3588961885855
 21
154.6488762460978
 31
0.0
  0
LINE
  5
17F
330
E3
100
AcDbEntity
  8
0
  6
Continuous
100
AcDbLine
 10
126.7286191952094
 20
154.5377410042381
 30
0.0
 11
127.4232104149629
 21
150.5985108061047
 31
0.0
  0
LINE
  5
180
330
E3
100
AcDbEntity
  8
0
  6
Continuous
100
AcDbLine
 10
142.8516363532757
 20
154.4266057623784
 30
0.0
 11
141.5910823665234
 21
154.6488762460978
 31
0.0
  0
LINE
  5
181
330
E3
100
AcDbEntity
  8
0
  6
Continuous
100
AcDbLine
 10
142.2213593598996
 20
154.5377410042381
 30
0.0
 11
141.5267681401461
 21
150.5985108061047
 31
0.0
  0
LINE
  5
182
330
E3
100
AcDbEntity
  8
0
  6
Continuous
100
AcDbLine
 10
81.32744777387924
 20
65.71592226623731
 30
0.0
 11
181.7205324108447
 21
65.71592226623731
 31
0.0
  0
LINE
  5
183
330
E3
100
AcDbEntity
  8
0
  6
Continuous
100
AcDbLine
 10
181.7205324108447
 20
73.80228834226773
 30
0.0
 11
181.7205324108447
 21
44.19473384603048
 31
0.0
  0
LINE
  5
184
330
E3
100
AcDbEntity
  8
0
  6
Continuous
100
AcDbLine
 10
81.32744777387924
 20
44.19473384603048
 30
0.0
 11
81.32744777387924
 21
65.71592226623731
 31
0.0
  0
LINE
  5
185
330
E3
100
AcDbEntity
  8
0
  6
Continuous
100
AcDbLine
 10
157.7505127262887
 20
73.80228834226773
 30
0.0
 11
157.7505127262887
 21
44.19473384603048
 31
0.0
  0
LINE
  5
186
330
E3
100
AcDbEntity
  8
0
  6
Continuous
100
AcDbLine
 10
81.32744777387924
 20
54.95533007706861
 30
0.0
 11
181.7205324108447
 21
54.95533007706861
 31
0.0
  0
LINE
  5
187
330
E3
100
AcDbEntity
  8
0
  6
Continuous
100
AcDbLine
 10
81.32744777387924
 20
44.19473384603048
 30
0.0
 11
181.7205324108447
 21
44.19473384603048
 31
0.0
  0
LINE
  5
188
330
E3
100
AcDbEntity
  8
0
  6
Continuous
100
AcDbLine
 10
157.7505127262887
 20
73.80228834226773
 30
0.0
 11
181.7205324108447
 21
73.80228834226773
 31
0.0
  0
MTEXT
  5
189
330
E3
100
AcDbEntity
  8
0
  6
Continuous
100
AcDbMText
 10
84.8833736816509
 20
56.87227980912257
 30
0.0
 40
2.499999999999999
 41
69.01187578516154
 71
     7
 72
     1
  1
\A1;{\fCentury Gothic|b0|i0|c0|p34;LOW, MEDIUM OR HIGH WIND ZONE.\P ROOF PITCH \fArial|b0|i0|c0|p34;\H1.029412x;\U+2265\fCentury Gothic|b0|i0|c0|p34;\H0.971429x; 10\fArial|b0|i0|c0|p34;\H1.029412x;\U+00B0}
  7
GENERATED_STYLE_1
 73
     1
 44
1.056355725756043
  0
MTEXT
  5
18A
330
E3
100
AcDbEntity
  8
0
  6
Continuous
100
AcDbMText
 10
84.8833736816509
 20
46.44943563216874
 30
0.0
 40
2.5
 41
69.01187578516154
 71
     7
 72
     1
  1
\A1;{\fCentury Gothic|b0|i0|c0|p34;VERY HIGH WIND ZONE.\P ROOF PITCH \fArial|b0|i0|c0|p34;\H1.029412x;<\fCentury Gothic|b0|i0|c0|p34;\H0.971429x; 10\fArial|b0|i0|c0|p34;\H1.029412x;\U+00B0}
  7
GENERATED_STYLE_1
 73
     1
 44
1.056355725756043
  0
MTEXT
  5
18B
330
E3
100
AcDbEntity
  8
0
  6
Continuous
100
AcDbMText
 10
169.382707738239
 20
58.91210996563881
 30
0.0
 40
2.499999999999999
 41
0.0
 71
     8
 72
     1
  1
{130MM}
  7
GENERATED_STYLE_1
 73
     1
 44
1.0
  0
MTEXT
  5
18C
330
E3
100
AcDbEntity
  8
0
  6
Continuous
100
AcDbMText
 10
169.382707738239
 20
47.67333044418104
 30
0.0
 40
2.499999999999999
 41
0.0
 71
     8
 72
     1
  1
{200MM}
  7
GENERATED_STYLE_1
 73
     1
 44
1.0
  0
MTEXT
  5
18D
330
E3
100
AcDbEntity
  8
0
  6
Continuous
100
AcDbMText
 10
169.382707738239
 20
68.79417160598437
 30
0.0
 40
2.499999999999999
 41
0.0
 71
     8
 72
     1
  1
{A}
  7
GENERATED_STYLE_1
 73
     1
 44
1.0
  0
ENDBLK
  5
E5
330
E3
100
AcDbEntity
  8
0
100
AcDbBlockEnd
  0
BLOCK
  5
193
330
192
100
AcDbEntity
  8
0
100
AcDbBlockBegin
  2
R-TRSS-11 TOP RIDGE DETAIL_STORY_MARKER
 70
     0
 10
0.0
 20
0.0
 30
0.0
  3
R-TRSS-11 TOP RIDGE DETAIL_STORY_MARKER
  1

  0
ENDBLK
  5
194
330
192
100
AcDbEntity
  8
0
100
AcDbBlockEnd
  0
ENDSEC
  0
SECTION
  2
ENTITIES
  0
HATCH
  5
3F
330
1F
100
AcDbEntity
  8
Doc_ Finishes
  6
Continuous
100
AcDbHatch
 10
0.0
 20
0.0
 30
0.0
210
0.0
220
0.0
230
1.0
  2
SOLID
 70
     1
 71
     0
 91
        1
 92
        3
 72
     0
 73
     1
 93
       54
 10
27.4117749414874
 20
16.87044408857867
 10
26.89356552397386
 20
16.5825499677378
 10
26.5480925789648
 20
16.29465584689693
 10
26.12584786839819
 20
16.02595466744544
 10
25.76118198199976
 20
15.60370995687884
 10
25.39651609560134
 20
15.33500877742737
 10
25.07023609198168
 20
14.89357112547136
 10
24.49444785029994
 20
14.45213347351537
 10
23.93785255000758
 20
14.02988876294876
 10
23.43883607388344
 20
13.81876640766546
 10
22.74789018386533
 20
13.39652169709885
 10
22.09533017662603
 20
12.99346992792163
 10
21.63469958328064
 20
12.55203227596564
 10
20.90536781048376
 20
12.12978756539902
 10
20.59828074825351
 20
11.7459287376112
 10
20.04168544796116
 20
11.28529814426581
 10
19.36993249933246
 20
10.8630534336992
 10
18.73656543348255
 20
10.42161578174319
 10
18.04561954346447
 20
10.15291460229172
 10
17.1051654153843
 20
9.692284008946325
 10
16.39502658397681
 20
9.020531060317637
 10
15.83843128368446
 20
8.598286349751023
 10
15.12829245227699
 20
8.137655756405634
 10
14.84039833143612
 20
7.98411222529051
 10
14.37976773809073
 20
7.81137575278599
 10
14.07268067586046
 20
7.523481631945121
 10
14.0151018516923
 20
7.216394569714853
 10
14.14945244141803
 20
6.890114566095209
 10
14.4373465622589
 20
6.563834562475543
 10
14.8787842142149
 20
6.659799269422514
 10
15.51215128006482
 20
7.06285103859973
 10
16.01116775618899
 20
7.389131042219374
 10
16.33744775980864
 20
7.696218104449641
 10
16.51018423231316
 20
7.907340459732938
 10
17.01303929671522
 20
8.421711288968723
 10
17.33548071205699
 20
8.652026585641417
 10
17.75004824606785
 20
8.99749953065046
 10
18.14158425041142
 20
9.204783297655894
 10
19.24709767444037
 20
9.75754000967037
 10
20.23745345013295
 20
10.47151742935572
 10
21.4120614631637
 20
11.1624633193738
 10
21.84966052684182
 20
11.64612544238645
 10
22.49454335752537
 20
12.06069297639732
 10
23.78430901889248
 20
12.9819541630881
 10
24.3600972605742
 20
13.25833251909534
 10
25.6498629219413
 20
14.24868829478776
 10
25.85714668894673
 20
14.64022429913134
 10
26.68628175696843
 20
15.23904407048036
 10
27.28510152831745
 20
15.72270619349301
 10
27.81482671066464
 20
16.1142421978366
 10
28.27545730401003
 20
16.52880973184745
 10
28.22939424467549
 20
16.7821565581874
 10
28.09120506667188
 20
16.89731420652375
 10
27.56147988432467
 20
16.89731420652375
 97
        0
 75
     0
 76
     1
 98
        0
  0
LINE
  5
41
330
1F
100
AcDbEntity
  8
Doc_ Finishes
  6
Continuous
100
AcDbLine
 10
27.41177566876475
 20
16.87044600708104
 30
0.0
 11
26.89356756490952
 21
16.58254868214004
 31
0.0
  0
LINE
  5
42
330
1F
100
AcDbEntity
  8
Doc_ Finishes
  6
Continuous
100
AcDbLine
 10
26.89356756490952
 20
16.58254868214004
 30
0.0
 11
26.54809254523997
 21
16.29465578284815
 31
0.0
  0
LINE
  5
43
330
1F
100
AcDbEntity
  8
Doc_ Finishes
  6
Continuous
100
AcDbLine
 10
26.54809254523997
 20
16.29465578284815
 30
0.0
 11
26.12584579071597
 21
16.02595249803305
 31
0.0
  0
LINE
  5
44
330
1F
100
AcDbEntity
  8
Doc_ Finishes
  6
Continuous
100
AcDbLine
 10
26.12584579071597
 20
16.02595249803305
 30
0.0
 11
25.76118115656963
 21
15.60371016915814
 31
0.0
  0
LINE
  5
45
330
1F
100
AcDbEntity
  8
Doc_ Finishes
  6
Continuous
100
AcDbLine
 10
25.76118115656963
 20
15.60371016915814
 30
0.0
 11
25.39651652242329
 21
15.33500688434304
 31
0.0
  0
LINE
  5
46
330
1F
100
AcDbEntity
  8
Doc_ Finishes
  6
Continuous
100
AcDbLine
 10
25.39651652242329
 20
15.33500688434304
 30
0.0
 11
25.07023554287962
 21
14.89357051534225
 31
0.0
  0
LINE
  5
47
330
1F
100
AcDbEntity
  8
Doc_ Finishes
  6
Continuous
100
AcDbLine
 10
25.07023554287962
 20
14.89357051534225
 30
0.0
 11
24.49444974429583
 21
14.45213414634146
 31
0.0
  0
LINE
  5
48
330
1F
100
AcDbEntity
  8
Doc_ Finishes
  6
Continuous
100
AcDbLine
 10
24.49444974429583
 20
14.45213414634146
 30
0.0
 11
23.93785356018882
 21
14.02988739181747
 31
0.0
  0
LINE
  5
49
330
1F
100
AcDbEntity
  8
Doc_ Finishes
  6
Continuous
100
AcDbLine
 10
23.93785356018882
 20
14.02988739181747
 30
0.0
 11
23.43883507081038
 21
13.81876622738001
 31
0.0
  0
LINE
  5
4A
330
1F
100
AcDbEntity
  8
Doc_ Finishes
  6
Continuous
100
AcDbLine
 10
23.43883507081038
 20
13.81876622738001
 30
0.0
 11
22.74788945712038
 21
13.39652389850511
 31
0.0
  0
LINE
  5
4B
330
1F
100
AcDbEntity
  8
Doc_ Finishes
  6
Continuous
100
AcDbLine
 10
22.74788945712038
 20
13.39652389850511
 30
0.0
 11
22.09533192368214
 21
12.993471184107
 31
0.0
  0
LINE
  5
4C
330
1F
100
AcDbEntity
  8
Doc_ Finishes
  6
Continuous
100
AcDbLine
 10
22.09533192368214
 20
12.993471184107
 30
0.0
 11
21.63470151455547
 21
12.55203038945712
 31
0.0
  0
LINE
  5
4D
330
1F
100
AcDbEntity
  8
Doc_ Finishes
  6
Continuous
100
AcDbLine
 10
21.63470151455547
 20
12.55203038945712
 30
0.0
 11
20.90536782061369
 21
12.12978806058222
 31
0.0
  0
LINE
  5
4E
330
1F
100
AcDbEntity
  8
Doc_ Finishes
  6
Continuous
100
AcDbLine
 10
20.90536782061369
 20
12.12978806058222
 30
0.0
 11
20.59828088119591
 21
11.74592938630999
 31
0.0
  0
LINE
  5
4F
330
1F
100
AcDbEntity
  8
Doc_ Finishes
  6
Continuous
100
AcDbLine
 10
20.59828088119591
 20
11.74592938630999
 30
0.0
 11
20.0416846970889
 21
11.28529897718332
 31
0.0
  0
LINE
  5
50
330
1F
100
AcDbEntity
  8
Doc_ Finishes
  6
Continuous
100
AcDbLine
 10
20.0416846970889
 20
11.28529897718332
 30
0.0
 11
19.36993312352478
 21
10.86305222265932
 31
0.0
  0
LINE
  5
51
330
1F
100
AcDbEntity
  8
Doc_ Finishes
  6
Continuous
100
AcDbLine
 10
19.36993312352478
 20
10.86305222265932
 30
0.0
 11
18.73656520456333
 21
10.42161585365854
 31
0.0
  0
LINE
  5
52
330
1F
100
AcDbEntity
  8
Doc_ Finishes
  6
Continuous
100
AcDbLine
 10
18.73656520456333
 20
10.42161585365854
 30
0.0
 11
18.04561959087333
 21
10.15291256884343
 31
0.0
  0
LINE
  5
53
330
1F
100
AcDbEntity
  8
Doc_ Finishes
  6
Continuous
100
AcDbLine
 10
18.04561959087333
 20
10.15291256884343
 30
0.0
 11
17.1051647324941
 21
9.692282159716758
 31
0.0
  0
LINE
  5
54
330
1F
100
AcDbEntity
  8
Doc_ Finishes
  6
Continuous
100
AcDbLine
 10
17.1051647324941
 20
9.692282159716758
 30
0.0
 11
16.3950250786782
 21
9.020530586152635
 31
0.0
  0
LINE
  5
55
330
1F
100
AcDbEntity
  8
Doc_ Finishes
  6
Continuous
100
AcDbLine
 10
16.3950250786782
 20
9.020530586152635
 30
0.0
 11
15.8384333202203
 21
8.598288257277733
 31
0.0
  0
LINE
  5
56
330
1F
100
AcDbEntity
  8
Doc_ Finishes
  6
Continuous
100
AcDbLine
 10
15.8384333202203
 20
8.598288257277733
 30
0.0
 11
15.1282936664044
 21
8.137657848151063
 31
0.0
  0
LINE
  5
57
330
1F
100
AcDbEntity
  8
Doc_ Finishes
  6
Continuous
100
AcDbLine
 10
15.1282936664044
 20
8.137657848151063
 30
0.0
 11
14.84039634146341
 21
7.984114378442171
 31
0.0
  0
LINE
  5
58
330
1F
100
AcDbEntity
  8
Doc_ Finishes
  6
Continuous
100
AcDbLine
 10
14.84039634146341
 20
7.984114378442171
 30
0.0
 11
14.37976593233674
 21
7.811376868607396
 31
0.0
  0
LINE
  5
59
330
1F
100
AcDbEntity
  8
Doc_ Finishes
  6
Continuous
100
AcDbLine
 10
14.37976593233674
 20
7.811376868607396
 30
0.0
 11
14.07267899291896
 21
7.523479543666405
 31
0.0
  0
LINE
  5
5A
330
1F
100
AcDbEntity
  8
Doc_ Finishes
  6
Continuous
100
AcDbLine
 10
14.07267899291896
 20
7.523479543666405
 30
0.0
 11
14.0151012981904
 21
7.216392604248622
 31
0.0
  0
LINE
  5
5B
330
1F
100
AcDbEntity
  8
Doc_ Finishes
  6
Continuous
100
AcDbLine
 10
14.0151012981904
 20
7.216392604248622
 30
0.0
 11
14.14945072777341
 21
6.890116050354051
 31
0.0
  0
LINE
  5
5C
330
1F
100
AcDbEntity
  8
Doc_ Finishes
  6
Continuous
100
AcDbLine
 10
14.14945072777341
 20
6.890116050354051
 30
0.0
 11
14.4373480527144
 21
6.563835070810386
 31
0.0
  0
LINE
  5
5D
330
1F
100
AcDbEntity
  8
Doc_ Finishes
  6
Continuous
100
AcDbLine
 10
14.4373480527144
 20
6.563835070810386
 30
0.0
 11
14.87878442171519
 21
6.659800845790715
 31
0.0
  0
LINE
  5
5E
330
1F
100
AcDbEntity
  8
Doc_ Finishes
  6
Continuous
100
AcDbLine
 10
14.87878442171519
 20
6.659800845790715
 30
0.0
 11
15.51215234067663
 21
7.062849134539732
 31
0.0
  0
LINE
  5
5F
330
1F
100
AcDbEntity
  8
Doc_ Finishes
  6
Continuous
100
AcDbLine
 10
15.51215234067663
 20
7.062849134539732
 30
0.0
 11
16.01116640440598
 21
7.389130114083398
 31
0.0
  0
LINE
  5
60
330
1F
100
AcDbEntity
  8
Doc_ Finishes
  6
Continuous
100
AcDbLine
 10
16.01116640440598
 20
7.389130114083398
 30
0.0
 11
16.33744738394964
 21
7.69621705350118
 31
0.0
  0
LINE
  5
61
330
1F
100
AcDbEntity
  8
Doc_ Finishes
  6
Continuous
100
AcDbLine
 10
16.33744738394964
 20
7.69621705350118
 30
0.0
 11
16.51018489378442
 21
7.907342643587726
 31
0.0
  0
LINE
  5
62
330
1F
100
AcDbEntity
  8
Doc_ Finishes
  6
Continuous
100
AcDbLine
 10
16.51018489378442
 20
7.907342643587726
 30
0.0
 11
17.0130404209284
 21
8.421709284028323
 31
0.0
  0
LINE
  5
63
330
1F
100
AcDbEntity
  8
Doc_ Finishes
  6
Continuous
100
AcDbLine
 10
17.0130404209284
 20
8.421709284028323
 30
0.0
 11
17.33547993705743
 21
8.65202448859166
 31
0.0
  0
LINE
  5
64
330
1F
100
AcDbEntity
  8
Doc_ Finishes
  6
Continuous
100
AcDbLine
 10
17.33547993705743
 20
8.65202448859166
 30
0.0
 11
17.75004819040126
 21
8.997499508261212
 31
0.0
  0
LINE
  5
65
330
1F
100
AcDbEntity
  8
Doc_ Finishes
  6
Continuous
100
AcDbLine
 10
17.75004819040126
 20
8.997499508261212
 30
0.0
 11
18.14158536585366
 21
9.204783634933122
 31
0.0
  0
LINE
  5
66
330
1F
100
AcDbEntity
  8
Doc_ Finishes
  6
Continuous
100
AcDbLine
 10
18.14158536585366
 20
9.204783634933122
 30
0.0
 11
19.24709923288749
 21
9.75753835562549
 31
0.0
  0
LINE
  5
67
330
1F
100
AcDbEntity
  8
Doc_ Finishes
  6
Continuous
100
AcDbLine
 10
19.24709923288749
 20
9.75753835562549
 30
0.0
 11
20.23745328481511
 21
10.47151947285602
 31
0.0
  0
LINE
  5
68
330
1F
100
AcDbEntity
  8
Doc_ Finishes
  6
Continuous
100
AcDbLine
 10
20.23745328481511
 20
10.47151947285602
 30
0.0
 11
21.41206038552321
 21
11.16246508654602
 31
0.0
  0
LINE
  5
69
330
1F
100
AcDbEntity
  8
Doc_ Finishes
  6
Continuous
100
AcDbLine
 10
21.41206038552321
 20
11.16246508654602
 30
0.0
 11
21.84965971675846
 21
11.64612657356412
 31
0.0
  0
LINE
  5
6A
330
1F
100
AcDbEntity
  8
Doc_ Finishes
  6
Continuous
100
AcDbLine
 10
21.84965971675846
 20
11.64612657356412
 30
0.0
 11
22.49454317466562
 21
12.06069482690795
 31
0.0
  0
LINE
  5
6B
330
1F
100
AcDbEntity
  8
Doc_ Finishes
  6
Continuous
100
AcDbLine
 10
22.49454317466562
 20
12.06069482690795
 30
0.0
 11
23.78431009047993
 21
12.98195564516129
 31
0.0
  0
LINE
  5
6C
330
1F
100
AcDbEntity
  8
Doc_ Finishes
  6
Continuous
100
AcDbLine
 10
23.78431009047993
 20
12.98195564516129
 30
0.0
 11
24.36009588906373
 21
13.25833300550747
 31
0.0
  0
LINE
  5
6D
330
1F
100
AcDbEntity
  8
Doc_ Finishes
  6
Continuous
100
AcDbLine
 10
24.36009588906373
 20
13.25833300550747
 30
0.0
 11
25.64986280487805
 21
14.24868705743509
 31
0.0
  0
LINE
  5
6E
330
1F
100
AcDbEntity
  8
Doc_ Finishes
  6
Continuous
100
AcDbLine
 10
25.64986280487805
 20
14.24868705743509
 30
0.0
 11
25.85714693154996
 21
14.64022423288749
 31
0.0
  0
LINE
  5
6F
330
1F
100
AcDbEntity
  8
Doc_ Finishes
  6
Continuous
100
AcDbLine
 10
25.85714693154996
 20
14.64022423288749
 30
0.0
 11
26.68628343823761
 21
15.2390455350118
 31
0.0
  0
LINE
  5
70
330
1F
100
AcDbEntity
  8
Doc_ Finishes
  6
Continuous
100
AcDbLine
 10
26.68628343823761
 20
15.2390455350118
 30
0.0
 11
27.28510031471282
 21
15.7227070220299
 31
0.0
  0
LINE
  5
71
330
1F
100
AcDbEntity
  8
Doc_ Finishes
  6
Continuous
100
AcDbLine
 10
27.28510031471282
 20
15.7227070220299
 30
0.0
 11
27.81482838316287
 21
16.1142441974823
 31
0.0
  0
LINE
  5
72
330
1F
100
AcDbEntity
  8
Doc_ Finishes
  6
Continuous
100
AcDbLine
 10
27.81482838316287
 20
16.1142441974823
 30
0.0
 11
28.27545879228953
 21
16.52880802517702
 31
0.0
  0
LINE
  5
73
330
1F
100
AcDbEntity
  8
Doc_ Finishes
  6
Continuous
100
AcDbLine
 10
28.27545879228953
 20
16.52880802517702
 30
0.0
 11
28.22939221085759
 21
16.78215873328088
 31
0.0
  0
LINE
  5
74
330
1F
100
AcDbEntity
  8
Doc_ Finishes
  6
Continuous
100
AcDbLine
 10
28.22939221085759
 20
16.78215873328088
 30
0.0
 11
28.09120574350905
 21
16.897314122738
 31
0.0
  0
LINE
  5
75
330
1F
100
AcDbEntity
  8
Doc_ Finishes
  6
Continuous
100
AcDbLine
 10
28.09120574350905
 20
16.897314122738
 30
0.0
 11
27.56147767505901
 21
16.897314122738
 31
0.0
  0
LINE
  5
76
330
1F
100
AcDbEntity
  8
Doc_ Finishes
  6
Continuous
100
AcDbLine
 10
27.56147767505901
 20
16.897314122738
 30
0.0
 11
27.41177566876475
 21
16.87044600708104
 31
0.0
  0
HATCH
  5
77
330
1F
100
AcDbEntity
  8
Doc_ Finishes
  6
Continuous
100
AcDbHatch
 10
0.0
 20
0.0
 30
0.0
210
0.0
220
0.0
230
1.0
  2
SOLID
 70
     1
 71
     0
 91
        1
 92
        3
 72
     0
 73
     1
 93
       39
 10
27.65360600299377
 20
13.12014334109181
 10
27.21600693931564
 20
12.77467039608275
 10
26.54809257896482
 20
12.24494521373555
 10
25.92624127794851
 20
11.85340920939199
 10
25.32742150659951
 20
11.32368402704478
 10
24.72860173525052
 20
11.04730567103754
 10
24.08371890456698
 20
10.56364354802488
 10
23.62308831122158
 20
10.33332825135219
 10
23.231552306878
 20
10.03391836567767
 10
22.81698477286715
 20
9.619350831666825
 10
22.40241723885631
 20
9.38903553499415
 10
21.91875511584363
 20
9.043562589985086
 10
21.66540828950367
 20
8.859310352646935
 10
21.25084075549282
 20
8.582931996639696
 10
20.09926427212933
 20
7.753796928618002
 10
19.75379132712029
 20
7.477418572610764
 10
19.2931607337749
 20
7.316197864939873
 10
19.22406614477309
 20
6.993756449598113
 10
19.3622553227767
 20
6.717378093590874
 10
19.63863367878394
 20
6.602220445254527
 10
20.00713815346026
 20
6.8325357419272
 10
20.26048497980021
 20
7.131945627601722
 10
20.55989486547472
 20
7.362260924274415
 10
21.31993534449462
 20
7.707733869283458
 10
21.84966052684182
 20
8.122301403294307
 10
22.88607936186895
 20
8.882341882314256
 10
23.20852077721072
 20
9.342972475659646
 10
24.01462431556515
 20
9.734508480003234
 10
24.5673810275796
 20
10.05694989534501
 10
25.46561068460312
 20
10.60970660735953
 10
25.88017821861399
 20
11.07033720070492
 10
26.31777728229212
 20
11.34671555671216
 10
26.70931328663569
 20
11.30065249737762
 10
27.21600693931562
 20
11.55399932371759
 10
28.0681735370046
 20
12.17585062473387
 10
28.41364648201364
 20
12.49829204007566
 10
28.39061495234636
 20
12.77467039608289
 10
28.22939424467547
 20
13.00498569275559
 10
28.04514200733732
 20
13.05104875209013
 97
        0
 75
     0
 76
     1
 98
        0
  0
LINE
  5
78
330
1F
100
AcDbEntity
  8
Doc_ Finishes
  6
Continuous
100
AcDbLine
 10
27.6536064122738
 20
13.12014211250983
 30
0.0
 11
27.21600708103855
 21
12.77467151848938
 31
0.0
  0
LINE
  5
79
330
1F
100
AcDbEntity
  8
Doc_ Finishes
  6
Continuous
100
AcDbLine
 10
27.21600708103855
 20
12.77467151848938
 30
0.0
 11
26.54809254523997
 21
12.24494345003934
 31
0.0
  0
LINE
  5
7A
330
1F
100
AcDbEntity
  8
Doc_ Finishes
  6
Continuous
100
AcDbLine
 10
26.54809254523997
 20
12.24494345003934
 30
0.0
 11
25.92624016522423
 21
11.85341070023603
 31
0.0
  0
LINE
  5
7B
330
1F
100
AcDbEntity
  8
Doc_ Finishes
  6
Continuous
100
AcDbLine
 10
25.92624016522423
 20
11.85341070023603
 30
0.0
 11
25.32742328874902
 21
11.32368263178599
 31
0.0
  0
LINE
  5
7C
330
1F
100
AcDbEntity
  8
Doc_ Finishes
  6
Continuous
100
AcDbLine
 10
25.32742328874902
 20
11.32368263178599
 30
0.0
 11
24.72860198662471
 21
11.04730527143981
 31
0.0
  0
LINE
  5
7D
330
1F
100
AcDbEntity
  8
Doc_ Finishes
  6
Continuous
100
AcDbLine
 10
24.72860198662471
 20
11.04730527143981
 30
0.0
 11
24.08371852871754
 21
10.56364378442171
 31
0.0
  0
LINE
  5
7E
330
1F
100
AcDbEntity
  8
Doc_ Finishes
  6
Continuous
100
AcDbLine
 10
24.08371852871754
 20
10.56364378442171
 30
0.0
 11
23.62308811959087
 21
10.33332857985838
 31
0.0
  0
LINE
  5
7F
330
1F
100
AcDbEntity
  8
Doc_ Finishes
  6
Continuous
100
AcDbLine
 10
23.62308811959087
 20
10.33332857985838
 30
0.0
 11
23.23155094413847
 21
10.03392014162077
 31
0.0
  0
LINE
  5
80
330
1F
100
AcDbEntity
  8
Doc_ Finishes
  6
Continuous
100
AcDbLine
 10
23.23155094413847
 20
10.03392014162077
 30
0.0
 11
22.81698269079465
 21
9.619351888276947
 31
0.0
  0
LINE
  5
81
330
1F
100
AcDbEntity
  8
Doc_ Finishes
  6
Continuous
100
AcDbLine
 10
22.81698269079465
 20
9.619351888276947
 30
0.0
 11
22.40241886309992
 21
9.389036683713611
 31
0.0
  0
LINE
  5
82
330
1F
100
AcDbEntity
  8
Doc_ Finishes
  6
Continuous
100
AcDbLine
 10
22.40241886309992
 20
9.389036683713611
 30
0.0
 11
21.91875295043273
 21
9.04356166404406
 31
0.0
  0
LINE
  5
83
330
1F
100
AcDbEntity
  8
Doc_ Finishes
  6
Continuous
100
AcDbLine
 10
21.91875295043273
 20
9.04356166404406
 30
0.0
 11
21.66540666797797
 21
8.859308615263572
 31
0.0
  0
LINE
  5
84
330
1F
100
AcDbEntity
  8
Doc_ Finishes
  6
Continuous
100
AcDbLine
 10
21.66540666797797
 20
8.859308615263572
 30
0.0
 11
21.25084284028324
 21
8.582931254917387
 31
0.0
  0
LINE
  5
85
330
1F
100
AcDbEntity
  8
Doc_ Finishes
  6
Continuous
100
AcDbLine
 10
21.25084284028324
 20
8.582931254917387
 30
0.0
 11
20.09926239181747
 21
7.75379474822974
 31
0.0
  0
LINE
  5
86
330
1F
100
AcDbEntity
  8
Doc_ Finishes
  6
Continuous
100
AcDbLine
 10
20.09926239181747
 20
7.75379474822974
 30
0.0
 11
19.75379179779701
 21
7.477417387883556
 31
0.0
  0
LINE
  5
87
330
1F
100
AcDbEntity
  8
Doc_ Finishes
  6
Continuous
100
AcDbLine
 10
19.75379179779701
 20
7.477417387883556
 30
0.0
 11
19.29316138867033
 21
7.316199842643588
 31
0.0
  0
LINE
  5
88
330
1F
100
AcDbEntity
  8
Doc_ Finishes
  6
Continuous
100
AcDbLine
 10
19.29316138867033
 20
7.316199842643588
 30
0.0
 11
19.22406815499606
 21
6.993755900865461
 31
0.0
  0
LINE
  5
89
330
1F
100
AcDbEntity
  8
Doc_ Finishes
  6
Continuous
100
AcDbLine
 10
19.22406815499606
 20
6.993755900865461
 30
0.0
 11
19.36225462234461
 21
6.717378540519276
 31
0.0
  0
LINE
  5
8A
330
1F
100
AcDbEntity
  8
Doc_ Finishes
  6
Continuous
100
AcDbLine
 10
19.36225462234461
 20
6.717378540519276
 30
0.0
 11
19.63863198269079
 21
6.602218725413059
 31
0.0
  0
LINE
  5
8B
330
1F
100
AcDbEntity
  8
Doc_ Finishes
  6
Continuous
100
AcDbLine
 10
19.63863198269079
 20
6.602218725413059
 30
0.0
 11
20.00713808025177
 21
6.832533929976396
 31
0.0
  0
LINE
  5
8C
330
1F
100
AcDbEntity
  8
Doc_ Finishes
  6
Continuous
100
AcDbLine
 10
20.00713808025177
 20
6.832533929976396
 30
0.0
 11
20.26048436270653
 21
7.1319467938631
 31
0.0
  0
LINE
  5
8D
330
1F
100
AcDbEntity
  8
Doc_ Finishes
  6
Continuous
100
AcDbLine
 10
20.26048436270653
 20
7.1319467938631
 30
0.0
 11
20.55989280094414
 21
7.362261998426435
 31
0.0
  0
LINE
  5
8E
330
1F
100
AcDbEntity
  8
Doc_ Finishes
  6
Continuous
100
AcDbLine
 10
20.55989280094414
 20
7.362261998426435
 30
0.0
 11
21.31993607395751
 21
7.707732592446892
 31
0.0
  0
LINE
  5
8F
330
1F
100
AcDbEntity
  8
Doc_ Finishes
  6
Continuous
100
AcDbLine
 10
21.31993607395751
 20
7.707732592446892
 30
0.0
 11
21.84965971675846
 21
8.122300845790717
 31
0.0
  0
LINE
  5
90
330
1F
100
AcDbEntity
  8
Doc_ Finishes
  6
Continuous
100
AcDbLine
 10
21.84965971675846
 20
8.122300845790717
 30
0.0
 11
22.88608035011802
 21
8.882339693154996
 31
0.0
  0
LINE
  5
91
330
1F
100
AcDbEntity
  8
Doc_ Finishes
  6
Continuous
100
AcDbLine
 10
22.88608035011802
 20
8.882339693154996
 30
0.0
 11
23.20851986624705
 21
9.342974527930762
 31
0.0
  0
LINE
  5
92
330
1F
100
AcDbEntity
  8
Doc_ Finishes
  6
Continuous
100
AcDbLine
 10
23.20851986624705
 20
9.342974527930762
 30
0.0
 11
24.01462529504327
 21
9.734507277734066
 31
0.0
  0
LINE
  5
93
330
1F
100
AcDbEntity
  8
Doc_ Finishes
  6
Continuous
100
AcDbLine
 10
24.01462529504327
 20
9.734507277734066
 30
0.0
 11
24.56738001573564
 21
10.05695121951219
 31
0.0
  0
LINE
  5
94
330
1F
100
AcDbEntity
  8
Doc_ Finishes
  6
Continuous
100
AcDbLine
 10
24.56738001573564
 20
10.05695121951219
 30
0.0
 11
25.46560975609756
 21
10.60970594020456
 31
0.0
  0
LINE
  5
95
330
1F
100
AcDbEntity
  8
Doc_ Finishes
  6
Continuous
100
AcDbLine
 10
25.46560975609756
 20
10.60970594020456
 30
0.0
 11
25.88017800944139
 21
11.07033634933124
 31
0.0
  0
LINE
  5
96
330
1F
100
AcDbEntity
  8
Doc_ Finishes
  6
Continuous
100
AcDbLine
 10
25.88017800944139
 20
11.07033634933124
 30
0.0
 11
26.31777734067663
 21
11.34671370967742
 31
0.0
  0
LINE
  5
97
330
1F
100
AcDbEntity
  8
Doc_ Finishes
  6
Continuous
100
AcDbLine
 10
26.31777734067663
 20
11.34671370967742
 30
0.0
 11
26.70931451612903
 21
11.30065155389457
 31
0.0
  0
LINE
  5
98
330
1F
100
AcDbEntity
  8
Doc_ Finishes
  6
Continuous
100
AcDbLine
 10
26.70931451612903
 20
11.30065155389457
 30
0.0
 11
27.21600708103855
 21
11.55399783634933
 31
0.0
  0
LINE
  5
99
330
1F
100
AcDbEntity
  8
Doc_ Finishes
  6
Continuous
100
AcDbLine
 10
27.21600708103855
 20
11.55399783634933
 30
0.0
 11
28.06817466561763
 21
12.17585021636507
 31
0.0
  0
LINE
  5
9A
330
1F
100
AcDbEntity
  8
Doc_ Finishes
  6
Continuous
100
AcDbLine
 10
28.06817466561763
 20
12.17585021636507
 30
0.0
 11
28.41364525963808
 21
12.49829415814319
 31
0.0
  0
LINE
  5
9B
330
1F
100
AcDbEntity
  8
Doc_ Finishes
  6
Continuous
100
AcDbLine
 10
28.41364525963808
 20
12.49829415814319
 30
0.0
 11
28.39061418174666
 21
12.77467151848938
 31
0.0
  0
LINE
  5
9C
330
1F
100
AcDbEntity
  8
Doc_ Finishes
  6
Continuous
100
AcDbLine
 10
28.39061418174666
 20
12.77467151848938
 30
0.0
 11
28.22939221085759
 21
13.00498672305271
 31
0.0
  0
LINE
  5
9D
330
1F
100
AcDbEntity
  8
Doc_ Finishes
  6
Continuous
100
AcDbLine
 10
28.22939221085759
 20
13.00498672305271
 30
0.0
 11
28.04514358772619
 21
13.05104887883556
 31
0.0
  0
LINE
  5
9E
330
1F
100
AcDbEntity
  8
Doc_ Finishes
  6
Continuous
100
AcDbLine
 10
28.04514358772619
 20
13.05104887883556
 30
0.0
 11
27.6536064122738
 21
13.12014211250983
 31
0.0
  0
HATCH
  5
9F
330
1F
100
AcDbEntity
  8
Doc_ Finishes
  6
Continuous
100
AcDbHatch
 10
0.0
 20
0.0
 30
0.0
210
0.0
220
0.0
230
1.0
  2
SOLID
 70
     1
 71
     0
 91
        1
 92
        3
 72
     0
 73
     1
 93
       47
 10
28.06817353700456
 20
15.74573772316067
 10
28.30309513961077
 20
15.62136746295728
 10
28.4412843176144
 20
15.4002647781515
 10
28.93876535842742
 20
15.17916209334572
 10
29.82317609765057
 20
14.40530269652538
 10
30.92868952167951
 20
13.74199464210799
 10
31.59199757609689
 20
13.3827027792986
 10
32.20002995931279
 20
13.07868658769064
 10
33.55428390374828
 20
12.08372450606458
 10
34.07940278016201
 20
11.69679480765445
 10
34.88090001258301
 20
11.08876242443854
 10
35.59948373820179
 20
10.50836787682334
 10
36.5668079842271
 20
9.817421986805197
 10
37.06428902504012
 20
9.458130123995785
 10
37.81051058625966
 20
8.933011247582023
 10
38.61200781868061
 20
8.407892371168286
 10
38.77783483228498
 20
8.186789686362482
 10
39.38586721550092
 20
7.744584316750918
 10
40.18736444792187
 20
6.915449248729224
 10
40.7953968311378
 20
6.44560604351692
 10
41.56925622795804
 20
6.169227687509681
 10
42.23256428237543
 20
6.086314180707507
 10
42.48130480278193
 20
6.30741686551329
 10
42.14965077557326
 20
6.611433057121246
 10
41.48634272115586
 20
6.998362755531397
 10
40.76775899553709
 20
7.357654618340788
 10
40.18736444792187
 20
8.048600508358874
 10
38.99893751709079
 20
8.822459905179112
 10
38.47381864067705
 20
9.319940945992132
 10
38.22507812027052
 20
9.734508480003
 10
37.17484036744301
 20
10.31490302761817
 10
36.73263499783144
 20
10.78474623283046
 10
36.2351539570184
 20
11.17167593124059
 10
35.48893239579888
 20
11.61388130085215
 10
34.85326217698223
 20
12.16663801286669
 10
34.35578113616919
 20
12.58120554687754
 10
33.69247308175183
 20
12.99577308088841
 10
33.22262987653953
 20
13.32742710809708
 10
32.7251488357265
 20
13.5761676285036
 10
31.93747052110588
 20
14.06443605744977
 10
31.43077686842594
 20
14.38687747279155
 10
30.92408321574601
 20
14.70931888813342
 10
30.62467333007151
 20
15.100854892477
 10
29.95675896972068
 20
15.67664313415887
 10
29.47309684670803
 20
15.9530214901661
 10
28.82821401602447
 20
16.36758902417695
 10
28.50577260068269
 20
16.22939984617334
 97
        0
 75
     0
 76
     1
 98
        0
  0
LINE
  5
A0
330
1F
100
AcDbEntity
  8
Doc_ Finishes
  6
Continuous
100
AcDbLine
 10
28.30309697088906
 20
15.62136850904799
 30
0.0
 11
28.06817466561763
 21
15.74573809992132
 31
0.0
  0
LINE
  5
A1
330
1F
100
AcDbEntity
  8
Doc_ Finishes
  6
Continuous
100
AcDbLine
 10
28.44128343823761
 20
15.40026308025177
 30
0.0
 11
28.30309697088906
 21
15.62136850904799
 31
0.0
  0
LINE
  5
A2
330
1F
100
AcDbEntity
  8
Doc_ Finishes
  6
Continuous
100
AcDbLine
 10
28.93876622738001
 20
15.17916207710464
 30
0.0
 11
28.44128343823761
 21
15.40026308025177
 31
0.0
  0
LINE
  5
A3
330
1F
100
AcDbEntity
  8
Doc_ Finishes
  6
Continuous
100
AcDbLine
 10
29.82317466561762
 20
14.40530192761605
 30
0.0
 11
28.93876622738001
 21
15.17916207710464
 31
0.0
  0
LINE
  5
A4
330
1F
100
AcDbEntity
  8
Doc_ Finishes
  6
Continuous
100
AcDbLine
 10
30.92868853265146
 20
13.74199449252557
 30
0.0
 11
29.82317466561762
 21
14.40530192761605
 31
0.0
  0
LINE
  5
A5
330
1F
100
AcDbEntity
  8
Doc_ Finishes
  6
Continuous
100
AcDbLine
 10
31.59199596774193
 20
13.3827025963808
 30
0.0
 11
30.92868853265146
 21
13.74199449252557
 31
0.0
  0
LINE
  5
A6
330
1F
100
AcDbEntity
  8
Doc_ Finishes
  6
Continuous
100
AcDbLine
 10
32.20003147128246
 20
13.07868705743509
 30
0.0
 11
31.59199596774193
 21
13.3827025963808
 31
0.0
  0
LINE
  5
A7
330
1F
100
AcDbEntity
  8
Doc_ Finishes
  6
Continuous
100
AcDbLine
 10
33.55428452006294
 20
12.08372590479937
 30
0.0
 11
32.20003147128246
 21
13.07868705743509
 31
0.0
  0
LINE
  5
A8
330
1F
100
AcDbEntity
  8
Doc_ Finishes
  6
Continuous
100
AcDbLine
 10
34.07940106215578
 20
11.69679583005508
 30
0.0
 11
33.55428452006294
 21
12.08372590479937
 31
0.0
  0
LINE
  5
A9
330
1F
100
AcDbEntity
  8
Doc_ Finishes
  6
Continuous
100
AcDbLine
 10
34.8808993902439
 20
11.08876032651456
 30
0.0
 11
34.07940106215578
 21
11.69679583005508
 31
0.0
  0
LINE
  5
AA
330
1F
100
AcDbEntity
  8
Doc_ Finishes
  6
Continuous
100
AcDbLine
 10
35.59948318253343
 20
10.50836742722266
 30
0.0
 11
34.8808993902439
 21
11.08876032651456
 31
0.0
  0
LINE
  5
AB
330
1F
100
AcDbEntity
  8
Doc_ Finishes
  6
Continuous
100
AcDbLine
 10
36.56680615656963
 20
9.817421813532652
 30
0.0
 11
35.59948318253343
 21
10.50836742722266
 31
0.0
  0
LINE
  5
AC
330
1F
100
AcDbEntity
  8
Doc_ Finishes
  6
Continuous
100
AcDbLine
 10
37.06428894571204
 20
9.458129917387884
 30
0.0
 11
36.56680615656963
 21
9.817421813532652
 31
0.0
  0
LINE
  5
AD
330
1F
100
AcDbEntity
  8
Doc_ Finishes
  6
Continuous
100
AcDbLine
 10
37.8105109166011
 20
8.933013375295044
 30
0.0
 11
37.06428894571204
 21
9.458129917387884
 31
0.0
  0
LINE
  5
AE
330
1F
100
AcDbEntity
  8
Doc_ Finishes
  6
Continuous
100
AcDbLine
 10
38.61200924468922
 20
8.407892407553108
 30
0.0
 11
37.8105109166011
 21
8.933013375295044
 31
0.0
  0
LINE
  5
AF
330
1F
100
AcDbEntity
  8
Doc_ Finishes
  6
Continuous
100
AcDbLine
 10
38.77783389063729
 20
8.18679140440598
 30
0.0
 11
38.61200924468922
 21
8.407892407553108
 31
0.0
  0
LINE
  5
B0
330
1F
100
AcDbEntity
  8
Doc_ Finishes
  6
Continuous
100
AcDbLine
 10
39.3858693941778
 20
7.744584972462627
 30
0.0
 11
38.77783389063729
 21
8.18679140440598
 31
0.0
  0
LINE
  5
B1
330
1F
100
AcDbEntity
  8
Doc_ Finishes
  6
Continuous
100
AcDbLine
 10
40.18736329661684
 20
6.915448465774981
 30
0.0
 11
39.3858693941778
 21
7.744584972462627
 31
0.0
  0
LINE
  5
B2
330
1F
100
AcDbEntity
  8
Doc_ Finishes
  6
Continuous
100
AcDbLine
 10
40.79539880015735
 20
6.4456038552321
 30
0.0
 11
40.18736329661684
 21
6.915448465774981
 31
0.0
  0
LINE
  5
B3
330
1F
100
AcDbEntity
  8
Doc_ Finishes
  6
Continuous
100
AcDbLine
 10
41.56925452399685
 20
6.169226494885916
 30
0.0
 11
40.79539880015735
 21
6.4456038552321
 31
0.0
  0
LINE
  5
B4
330
1F
100
AcDbEntity
  8
Doc_ Finishes
  6
Continuous
100
AcDbLine
 10
42.23256638473643
 20
6.086316384736428
 30
0.0
 11
41.56925452399685
 21
6.169226494885916
 31
0.0
  0
LINE
  5
B5
330
1F
100
AcDbEntity
  8
Doc_ Finishes
  6
Continuous
100
AcDbLine
 10
42.48130556648308
 20
6.307417387883556
 30
0.0
 11
42.23256638473643
 21
6.086316384736428
 31
0.0
  0
LINE
  5
B6
330
1F
100
AcDbEntity
  8
Doc_ Finishes
  6
Continuous
100
AcDbLine
 10
42.14965184893784
 20
6.611432926829268
 30
0.0
 11
42.48130556648308
 21
6.307417387883556
 31
0.0
  0
LINE
  5
B7
330
1F
100
AcDbEntity
  8
Doc_ Finishes
  6
Continuous
100
AcDbLine
 10
41.48634441384736
 20
6.998363001573564
 30
0.0
 11
42.14965184893784
 21
6.611432926829268
 31
0.0
  0
LINE
  5
B8
330
1F
100
AcDbEntity
  8
Doc_ Finishes
  6
Continuous
100
AcDbLine
 10
40.76776062155783
 20
7.357654897718332
 30
0.0
 11
41.48634441384736
 21
6.998363001573564
 31
0.0
  0
LINE
  5
B9
330
1F
100
AcDbEntity
  8
Doc_ Finishes
  6
Continuous
100
AcDbLine
 10
40.18736329661684
 20
8.048600511408338
 30
0.0
 11
40.76776062155783
 21
7.357654897718332
 31
0.0
  0
LINE
  5
BA
330
1F
100
AcDbEntity
  8
Doc_ Finishes
  6
Continuous
100
AcDbLine
 10
38.99893931943352
 20
8.822460660896931
 30
0.0
 11
40.18736329661684
 21
8.048600511408338
 31
0.0
  0
LINE
  5
BB
330
1F
100
AcDbEntity
  8
Doc_ Finishes
  6
Continuous
100
AcDbLine
 10
38.47381835169158
 20
9.319939024390242
 30
0.0
 11
38.99893931943352
 21
8.822460660896931
 31
0.0
  0
LINE
  5
BC
330
1F
100
AcDbEntity
  8
Doc_ Finishes
  6
Continuous
100
AcDbLine
 10
38.22507916994492
 20
9.734507277734066
 30
0.0
 11
38.47381835169158
 21
9.319939024390242
 31
0.0
  0
LINE
  5
BD
330
1F
100
AcDbEntity
  8
Doc_ Finishes
  6
Continuous
100
AcDbLine
 10
37.17484166011014
 20
10.31490460267506
 30
0.0
 11
38.22507916994492
 21
9.734507277734066
 31
0.0
  0
LINE
  5
BE
330
1F
100
AcDbEntity
  8
Doc_ Finishes
  6
Continuous
100
AcDbLine
 10
36.7326352281668
 20
10.78474478756884
 30
0.0
 11
37.17484166011014
 21
10.31490460267506
 31
0.0
  0
LINE
  5
BF
330
1F
100
AcDbEntity
  8
Doc_ Finishes
  6
Continuous
100
AcDbLine
 10
36.23515243902439
 20
11.17167486231314
 30
0.0
 11
36.7326352281668
 21
10.78474478756884
 31
0.0
  0
LINE
  5
C0
330
1F
100
AcDbEntity
  8
Doc_ Finishes
  6
Continuous
100
AcDbLine
 10
35.48893046813532
 20
11.61388129425649
 30
0.0
 11
36.23515243902439
 21
11.17167486231314
 31
0.0
  0
LINE
  5
C1
330
1F
100
AcDbEntity
  8
Doc_ Finishes
  6
Continuous
100
AcDbLine
 10
34.85326121164437
 20
12.16663601494886
 30
0.0
 11
35.48893046813532
 21
11.61388129425649
 31
0.0
  0
LINE
  5
C2
330
1F
100
AcDbEntity
  8
Doc_ Finishes
  6
Continuous
100
AcDbLine
 10
34.35578284815106
 20
12.58120426829268
 30
0.0
 11
34.85326121164437
 21
12.16663601494886
 31
0.0
  0
LINE
  5
C3
330
1F
100
AcDbEntity
  8
Doc_ Finishes
  6
Continuous
100
AcDbLine
 10
33.69247098741149
 20
12.99577252163651
 30
0.0
 11
34.35578284815106
 21
12.58120426829268
 31
0.0
  0
LINE
  5
C4
330
1F
100
AcDbEntity
  8
Doc_ Finishes
  6
Continuous
100
AcDbLine
 10
33.2226308025177
 20
13.32742623918175
 30
0.0
 11
33.69247098741149
 21
12.99577252163651
 31
0.0
  0
LINE
  5
C5
330
1F
100
AcDbEntity
  8
Doc_ Finishes
  6
Continuous
100
AcDbLine
 10
32.7251480133753
 20
13.5761654209284
 30
0.0
 11
33.2226308025177
 21
13.32742623918175
 31
0.0
  0
LINE
  5
C6
330
1F
100
AcDbEntity
  8
Doc_ Finishes
  6
Continuous
100
AcDbLine
 10
31.93747098741148
 20
14.0644340086546
 30
0.0
 11
32.7251480133753
 21
13.5761654209284
 31
0.0
  0
LINE
  5
C7
330
1F
100
AcDbEntity
  8
Doc_ Finishes
  6
Continuous
100
AcDbLine
 10
31.43077842250197
 20
14.38687795043273
 30
0.0
 11
31.93747098741148
 21
14.0644340086546
 31
0.0
  0
LINE
  5
C8
330
1F
100
AcDbEntity
  8
Doc_ Finishes
  6
Continuous
100
AcDbLine
 10
30.92408143194335
 20
14.70931746656176
 30
0.0
 11
31.43077842250197
 21
14.38687795043273
 31
0.0
  0
LINE
  5
C9
330
1F
100
AcDbEntity
  8
Doc_ Finishes
  6
Continuous
100
AcDbLine
 10
30.62467299370574
 20
15.10085464201416
 30
0.0
 11
30.92408143194335
 21
14.70931746656176
 31
0.0
  0
LINE
  5
CA
330
1F
100
AcDbEntity
  8
Doc_ Finishes
  6
Continuous
100
AcDbLine
 10
29.95675845790716
 20
15.67664486624705
 30
0.0
 11
30.62467299370574
 21
15.10085464201416
 31
0.0
  0
LINE
  5
CB
330
1F
100
AcDbEntity
  8
Doc_ Finishes
  6
Continuous
100
AcDbLine
 10
29.47309697088906
 20
15.95302222659323
 30
0.0
 11
29.95675845790716
 21
15.67664486624705
 31
0.0
  0
LINE
  5
CC
330
1F
100
AcDbEntity
  8
Doc_ Finishes
  6
Continuous
100
AcDbLine
 10
28.8282135129819
 20
16.36759047993706
 30
0.0
 11
29.47309697088906
 21
15.95302222659323
 31
0.0
  0
LINE
  5
CD
330
1F
100
AcDbEntity
  8
Doc_ Finishes
  6
Continuous
100
AcDbLine
 10
28.50577399685287
 20
16.22939958693942
 30
0.0
 11
28.8282135129819
 21
16.36759047993706
 31
0.0
  0
LINE
  5
CE
330
1F
100
AcDbEntity
  8
Doc_ Finishes
  6
Continuous
100
AcDbLine
 10
28.06817466561763
 20
15.74573809992132
 30
0.0
 11
28.50577399685287
 21
16.22939958693942
 31
0.0
  0
LINE
  5
CF
330
1F
100
AcDbEntity
  8
Doc_ Finishes
  6
Continuous
 62
   254
370
    18
100
AcDbLine
 10
97.43333792289535
 20
5.093360051140834
 30
0.0
 11
97.43333792289535
 21
20.69901750590086
 31
0.0
  0
LINE
  5
D0
330
1F
100
AcDbEntity
  8
Doc_ Finishes
  6
Continuous
 62
   254
370
    18
100
AcDbLine
 10
7.000000491738787
 20
20.69901750590086
 30
0.0
 11
290.2406840086546
 21
20.69901750590086
 31
0.0
  0
LINE
  5
D1
330
1F
100
AcDbEntity
  8
Doc_ Finishes
  6
Continuous
 62
   254
370
    18
100
AcDbLine
 10
290.2406840086546
 20
20.69901750590086
 30
0.0
 11
290.2406840086546
 21
5.000000983477577
 31
0.0
  0
LINE
  5
D2
330
1F
100
AcDbEntity
  8
Doc_ Finishes
  6
Continuous
 62
   254
370
    18
100
AcDbLine
 10
290.2406840086546
 20
5.000000983477577
 30
0.0
 11
7.000000491738787
 21
5.000000983477577
 31
0.0
  0
LINE
  5
D3
330
1F
100
AcDbEntity
  8
Doc_ Finishes
  6
Continuous
 62
   254
370
    18
100
AcDbLine
 10
7.000000491738787
 20
20.69901750590086
 30
0.0
 11
7.000000491738787
 21
5.000000983477577
 31
0.0
  0
LINE
  5
D4
330
1F
100
AcDbEntity
  8
Doc_ Finishes
  6
Continuous
 62
   254
370
    18
100
AcDbLine
 10
190.2919443351691
 20
5.093360051140834
 30
0.0
 11
190.2919443351691
 21
20.69901750590086
 31
0.0
  0
LINE
  5
D5
330
1F
100
AcDbEntity
  8
Doc_ Finishes
  6
Continuous
 62
   254
370
    18
100
AcDbLine
 10
190.2919443351691
 20
12.8961909913454
 30
0.0
 11
290.2406840086546
 21
12.8961909913454
 31
0.0
  0
MTEXT
  5
D7
330
1F
100
AcDbEntity
  8
0
  6
Continuous
100
AcDbMText
 10
210.3494767103412
 20
15.00228412282651
 30
0.0
 40
2.25
 41
0.0
 71
     7
 72
     1
  1
{R-TRSS-11}
  7
GENERATED_STYLE_1
 73
     1
 44
1.0
  0
MTEXT
  5
D8
330
1F
100
AcDbEntity
  8
0
  6
Continuous
100
AcDbMText
 10
210.3494767103412
 20
11.03300550383743
 30
0.0
 40
3.0
 41
0.0
 71
     1
 72
     1
  1
{TOP RIDGE DETAIL}
  7
GENERATED_STYLE_1
 73
     1
 44
1.0
  0
MTEXT
  5
DA
330
1F
100
AcDbEntity
  8
Doc_ Floor
  6
Continuous
100
AcDbMText
 10
29.78353726544612
 20
13.33283672870609
 30
0.0
 40
5.603347280334726
 41
0.0
 71
     1
 72
     1
  1
{The Roofing Store}
  7
GENERATED_STYLE_2
 73
     1
 44
1.0
  0
MTEXT
  5
DC
102
{ACAD_XDICTIONARY
360
1C0
102
}
330
1F
100
AcDbEntity
  8
0
  6
Continuous
100
AcDbMText
 10
102.7389238446655
 20
6.378784417288154
 30
0.0
 40
1.5
 41
0.0
 71
     7
 72
     1
  1
{P: HEAD OFFICE              09 277 2717\P    ALBANY             09 972 0060\P    KATIKAIT            07 549 5190\P    WELLINGTON              04 974 5792\P    CHRISTCHURCH          03 348 6528}
  7
GENERATED_STYLE_1
 73
     1
 44
1.062946161486498
  0
MTEXT
  5
DD
330
1F
100
AcDbEntity
  8
0
  6
Continuous
100
AcDbMText
 10
149.4184566143587
 20
9.199084231526154
 30
0.0
 40
1.5
 41
0.0
 71
     7
 72
     1
  1
{WEB: www.theroofingstore.co.nz}
  7
GENERATED_STYLE_1
 73
     1
 44
1.0
  0
MTEXT
  5
DE
330
1F
100
AcDbEntity
  8
0
  6
Continuous
100
AcDbMText
 10
149.4184566143587
 20
6.620946023411263
 30
0.0
 40
1.5
 41
0.0
 71
     7
 72
     1
  1
{Copyright \U+00A9 The Roofing Store 2013}
  7
GENERATED_STYLE_1
 73
     1
 44
1.0
  0
MTEXT
  5
DF
330
1F
100
AcDbEntity
  8
0
  6
Continuous
100
AcDbMText
 10
273.9546684065315
 20
15.01595245667184
 30
0.0
 40
2.25
 41
0.0
 71
     7
 72
     1
  1
{1:5}
  7
GENERATED_STYLE_1
 73
     1
 44
1.0
  0
MTEXT
  5
E0
330
1F
100
AcDbEntity
  8
0
  6
Continuous
100
AcDbMText
 10
264.8396605309016
 20
15.51746459162148
 30
0.0
 40
1.5
 41
0.0
 71
     7
 72
     1
  1
{SCALE:}
  7
GENERATED_STYLE_1
 73
     1
 44
1.0
  0
MTEXT
  5
E1
330
1F
100
AcDbEntity
  8
0
  6
Continuous
100
AcDbMText
 10
191.5066235617487
 20
15.48695559872207
 30
0.0
 40
1.5
 41
0.0
 71
     7
 72
     1
  1
{DETAIL NUMBER:}
  7
GENERATED_STYLE_1
 73
     1
 44
1.0
  0
MTEXT
  5
E2
330
1F
100
AcDbEntity
  8
0
  6
Continuous
100
AcDbMText
 10
191.5066235617487
 20
9.005462392315325
 30
0.0
 40
1.5
 41
0.0
 71
     7
 72
     1
  1
{TITLE:}
  7
GENERATED_STYLE_1
 73
     1
 44
1.0
  0
INSERT
  5
18E
102
{ACAD_XDICTIONARY
360
18F
102
}
330
1F
100
AcDbEntity
  8
0
  6
Continuous
100
AcDbBlockReference
  2
Drawing_1_2
 10
113.0696479778444
 20
-41.81440729035931
 30
0.0
  0
ENDSEC
  0
SECTION
  2
OBJECTS
  0
DICTIONARY
  5
C
330
0
100
AcDbDictionary
281
     1
  3
ACAD_GROUP
350
D
  3
ACAD_LAYOUT
350
1A
  3
ACAD_MATERIAL
350
3B
  3
ACAD_MLEADERSTYLE
350
1BB
  3
ACAD_MLINESTYLE
350
17
  3
ACAD_PLOTSETTINGS
350
19
  3
ACAD_PLOTSTYLENAME
350
E
  3
ACAD_SCALELIST
350
195
  3
ACAD_VISUALSTYLE
350
2A
  3
AcDbVariableDictionary
350
1B9
  3
WATERMARKS
350
1B7
  0
DICTIONARY
  5
1C2
330
150
100
AcDbDictionary
280
     1
281
     1
  3
ACAD_MTEXT_RT
360
1C3
  0
DICTIONARY
  5
1C0
330
DC
100
AcDbDictionary
280
     1
281
     1
  3
ACAD_MTEXT_RT
360
1C1
  0
DICTIONARY
  5
18F
330
18E
100
AcDbDictionary
280
     1
281
     1
  3
ACAD_FILTER
360
190
  0
DICTIONARY
  5
D
102
{ACAD_REACTORS
330
C
102
}
330
C
100
AcDbDictionary
281
     1
  0
DICTIONARY
  5
1A
102
{ACAD_REACTORS
330
C
102
}
330
C
100
AcDbDictionary
281
     1
  3
Layout1
350
1E
  3
Model
350
22
  0
DICTIONARY
  5
3B
102
{ACAD_REACTORS
330
C
102
}
330
C
100
AcDbDictionary
281
     1
  3
ByBlock
350
3D
  3
ByLayer
350
3C
  3
Global
350
3E
  0
DICTIONARY
  5
1BB
102
{ACAD_REACTORS
330
C
102
}
330
C
100
AcDbDictionary
281
     1
  0
DICTIONARY
  5
17
102
{ACAD_REACTORS
330
C
102
}
330
C
100
AcDbDictionary
281
     1
  3
Standard
350
18
  0
DICTIONARY
  5
19
102
{ACAD_REACTORS
330
C
102
}
330
C
100
AcDbDictionary
281
     1
  0
ACDBDICTIONARYWDFLT
  5
E
102
{ACAD_REACTORS
330
C
102
}
330
C
100
AcDbDictionary
281
     1
  3
Normal
350
F
100
AcDbDictionaryWithDefault
340
F
  0
DICTIONARY
  5
195
102
{ACAD_REACTORS
330
C
102
}
330
C
100
AcDbDictionary
281
     1
  3
A0
350
196
  3
A1
350
197
  3
A2
350
198
  3
A3
350
199
  3
A4
350
19A
  3
A5
350
19B
  3
A6
350
19C
  3
A7
350
19D
  3
A8
350
19E
  3
A9
350
19F
  3
B0
350
1A0
  3
B1
350
1A1
  3
B2
350
1A2
  3
B3
350
1A3
  3
B4
350
1A4
  3
B5
350
1A5
  3
B6
350
1A6
  3
B7
350
1A7
  3
B8
350
1A8
  3
B9
350
1A9
  3
C0
350
1AA
  3
C1
350
1AB
  3
C2
350
1AC
  3
C3
350
1AD
  3
C4
350
1AE
  3
C5
350
1AF
  3
C6
350
1B0
  3
C7
350
1B1
  3
C8
350
1B2
  3
C9
350
1B3
  3
D0
350
1B4
  3
D1
350
1B5
  3
D2
350
1B6
  0
DICTIONARY
  5
2A
102
{ACAD_REACTORS
330
C
102
}
330
C
100
AcDbDictionary
281
     1
  3
2dWireframe
350
2F
  3
3D Hidden
350
31
  3
3dWireframe
350
30
  3
Basic
350
32
  3
Brighten
350
36
  3
ColorChange
350
3A
  3
Conceptual
350
34
  3
Dim
350
35
  3
Facepattern
350
39
  3
Flat
350
2B
  3
FlatWithEdges
350
2C
  3
Gouraud
350
2D
  3
GouraudWithEdges
350
2E
  3
Linepattern
350
38
  3
Realistic
350
33
  3
Thicken
350
37
  0
DICTIONARY
  5
1B9
102
{ACAD_REACTORS
330
C
102
}
330
C
100
AcDbDictionary
281
     1
  3
CANNOSCALE
350
1BD
  3
DIMASSOC
350
1BE
  3
HIDETEXT
350
1BF
  3
XCLIPFRAME
350
1BC
  0
DICTIONARY
  5
1B7
102
{ACAD_REACTORS
330
C
102
}
330
C
100
AcDbDictionary
281
     1
  3
AC_WATERMARK
350
1B8
  0
XRECORD
  5
1C3
102
{ACAD_REACTORS
330
1C2
102
}
330
1C2
100
AcDbXrecord
280
     1
 40
326192.0
  1
{TRS SEAM\P\pt37.7504;MIN. ROOF PITCH 5° FOR ANGLE SEAM\P\pt37.7504;MIN. ROOF PITCH 3° FOR DOUBLE STANDING SEAM}
  0
XRECORD
  5
1C1
102
{ACAD_REACTORS
330
1C0
102
}
330
1C0
100
AcDbXrecord
280
     1
 40
956118.0
  1
{P: HEAD OFFICE ^I^I09 277 2717\P    ALBANY ^I^I09 972 0060\P    KATIKAIT^I^I07 549 5190\P    WELLINGTON^I^I04 974 5792\P    CHRISTCHURCH^I^I03 348 6528}
  0
DICTIONARY
  5
190
102
{ACAD_REACTORS
330
18F
102
}
330
18F
100
AcDbDictionary
280
     1
281
     1
  3
SPATIAL
360
191
  0
LAYOUT
  5
1E
102
{ACAD_REACTORS
330
1A
102
}
330
1A
100
AcDbPlotSettings
  1

  2
none_device
  4

  6

 40
0.0
 41
0.0
 42
0.0
 43
0.0
 44
0.0
 45
0.0
 46
0.0
 47
0.0
 48
0.0
 49
0.0
140
0.0
141
0.0
142
1.0
143
1.0
 70
   688
 72
     0
 73
     0
 74
     5
  7

 75
    16
147
1.0
148
0.0
149
0.0
100
AcDbLayout
  1
Layout1
 70
     1
 71
     1
 10
0.0
 20
0.0
 11
12.0
 21
9.0
 12
0.0
 22
0.0
 32
0.0
 14
1.000000000000000E+20
 24
1.000000000000000E+20
 34
1.000000000000000E+20
 15
-1.000000000000000E+20
 25
-1.000000000000000E+20
 35
-1.000000000000000E+20
146
0.0
 13
0.0
 23
0.0
 33
0.0
 16
1.0
 26
0.0
 36
0.0
 17
0.0
 27
1.0
 37
0.0
 76
     0
330
1B
  0
LAYOUT
  5
22
102
{ACAD_REACTORS
330
1A
102
}
330
1A
100
AcDbPlotSettings
  1

  2
none_device
  4

  6

 40
0.0
 41
0.0
 42
0.0
 43
0.0
 44
0.0
 45
0.0
 46
0.0
 47
0.0
 48
0.0
 49
0.0
140
0.0
141
0.0
142
1.0
143
1.0
 70
  1712
 72
     0
 73
     0
 74
     0
  7

 75
     0
147
1.0
148
0.0
149
0.0
100
AcDbLayout
  1
Model
 70
     1
 71
     0
 10
0.0
 20
0.0
 11
12.0
 21
9.0
 12
0.0
 22
0.0
 32
0.0
 14
1.000000000000000E+20
 24
1.000000000000000E+20
 34
1.000000000000000E+20
 15
-1.000000000000000E+20
 25
-1.000000000000000E+20
 35
-1.000000000000000E+20
146
0.0
 13
0.0
 23
0.0
 33
0.0
 16
1.0
 26
0.0
 36
0.0
 17
0.0
 27
1.0
 37
0.0
 76
     0
330
1F
331
29
  0
MATERIAL
  5
3D
102
{ACAD_REACTORS
330
3B
102
}
102
{ACAD_XDICTIONARY
360
1E6
102
}
330
3B
100
AcDbMaterial
  1
ByBlock
  0
MATERIAL
  5
3C
102
{ACAD_REACTORS
330
3B
102
}
102
{ACAD_XDICTIONARY
360
1E4
102
}
330
3B
100
AcDbMaterial
  1
ByLayer
  0
MATERIAL
  5
3E
102
{ACAD_REACTORS
330
3B
102
}
102
{ACAD_XDICTIONARY
360
1E8
102
}
330
3B
100
AcDbMaterial
  1
Global
  0
MLINESTYLE
  5
18
102
{ACAD_REACTORS
330
17
102
}
330
17
100
AcDbMlineStyle
  2
Standard
 70
     0
  3

 62
   256
 51
90.0
 52
90.0
 71
     2
 49
0.5
 62
   256
  6
BYLAYER
 49
-0.5
 62
   256
  6
BYLAYER
  0
ACDBPLACEHOLDER
  5
F
102
{ACAD_REACTORS
330
E
102
}
330
E
  0
SCALE
  5
196
102
{ACAD_REACTORS
330
195
102
}
330
195
100
AcDbScale
 70
     0
300
1:1
140
1.0
141
1.0
290
     1
  0
SCALE
  5
197
102
{ACAD_REACTORS
330
195
102
}
330
195
100
AcDbScale
 70
     0
300
1:2
140
1.0
141
2.0
290
     0
  0
SCALE
  5
198
102
{ACAD_REACTORS
330
195
102
}
330
195
100
AcDbScale
 70
     0
300
1:4
140
1.0
141
4.0
290
     0
  0
SCALE
  5
199
102
{ACAD_REACTORS
330
195
102
}
330
195
100
AcDbScale
 70
     0
300
1:5
140
1.0
141
5.0
290
     0
  0
SCALE
  5
19A
102
{ACAD_REACTORS
330
195
102
}
330
195
100
AcDbScale
 70
     0
300
1:8
140
1.0
141
8.0
290
     0
  0
SCALE
  5
19B
102
{ACAD_REACTORS
330
195
102
}
330
195
100
AcDbScale
 70
     0
300
1:10
140
1.0
141
10.0
290
     0
  0
SCALE
  5
19C
102
{ACAD_REACTORS
330
195
102
}
330
195
100
AcDbScale
 70
     0
300
1:16
140
1.0
141
16.0
290
     0
  0
SCALE
  5
19D
102
{ACAD_REACTORS
330
195
102
}
330
195
100
AcDbScale
 70
     0
300
1:20
140
1.0
141
20.0
290
     0
  0
SCALE
  5
19E
102
{ACAD_REACTORS
330
195
102
}
330
195
100
AcDbScale
 70
     0
300
1:30
140
1.0
141
30.0
290
     0
  0
SCALE
  5
19F
102
{ACAD_REACTORS
330
195
102
}
330
195
100
AcDbScale
 70
     0
300
1:40
140
1.0
141
40.0
290
     0
  0
SCALE
  5
1A0
102
{ACAD_REACTORS
330
195
102
}
330
195
100
AcDbScale
 70
     0
300
1:50
140
1.0
141
50.0
290
     0
  0
SCALE
  5
1A1
102
{ACAD_REACTORS
330
195
102
}
330
195
100
AcDbScale
 70
     0
300
1:100
140
1.0
141
100.0
290
     0
  0
SCALE
  5
1A2
102
{ACAD_REACTORS
330
195
102
}
330
195
100
AcDbScale
 70
     0
300
2:1
140
2.0
141
1.0
290
     0
  0
SCALE
  5
1A3
102
{ACAD_REACTORS
330
195
102
}
330
195
100
AcDbScale
 70
     0
300
4:1
140
4.0
141
1.0
290
     0
  0
SCALE
  5
1A4
102
{ACAD_REACTORS
330
195
102
}
330
195
100
AcDbScale
 70
     0
300
8:1
140
8.0
141
1.0
290
     0
  0
SCALE
  5
1A5
102
{ACAD_REACTORS
330
195
102
}
330
195
100
AcDbScale
 70
     0
300
10:1
140
10.0
141
1.0
290
     0
  0
SCALE
  5
1A6
102
{ACAD_REACTORS
330
195
102
}
330
195
100
AcDbScale
 70
     0
300
100:1
140
100.0
141
1.0
290
     0
  0
SCALE
  5
1A7
102
{ACAD_REACTORS
330
195
102
}
330
195
100
AcDbScale
 70
     0
300
1/128" = 1'-0"
140
0.0078125
141
12.0
290
     0
  0
SCALE
  5
1A8
102
{ACAD_REACTORS
330
195
102
}
330
195
100
AcDbScale
 70
     0
300
1/64" = 1'-0"
140
0.015625
141
12.0
290
     0
  0
SCALE
  5
1A9
102
{ACAD_REACTORS
330
195
102
}
330
195
100
AcDbScale
 70
     0
300
1/32" = 1'-0"
140
0.03125
141
12.0
290
     0
  0
SCALE
  5
1AA
102
{ACAD_REACTORS
330
195
102
}
330
195
100
AcDbScale
 70
     0
300
1/16" = 1'-0"
140
0.0625
141
12.0
290
     0
  0
SCALE
  5
1AB
102
{ACAD_REACTORS
330
195
102
}
330
195
100
AcDbScale
 70
     0
300
3/32" = 1'-0"
140
0.09375
141
12.0
290
     0
  0
SCALE
  5
1AC
102
{ACAD_REACTORS
330
195
102
}
330
195
100
AcDbScale
 70
     0
300
1/8" = 1'-0"
140
0.125
141
12.0
290
     0
  0
SCALE
  5
1AD
102
{ACAD_REACTORS
330
195
102
}
330
195
100
AcDbScale
 70
     0
300
3/16" = 1'-0"
140
0.1875
141
12.0
290
     0
  0
SCALE
  5
1AE
102
{ACAD_REACTORS
330
195
102
}
330
195
100
AcDbScale
 70
     0
300
1/4" = 1'-0"
140
0.25
141
12.0
290
     0
  0
SCALE
  5
1AF
102
{ACAD_REACTORS
330
195
102
}
330
195
100
AcDbScale
 70
     0
300
3/8" = 1'-0"
140
0.375
141
12.0
290
     0
  0
SCALE
  5
1B0
102
{ACAD_REACTORS
330
195
102
}
330
195
100
AcDbScale
 70
     0
300
1/2" = 1'-0"
140
0.5
141
12.0
290
     0
  0
SCALE
  5
1B1
102
{ACAD_REACTORS
330
195
102
}
330
195
100
AcDbScale
 70
     0
300
3/4" = 1'-0"
140
0.75
141
12.0
290
     0
  0
SCALE
  5
1B2
102
{ACAD_REACTORS
330
195
102
}
330
195
100
AcDbScale
 70
     0
300
1" = 1'-0"
140
1.0
141
12.0
290
     0
  0
SCALE
  5
1B3
102
{ACAD_REACTORS
330
195
102
}
330
195
100
AcDbScale
 70
     0
300
1-1/2" = 1'-0"
140
1.5
141
12.0
290
     0
  0
SCALE
  5
1B4
102
{ACAD_REACTORS
330
195
102
}
330
195
100
AcDbScale
 70
     0
300
3" = 1'-0"
140
3.0
141
12.0
290
     0
  0
SCALE
  5
1B5
102
{ACAD_REACTORS
330
195
102
}
330
195
100
AcDbScale
 70
     0
300
6" = 1'-0"
140
6.0
141
12.0
290
     0
  0
SCALE
  5
1B6
102
{ACAD_REACTORS
330
195
102
}
330
195
100
AcDbScale
 70
     0
300
1'-0" = 1'-0"
140
12.0
141
12.0
290
     0
  0
VISUALSTYLE
  5
2F
102
{ACAD_REACTORS
330
2A
102
}
102
{ACAD_XDICTIONARY
360
1CC
102
}
330
2A
100
AcDbVisualStyle
  2
2dWireframe
 70
     4
 71
     0
 72
     2
 73
     0
 90
        0
 40
-0.6
 41
-30.0
 62
     5
 63
     7
 74
     1
 91
        4
 64
     7
 65
   257
 75
     1
175
     1
 42
1.0
 92
        0
 66
   257
 43
1.0
 76
     1
 77
     6
 78
     2
 67
     7
 79
     5
170
     0
171
     0
290
     0
174
     0
 93
        1
 44
0.0
173
     0
291
     0
 45
0.0
1001
ACAD
1000
AcDbSavedByObjectVersion
1070
     0
  0
VISUALSTYLE
  5
31
102
{ACAD_REACTORS
330
2A
102
}
102
{ACAD_XDICTIONARY
360
1D0
102
}
330
2A
100
AcDbVisualStyle
  2
3D Hidden
 70
     6
 71
     1
 72
     2
 73
     2
 90
        0
 40
-0.6
 41
-30.0
 62
     5
 63
     7
 74
     2
 91
        2
 64
     7
 65
   257
 75
     2
175
     1
 42
40.0
 92
        0
 66
   257
 43
1.0
 76
     1
 77
     6
 78
     2
 67
     7
 79
     3
170
     0
171
     0
290
     0
174
     0
 93
        1
 44
0.0
173
     0
291
     0
 45
0.0
1001
ACAD
1000
AcDbSavedByObjectVersion
1070
     0
  0
VISUALSTYLE
  5
30
102
{ACAD_REACTORS
330
2A
102
}
102
{ACAD_XDICTIONARY
360
1CE
102
}
330
2A
100
AcDbVisualStyle
  2
3dWireframe
 70
     5
 71
     0
 72
     2
 73
     0
 90
        0
 40
-0.6
 41
-30.0
 62
     5
 63
     7
 74
     1
 91
        4
 64
     7
 65
   257
 75
     1
175
     1
 42
1.0
 92
        0
 66
   257
 43
1.0
 76
     1
 77
     6
 78
     2
 67
     7
 79
     5
170
     0
171
     0
290
     0
174
     0
 93
        1
 44
0.0
173
     0
291
     0
 45
0.0
1001
ACAD
1000
AcDbSavedByObjectVersion
1070
     0
  0
VISUALSTYLE
  5
32
102
{ACAD_REACTORS
330
2A
102
}
102
{ACAD_XDICTIONARY
360
1D2
102
}
330
2A
100
AcDbVisualStyle
  2
Basic
 70
     7
 71
     1
 72
     0
 73
     1
 90
        0
 40
-0.6
 41
-30.0
 62
     5
 63
     7
 74
     0
 91
        4
 64
     7
 65
   257
 75
     1
175
     1
 42
1.0
 92
        8
 66
     7
 43
1.0
 76
     1
 77
     6
 78
     2
 67
     7
 79
     5
170
     0
171
     0
290
     0
174
     0
 93
        1
 44
0.0
173
     0
291
     1
 45
0.0
1001
ACAD
1000
AcDbSavedByObjectVersion
1070
     0
  0
VISUALSTYLE
  5
36
102
{ACAD_REACTORS
330
2A
102
}
102
{ACAD_XDICTIONARY
360
1DA
102
}
330
2A
100
AcDbVisualStyle
  2
Brighten
 70
    12
 71
     2
 72
     2
 73
     0
 90
        0
 40
-0.6
 41
-30.0
 62
     5
 63
     7
 74
     1
 91
        4
 64
     7
 65
   257
 75
     1
175
     1
 42
1.0
 92
        8
 66
     7
 43
1.0
 76
     1
 77
     6
 78
     2
 67
     7
 79
     5
170
     0
171
     0
290
     0
174
     0
 93
        1
 44
50.0
173
     0
291
     1
 45
0.0
1001
ACAD
1000
AcDbSavedByObjectVersion
1070
     0
  0
VISUALSTYLE
  5
3A
102
{ACAD_REACTORS
330
2A
102
}
102
{ACAD_XDICTIONARY
360
1E2
102
}
330
2A
100
AcDbVisualStyle
  2
ColorChange
 70
    16
 71
     2
 72
     2
 73
     3
 90
        0
 40
-0.6
 41
-30.0
 62
     5
 63
     8
 74
     1
 91
        4
 64
     7
 65
   257
 75
     1
175
     1
 42
1.0
 92
        8
 66
     8
 43
1.0
 76
     1
 77
     6
 78
     2
 67
     7
 79
     5
170
     0
171
     0
290
     0
174
     0
 93
        1
 44
0.0
173
     0
291
     1
 45
0.0
1001
ACAD
1000
AcDbSavedByObjectVersion
1070
     0
  0
VISUALSTYLE
  5
34
102
{ACAD_REACTORS
330
2A
102
}
102
{ACAD_XDICTIONARY
360
1D6
102
}
330
2A
100
AcDbVisualStyle
  2
Conceptual
 70
     9
 71
     3
 72
     2
 73
     0
 90
        0
 40
-0.6
 41
-30.0
 62
     5
 63
     7
 74
     2
 91
        2
 64
     7
 65
   257
 75
     1
175
     1
 42
40.0
 92
        8
 66
     7
 43
1.0
 76
     1
 77
     6
 78
     2
 67
     7
 79
     3
170
     0
171
     0
290
     0
174
     0
 93
        1
 44
0.0
173
     0
291
     0
 45
0.0
1001
ACAD
1000
AcDbSavedByObjectVersion
1070
     0
  0
VISUALSTYLE
  5
35
102
{ACAD_REACTORS
330
2A
102
}
102
{ACAD_XDICTIONARY
360
1D8
102
}
330
2A
100
AcDbVisualStyle
  2
Dim
 70
    11
 71
     2
 72
     2
 73
     0
 90
        0
 40
-0.6
 41
-30.0
 62
     5
 63
     7
 74
     1
 91
        4
 64
     7
 65
   257
 75
     1
175
     1
 42
1.0
 92
        8
 66
     7
 43
1.0
 76
     1
 77
     6
 78
     2
 67
     7
 79
     5
170
     0
171
     0
290
     0
174
     0
 93
        1
 44
-50.0
173
     0
291
     1
 45
0.0
1001
ACAD
1000
AcDbSavedByObjectVersion
1070
     0
  0
VISUALSTYLE
  5
39
102
{ACAD_REACTORS
330
2A
102
}
102
{ACAD_XDICTIONARY
360
1E0
102
}
330
2A
100
AcDbVisualStyle
  2
Facepattern
 70
    15
 71
     2
 72
     2
 73
     0
 90
        0
 40
-0.6
 41
-30.0
 62
     5
 63
     7
 74
     1
 91
        4
 64
     7
 65
   257
 75
     1
175
     1
 42
1.0
 92
        8
 66
     7
 43
1.0
 76
     1
 77
     6
 78
     2
 67
     7
 79
     5
170
     0
171
     0
290
     0
174
     0
 93
        1
 44
0.0
173
     0
291
     1
 45
0.0
1001
ACAD
1000
AcDbSavedByObjectVersion
1070
     0
  0
VISUALSTYLE
  5
2B
102
{ACAD_REACTORS
330
2A
102
}
102
{ACAD_XDICTIONARY
360
1C4
102
}
330
2A
100
AcDbVisualStyle
  2
Flat
 70
     0
 71
     2
 72
     1
 73
     1
 90
        2
 40
-0.6
 41
30.0
 62
     5
 63
     7
 74
     0
 91
        4
 64
     7
 65
   257
 75
     1
175
     1
 42
1.0
 92
        8
 66
     7
 43
1.0
 76
     1
 77
     6
 78
     2
 67
     7
 79
     5
170
     0
171
     0
290
     0
174
     0
 93
       13
 44
0.0
173
     0
291
     1
 45
0.0
1001
ACAD
1000
AcDbSavedByObjectVersion
1070
     0
  0
VISUALSTYLE
  5
2C
102
{ACAD_REACTORS
330
2A
102
}
102
{ACAD_XDICTIONARY
360
1C6
102
}
330
2A
100
AcDbVisualStyle
  2
FlatWithEdges
 70
     1
 71
     2
 72
     1
 73
     1
 90
        2
 40
-0.6
 41
30.0
 62
     5
 63
     7
 74
     1
 91
        4
 64
     7
 65
   257
 75
     1
175
     1
 42
1.0
 92
        0
 66
   257
 43
1.0
 76
     1
 77
     6
 78
     2
 67
     7
 79
     5
170
     0
171
     0
290
     0
174
     0
 93
       13
 44
0.0
173
     0
291
     1
 45
0.0
1001
ACAD
1000
AcDbSavedByObjectVersion
1070
     0
  0
VISUALSTYLE
  5
2D
102
{ACAD_REACTORS
330
2A
102
}
102
{ACAD_XDICTIONARY
360
1C8
102
}
330
2A
100
AcDbVisualStyle
  2
Gouraud
 70
     2
 71
     2
 72
     2
 73
     1
 90
        2
 40
-0.6
 41
30.0
 62
     5
 63
     7
 74
     0
 91
        4
 64
     7
 65
   257
 75
     1
175
     1
 42
1.0
 92
        0
 66
     7
 43
1.0
 76
     1
 77
     6
 78
     2
 67
     7
 79
     5
170
     0
171
     0
290
     0
174
     0
 93
       13
 44
0.0
173
     0
291
     1
 45
0.0
1001
ACAD
1000
AcDbSavedByObjectVersion
1070
     0
  0
VISUALSTYLE
  5
2E
102
{ACAD_REACTORS
330
2A
102
}
102
{ACAD_XDICTIONARY
360
1CA
102
}
330
2A
100
AcDbVisualStyle
  2
GouraudWithEdges
 70
     3
 71
     2
 72
     2
 73
     1
 90
        2
 40
-0.6
 41
30.0
 62
     5
 63
     7
 74
     1
 91
        4
 64
     7
 65
   257
 75
     1
175
     1
 42
1.0
 92
        0
 66
   257
 43
1.0
 76
     1
 77
     6
 78
     2
 67
     7
 79
     5
170
     0
171
     0
290
     0
174
     0
 93
       13
 44
0.0
173
     0
291
     1
 45
0.0
1001
ACAD
1000
AcDbSavedByObjectVersion
1070
     0
  0
VISUALSTYLE
  5
38
102
{ACAD_REACTORS
330
2A
102
}
102
{ACAD_XDICTIONARY
360
1DE
102
}
330
2A
100
AcDbVisualStyle
  2
Linepattern
 70
    14
 71
     2
 72
     2
 73
     0
 90
        0
 40
-0.6
 41
-30.0
 62
     5
 63
     7
 74
     1
 91
        4
 64
     7
 65
   257
 75
     7
175
     7
 42
1.0
 92
        8
 66
     7
 43
1.0
 76
     1
 77
     6
 78
     2
 67
     7
 79
     5
170
     0
171
     0
290
     0
174
     0
 93
        1
 44
0.0
173
     0
291
     1
 45
0.0
1001
ACAD
1000
AcDbSavedByObjectVersion
1070
     0
  0
VISUALSTYLE
  5
33
102
{ACAD_REACTORS
330
2A
102
}
102
{ACAD_XDICTIONARY
360
1D4
102
}
330
2A
100
AcDbVisualStyle
  2
Realistic
 70
     8
 71
     2
 72
     2
 73
     0
 90
        0
 40
-0.6
 41
-30.0
 62
     5
 63
     7
 74
     1
 91
        0
 64
     7
 65
   257
 75
     1
175
     1
 42
1.0
 92
        8
 66
     8
 43
1.0
 76
     1
 77
     6
 78
     2
 67
     7
 79
     5
170
     0
171
     0
290
     0
174
     0
 93
       13
 44
0.0
173
     0
291
     0
 45
0.0
1001
ACAD
1000
AcDbSavedByObjectVersion
1070
     0
  0
VISUALSTYLE
  5
37
102
{ACAD_REACTORS
330
2A
102
}
102
{ACAD_XDICTIONARY
360
1DC
102
}
330
2A
100
AcDbVisualStyle
  2
Thicken
 70
    13
 71
     2
 72
     2
 73
     0
 90
        0
 40
-0.6
 41
-30.0
 62
     5
 63
     7
 74
     1
 91
        4
 64
     7
 65
   257
 75
     1
175
     1
 42
1.0
 92
       12
 66
     7
 43
1.0
 76
     1
 77
     6
 78
     2
 67
     7
 79
     5
170
     0
171
     0
290
     0
174
     0
 93
        1
 44
0.0
173
     0
291
     1
 45
0.0
1001
ACAD
1000
AcDbSavedByObjectVersion
1070
     0
  0
DICTIONARYVAR
  5
1BD
102
{ACAD_REACTORS
330
1B9
102
}
330
1B9
100
DictionaryVariables
280
     0
  1
1:1
  0
DICTIONARYVAR
  5
1BE
102
{ACAD_REACTORS
330
1B9
102
}
330
1B9
100
DictionaryVariables
280
     0
  1
2
  0
DICTIONARYVAR
  5
1BF
102
{ACAD_REACTORS
330
1B9
102
}
330
1B9
100
DictionaryVariables
280
     0
  1
1
  0
DICTIONARYVAR
  5
1BC
102
{ACAD_REACTORS
330
1B9
102
}
330
1B9
100
DictionaryVariables
280
     0
  1
0
  0
XRECORD
  5
1B8
102
{ACAD_REACTORS
330
1B7
102
}
330
1B7
100
AcDbXrecord
280
     1
1000
This DWG file was created in ArchiCAD(TM)®
  0
SPATIAL_FILTER
  5
191
102
{ACAD_REACTORS
330
190
102
}
330
190
100
AcDbFilter
100
AcDbSpatialFilter
 70
     4
 10
15.06824149166566
 20
38.19234756460138
 10
286.3132487258698
 20
38.19234756460138
 10
286.3132487258698
 20
188.4567900447824
 10
15.06824149166566
 20
188.4567900447824
210
0.0
220
0.0
230
1.0
 11
0.0
 21
0.0
 31
0.0
 71
     1
 72
     0
 73
     0
 40
1.0
 40
0.0
 40
0.0
 40
0.0
 40
0.0
 40
1.0
 40
0.0
 40
0.0
 40
0.0
 40
0.0
 40
1.0
 40
0.0
 40
1.0
 40
0.0
 40
0.0
 40
0.0
 40
0.0
 40
1.0
 40
0.0
 40
0.0
 40
0.0
 40
0.0
 40
1.0
 40
0.0
  0
DICTIONARY
  5
1E6
330
3D
100
AcDbDictionary
280
     1
281
     1
  3
ACAD_XREC_ROUNDTRIP
360
1E7
  0
DICTIONARY
  5
1E4
330
3C
100
AcDbDictionary
280
     1
281
     1
  3
ACAD_XREC_ROUNDTRIP
360
1E5
  0
DICTIONARY
  5
1E8
330
3E
100
AcDbDictionary
280
     1
281
     1
  3
ACAD_XREC_ROUNDTRIP
360
1E9
  0
DICTIONARY
  5
1CC
330
2F
100
AcDbDictionary
280
     1
281
     1
  3
ACAD_XREC_ROUNDTRIP
360
1CD
  0
DICTIONARY
  5
1D0
330
31
100
AcDbDictionary
280
     1
281
     1
  3
ACAD_XREC_ROUNDTRIP
360
1D1
  0
DICTIONARY
  5
1CE
330
30
100
AcDbDictionary
280
     1
281
     1
  3
ACAD_XREC_ROUNDTRIP
360
1CF
  0
DICTIONARY
  5
1D2
330
32
100
AcDbDictionary
280
     1
281
     1
  3
ACAD_XREC_ROUNDTRIP
360
1D3
  0
DICTIONARY
  5
1DA
330
36
100
AcDbDictionary
280
     1
281
     1
  3
ACAD_XREC_ROUNDTRIP
360
1DB
  0
DICTIONARY
  5
1E2
330
3A
100
AcDbDictionary
280
     1
281
     1
  3
ACAD_XREC_ROUNDTRIP
360
1E3
  0
DICTIONARY
  5
1D6
330
34
100
AcDbDictionary
280
     1
281
     1
  3
ACAD_XREC_ROUNDTRIP
360
1D7
  0
DICTIONARY
  5
1D8
330
35
100
AcDbDictionary
280
     1
281
     1
  3
ACAD_XREC_ROUNDTRIP
360
1D9
  0
DICTIONARY
  5
1E0
330
39
100
AcDbDictionary
280
     1
281
     1
  3
ACAD_XREC_ROUNDTRIP
360
1E1
  0
DICTIONARY
  5
1C4
330
2B
100
AcDbDictionary
280
     1
281
     1
  3
ACAD_XREC_ROUNDTRIP
360
1C5
  0
DICTIONARY
  5
1C6
330
2C
100
AcDbDictionary
280
     1
281
     1
  3
ACAD_XREC_ROUNDTRIP
360
1C7
  0
DICTIONARY
  5
1C8
330
2D
100
AcDbDictionary
280
     1
281
     1
  3
ACAD_XREC_ROUNDTRIP
360
1C9
  0
DICTIONARY
  5
1CA
330
2E
100
AcDbDictionary
280
     1
281
     1
  3
ACAD_XREC_ROUNDTRIP
360
1CB
  0
DICTIONARY
  5
1DE
330
38
100
AcDbDictionary
280
     1
281
     1
  3
ACAD_XREC_ROUNDTRIP
360
1DF
  0
DICTIONARY
  5
1D4
330
33
100
AcDbDictionary
280
     1
281
     1
  3
ACAD_XREC_ROUNDTRIP
360
1D5
  0
DICTIONARY
  5
1DC
330
37
100
AcDbDictionary
280
     1
281
     1
  3
ACAD_XREC_ROUNDTRIP
360
1DD
  0
XRECORD
  5
1E7
102
{ACAD_REACTORS
330
1E6
102
}
330
1E6
100
AcDbXrecord
280
     1
102
MATERIAL
148
0.0
149
0.0
149
0.0
 93
        0
 94
      127
282
     0
 72
     1
 77
     1
171
     1
175
     1
179
     1
273
     0
  0
XRECORD
  5
1E5
102
{ACAD_REACTORS
330
1E4
102
}
330
1E4
100
AcDbXrecord
280
     1
102
MATERIAL
148
0.0
149
0.0
149
0.0
 93
        0
 94
      127
282
     0
 72
     1
 77
     1
171
     1
175
     1
179
     1
273
     0
  0
XRECORD
  5
1E9
102
{ACAD_REACTORS
330
1E8
102
}
330
1E8
100
AcDbXrecord
280
     1
102
MATERIAL
148
0.0
149
0.0
149
0.0
 93
        0
 94
      127
282
     0
 72
     1
 77
     1
171
     1
175
     1
179
     1
273
     0
  0
XRECORD
  5
1CD
102
{ACAD_REACTORS
330
1CC
102
}
330
1CC
100
AcDbXrecord
280
     1
102
RTVSPropertyOp0
 70
     1
102
RTVSPropertyOp1
 70
     1
102
RTVSPropertyOp2
 70
     1
102
RTVSPropertyOp3
 70
     1
102
RTVSPropertyOp4
 70
     1
102
RTVSPropertyOp5
 70
     1
102
RTVSPropertyOp6
 70
     1
102
RTVSPropertyOp7
 70
     1
102
RTVSPropertyOp8
 70
     1
102
RTVSPropertyOp9
 70
     1
102
RTVSPropertyOp10
 70
     1
102
RTVSPropertyOp11
 70
     1
102
RTVSPropertyOp12
 70
     1
102
RTVSPropertyOp13
 70
     1
102
RTVSPropertyOp14
 70
     1
102
RTVSPropertyOp15
 70
     1
102
RTVSPropertyOp16
 70
     1
102
RTVSPropertyOp17
 70
     1
102
RTVSPropertyOp18
 70
     1
102
RTVSPropertyOp19
 70
     1
102
RTVSPropertyOp20
 70
     1
102
RTVSPropertyOp21
 70
     1
102
RTVSPropertyOp22
 70
     1
102
RTVSPropertyOp23
 70
     1
102
RTVSPropertyOp24
 70
     1
102
RTVSPropertyOp25
 70
     1
102
RTVSPropertyOp26
 70
     1
102
RTVSPropertyOp27
 70
     1
102
RTVSPropertyOp28
 70
     1
102
RTVSPropertyOp29
 70
     1
102
RTVSPropertyOp30
 70
     1
102
RTVSPropertyOp31
 70
     1
102
RTVSPropertyOp32
 70
     1
  0
XRECORD
  5
1D1
102
{ACAD_REACTORS
330
1D0
102
}
330
1D0
100
AcDbXrecord
280
     1
102
RTVSPropertyOp0
 70
     1
102
RTVSPropertyOp1
 70
     1
102
RTVSPropertyOp2
 70
     1
102
RTVSPropertyOp3
 70
     1
102
RTVSPropertyOp4
 70
     1
102
RTVSPropertyOp5
 70
     1
102
RTVSPropertyOp6
 70
     1
102
RTVSPropertyOp7
 70
     1
102
RTVSPropertyOp8
 70
     1
102
RTVSPropertyOp9
 70
     1
102
RTVSPropertyOp10
 70
     1
102
RTVSPropertyOp11
 70
     1
102
RTVSPropertyOp12
 70
     1
102
RTVSPropertyOp13
 70
     1
102
RTVSPropertyOp14
 70
     1
102
RTVSPropertyOp15
 70
     1
102
RTVSPropertyOp16
 70
     1
102
RTVSPropertyOp17
 70
     1
102
RTVSPropertyOp18
 70
     1
102
RTVSPropertyOp19
 70
     1
102
RTVSPropertyOp20
 70
     1
102
RTVSPropertyOp21
 70
     1
102
RTVSPropertyOp22
 70
     1
102
RTVSPropertyOp23
 70
     1
102
RTVSPropertyOp24
 70
     1
102
RTVSPropertyOp25
 70
     1
102
RTVSPropertyOp26
 70
     1
102
RTVSPropertyOp27
 70
     1
102
RTVSPropertyOp28
 70
     1
102
RTVSPropertyOp29
 70
     1
102
RTVSPropertyOp30
 70
     1
102
RTVSPropertyOp31
 70
     1
102
RTVSPropertyOp32
 70
     1
  0
XRECORD
  5
1CF
102
{ACAD_REACTORS
330
1CE
102
}
330
1CE
100
AcDbXrecord
280
     1
102
RTVSPropertyOp0
 70
     1
102
RTVSPropertyOp1
 70
     1
102
RTVSPropertyOp2
 70
     1
102
RTVSPropertyOp3
 70
     1
102
RTVSPropertyOp4
 70
     1
102
RTVSPropertyOp5
 70
     1
102
RTVSPropertyOp6
 70
     1
102
RTVSPropertyOp7
 70
     1
102
RTVSPropertyOp8
 70
     1
102
RTVSPropertyOp9
 70
     1
102
RTVSPropertyOp10
 70
     1
102
RTVSPropertyOp11
 70
     1
102
RTVSPropertyOp12
 70
     1
102
RTVSPropertyOp13
 70
     1
102
RTVSPropertyOp14
 70
     1
102
RTVSPropertyOp15
 70
     1
102
RTVSPropertyOp16
 70
     1
102
RTVSPropertyOp17
 70
     1
102
RTVSPropertyOp18
 70
     1
102
RTVSPropertyOp19
 70
     1
102
RTVSPropertyOp20
 70
     1
102
RTVSPropertyOp21
 70
     1
102
RTVSPropertyOp22
 70
     1
102
RTVSPropertyOp23
 70
     1
102
RTVSPropertyOp24
 70
     1
102
RTVSPropertyOp25
 70
     1
102
RTVSPropertyOp26
 70
     1
102
RTVSPropertyOp27
 70
     1
102
RTVSPropertyOp28
 70
     1
102
RTVSPropertyOp29
 70
     1
102
RTVSPropertyOp30
 70
     1
102
RTVSPropertyOp31
 70
     1
102
RTVSPropertyOp32
 70
     1
  0
XRECORD
  5
1D3
102
{ACAD_REACTORS
330
1D2
102
}
330
1D2
100
AcDbXrecord
280
     1
102
RTVSPropertyOp0
 70
     1
102
RTVSPropertyOp1
 70
     1
102
RTVSPropertyOp2
 70
     1
102
RTVSPropertyOp3
 70
     1
102
RTVSPropertyOp4
 70
     1
102
RTVSPropertyOp5
 70
     1
102
RTVSPropertyOp6
 70
     1
102
RTVSPropertyOp7
 70
     1
102
RTVSPropertyOp8
 70
     1
102
RTVSPropertyOp9
 70
     1
102
RTVSPropertyOp10
 70
     1
102
RTVSPropertyOp11
 70
     1
102
RTVSPropertyOp12
 70
     1
102
RTVSPropertyOp13
 70
     1
102
RTVSPropertyOp14
 70
     1
102
RTVSPropertyOp15
 70
     1
102
RTVSPropertyOp16
 70
     1
102
RTVSPropertyOp17
 70
     1
102
RTVSPropertyOp18
 70
     1
102
RTVSPropertyOp19
 70
     1
102
RTVSPropertyOp20
 70
     1
102
RTVSPropertyOp21
 70
     1
102
RTVSPropertyOp22
 70
     1
102
RTVSPropertyOp23
 70
     1
102
RTVSPropertyOp24
 70
     1
102
RTVSPropertyOp25
 70
     1
102
RTVSPropertyOp26
 70
     1
102
RTVSPropertyOp27
 70
     1
102
RTVSPropertyOp28
 70
     1
102
RTVSPropertyOp29
 70
     1
102
RTVSPropertyOp30
 70
     1
102
RTVSPropertyOp31
 70
     1
102
RTVSPropertyOp32
 70
     1
  0
XRECORD
  5
1DB
102
{ACAD_REACTORS
330
1DA
102
}
330
1DA
100
AcDbXrecord
280
     1
102
RTVSPropertyOp0
 70
     1
102
RTVSPropertyOp1
 70
     1
102
RTVSPropertyOp2
 70
     1
102
RTVSPropertyOp3
 70
     1
102
RTVSPropertyOp4
 70
     1
102
RTVSPropertyOp5
 70
     1
102
RTVSPropertyOp6
 70
     1
102
RTVSPropertyOp7
 70
     1
102
RTVSPropertyOp8
 70
     1
102
RTVSPropertyOp9
 70
     1
102
RTVSPropertyOp10
 70
     1
102
RTVSPropertyOp11
 70
     1
102
RTVSPropertyOp12
 70
     1
102
RTVSPropertyOp13
 70
     1
102
RTVSPropertyOp14
 70
     1
102
RTVSPropertyOp15
 70
     1
102
RTVSPropertyOp16
 70
     1
102
RTVSPropertyOp17
 70
     1
102
RTVSPropertyOp18
 70
     1
102
RTVSPropertyOp19
 70
     1
102
RTVSPropertyOp20
 70
     1
102
RTVSPropertyOp21
 70
     1
102
RTVSPropertyOp22
 70
     1
102
RTVSPropertyOp23
 70
     1
102
RTVSPropertyOp24
 70
     1
102
RTVSPropertyOp25
 70
     1
102
RTVSPropertyOp26
 70
     1
102
RTVSPropertyOp27
 70
     1
102
RTVSPropertyOp28
 70
     1
102
RTVSPropertyOp29
 70
     1
102
RTVSPropertyOp30
 70
     1
102
RTVSPropertyOp31
 70
     1
102
RTVSPropertyOp32
 70
     1
  0
XRECORD
  5
1E3
102
{ACAD_REACTORS
330
1E2
102
}
330
1E2
100
AcDbXrecord
280
     1
102
RTVSPropertyOp0
 70
     1
102
RTVSPropertyOp1
 70
     1
102
RTVSPropertyOp2
 70
     1
102
RTVSPropertyOp3
 70
     1
102
RTVSPropertyOp4
 70
     1
102
RTVSPropertyOp5
 70
     1
102
RTVSPropertyOp6
 70
     1
102
RTVSPropertyOp7
 70
     1
102
RTVSPropertyOp8
 70
     1
102
RTVSPropertyOp9
 70
     1
102
RTVSPropertyOp10
 70
     1
102
RTVSPropertyOp11
 70
     1
102
RTVSPropertyOp12
 70
     1
102
RTVSPropertyOp13
 70
     1
102
RTVSPropertyOp14
 70
     1
102
RTVSPropertyOp15
 70
     1
102
RTVSPropertyOp16
 70
     1
102
RTVSPropertyOp17
 70
     1
102
RTVSPropertyOp18
 70
     1
102
RTVSPropertyOp19
 70
     1
102
RTVSPropertyOp20
 70
     1
102
RTVSPropertyOp21
 70
     1
102
RTVSPropertyOp22
 70
     1
102
RTVSPropertyOp23
 70
     1
102
RTVSPropertyOp24
 70
     1
102
RTVSPropertyOp25
 70
     1
102
RTVSPropertyOp26
 70
     1
102
RTVSPropertyOp27
 70
     1
102
RTVSPropertyOp28
 70
     1
102
RTVSPropertyOp29
 70
     1
102
RTVSPropertyOp30
 70
     1
102
RTVSPropertyOp31
 70
     1
102
RTVSPropertyOp32
 70
     1
  0
XRECORD
  5
1D7
102
{ACAD_REACTORS
330
1D6
102
}
330
1D6
100
AcDbXrecord
280
     1
102
RTVSPropertyOp0
 70
     1
102
RTVSPropertyOp1
 70
     1
102
RTVSPropertyOp2
 70
     1
102
RTVSPropertyOp3
 70
     1
102
RTVSPropertyOp4
 70
     1
102
RTVSPropertyOp5
 70
     1
102
RTVSPropertyOp6
 70
     1
102
RTVSPropertyOp7
 70
     1
102
RTVSPropertyOp8
 70
     1
102
RTVSPropertyOp9
 70
     1
102
RTVSPropertyOp10
 70
     1
102
RTVSPropertyOp11
 70
     1
102
RTVSPropertyOp12
 70
     1
102
RTVSPropertyOp13
 70
     1
102
RTVSPropertyOp14
 70
     1
102
RTVSPropertyOp15
 70
     1
102
RTVSPropertyOp16
 70
     1
102
RTVSPropertyOp17
 70
     1
102
RTVSPropertyOp18
 70
     1
102
RTVSPropertyOp19
 70
     1
102
RTVSPropertyOp20
 70
     1
102
RTVSPropertyOp21
 70
     1
102
RTVSPropertyOp22
 70
     1
102
RTVSPropertyOp23
 70
     1
102
RTVSPropertyOp24
 70
     1
102
RTVSPropertyOp25
 70
     1
102
RTVSPropertyOp26
 70
     1
102
RTVSPropertyOp27
 70
     1
102
RTVSPropertyOp28
 70
     1
102
RTVSPropertyOp29
 70
     1
102
RTVSPropertyOp30
 70
     1
102
RTVSPropertyOp31
 70
     1
102
RTVSPropertyOp32
 70
     1
  0
XRECORD
  5
1D9
102
{ACAD_REACTORS
330
1D8
102
}
330
1D8
100
AcDbXrecord
280
     1
102
RTVSPropertyOp0
 70
     1
102
RTVSPropertyOp1
 70
     1
102
RTVSPropertyOp2
 70
     1
102
RTVSPropertyOp3
 70
     1
102
RTVSPropertyOp4
 70
     1
102
RTVSPropertyOp5
 70
     1
102
RTVSPropertyOp6
 70
     1
102
RTVSPropertyOp7
 70
     1
102
RTVSPropertyOp8
 70
     1
102
RTVSPropertyOp9
 70
     1
102
RTVSPropertyOp10
 70
     1
102
RTVSPropertyOp11
 70
     1
102
RTVSPropertyOp12
 70
     1
102
RTVSPropertyOp13
 70
     1
102
RTVSPropertyOp14
 70
     1
102
RTVSPropertyOp15
 70
     1
102
RTVSPropertyOp16
 70
     1
102
RTVSPropertyOp17
 70
     1
102
RTVSPropertyOp18
 70
     1
102
RTVSPropertyOp19
 70
     1
102
RTVSPropertyOp20
 70
     1
102
RTVSPropertyOp21
 70
     1
102
RTVSPropertyOp22
 70
     1
102
RTVSPropertyOp23
 70
     1
102
RTVSPropertyOp24
 70
     1
102
RTVSPropertyOp25
 70
     1
102
RTVSPropertyOp26
 70
     1
102
RTVSPropertyOp27
 70
     1
102
RTVSPropertyOp28
 70
     1
102
RTVSPropertyOp29
 70
     1
102
RTVSPropertyOp30
 70
     1
102
RTVSPropertyOp31
 70
     1
102
RTVSPropertyOp32
 70
     1
  0
XRECORD
  5
1E1
102
{ACAD_REACTORS
330
1E0
102
}
330
1E0
100
AcDbXrecord
280
     1
102
RTVSPropertyOp0
 70
     1
102
RTVSPropertyOp1
 70
     1
102
RTVSPropertyOp2
 70
     1
102
RTVSPropertyOp3
 70
     1
102
RTVSPropertyOp4
 70
     1
102
RTVSPropertyOp5
 70
     1
102
RTVSPropertyOp6
 70
     1
102
RTVSPropertyOp7
 70
     1
102
RTVSPropertyOp8
 70
     1
102
RTVSPropertyOp9
 70
     1
102
RTVSPropertyOp10
 70
     1
102
RTVSPropertyOp11
 70
     1
102
RTVSPropertyOp12
 70
     1
102
RTVSPropertyOp13
 70
     1
102
RTVSPropertyOp14
 70
     1
102
RTVSPropertyOp15
 70
     1
102
RTVSPropertyOp16
 70
     1
102
RTVSPropertyOp17
 70
     1
102
RTVSPropertyOp18
 70
     1
102
RTVSPropertyOp19
 70
     1
102
RTVSPropertyOp20
 70
     1
102
RTVSPropertyOp21
 70
     1
102
RTVSPropertyOp22
 70
     1
102
RTVSPropertyOp23
 70
     1
102
RTVSPropertyOp24
 70
     1
102
RTVSPropertyOp25
 70
     1
102
RTVSPropertyOp26
 70
     1
102
RTVSPropertyOp27
 70
     1
102
RTVSPropertyOp28
 70
     1
102
RTVSPropertyOp29
 70
     1
102
RTVSPropertyOp30
 70
     1
102
RTVSPropertyOp31
 70
     1
102
RTVSPropertyOp32
 70
     1
  0
XRECORD
  5
1C5
102
{ACAD_REACTORS
330
1C4
102
}
330
1C4
100
AcDbXrecord
280
     1
102
RTVSPropertyOp0
 70
     1
102
RTVSPropertyOp1
 70
     1
102
RTVSPropertyOp2
 70
     1
102
RTVSPropertyOp3
 70
     1
102
RTVSPropertyOp4
 70
     1
102
RTVSPropertyOp5
 70
     1
102
RTVSPropertyOp6
 70
     1
102
RTVSPropertyOp7
 70
     1
102
RTVSPropertyOp8
 70
     1
102
RTVSPropertyOp9
 70
     1
102
RTVSPropertyOp10
 70
     1
102
RTVSPropertyOp11
 70
     1
102
RTVSPropertyOp12
 70
     1
102
RTVSPropertyOp13
 70
     1
102
RTVSPropertyOp14
 70
     1
102
RTVSPropertyOp15
 70
     1
102
RTVSPropertyOp16
 70
     1
102
RTVSPropertyOp17
 70
     1
102
RTVSPropertyOp18
 70
     1
102
RTVSPropertyOp19
 70
     1
102
RTVSPropertyOp20
 70
     1
102
RTVSPropertyOp21
 70
     1
102
RTVSPropertyOp22
 70
     1
102
RTVSPropertyOp23
 70
     1
102
RTVSPropertyOp24
 70
     1
102
RTVSPropertyOp25
 70
     1
102
RTVSPropertyOp26
 70
     1
102
RTVSPropertyOp27
 70
     1
102
RTVSPropertyOp28
 70
     1
102
RTVSPropertyOp29
 70
     1
102
RTVSPropertyOp30
 70
     1
102
RTVSPropertyOp31
 70
     1
102
RTVSPropertyOp32
 70
     1
  0
XRECORD
  5
1C7
102
{ACAD_REACTORS
330
1C6
102
}
330
1C6
100
AcDbXrecord
280
     1
102
RTVSPropertyOp0
 70
     1
102
RTVSPropertyOp1
 70
     1
102
RTVSPropertyOp2
 70
     1
102
RTVSPropertyOp3
 70
     1
102
RTVSPropertyOp4
 70
     1
102
RTVSPropertyOp5
 70
     1
102
RTVSPropertyOp6
 70
     1
102
RTVSPropertyOp7
 70
     1
102
RTVSPropertyOp8
 70
     1
102
RTVSPropertyOp9
 70
     1
102
RTVSPropertyOp10
 70
     1
102
RTVSPropertyOp11
 70
     1
102
RTVSPropertyOp12
 70
     1
102
RTVSPropertyOp13
 70
     1
102
RTVSPropertyOp14
 70
     1
102
RTVSPropertyOp15
 70
     1
102
RTVSPropertyOp16
 70
     1
102
RTVSPropertyOp17
 70
     1
102
RTVSPropertyOp18
 70
     1
102
RTVSPropertyOp19
 70
     1
102
RTVSPropertyOp20
 70
     1
102
RTVSPropertyOp21
 70
     1
102
RTVSPropertyOp22
 70
     1
102
RTVSPropertyOp23
 70
     1
102
RTVSPropertyOp24
 70
     1
102
RTVSPropertyOp25
 70
     1
102
RTVSPropertyOp26
 70
     1
102
RTVSPropertyOp27
 70
     1
102
RTVSPropertyOp28
 70
     1
102
RTVSPropertyOp29
 70
     1
102
RTVSPropertyOp30
 70
     1
102
RTVSPropertyOp31
 70
     1
102
RTVSPropertyOp32
 70
     1
  0
XRECORD
  5
1C9
102
{ACAD_REACTORS
330
1C8
102
}
330
1C8
100
AcDbXrecord
280
     1
102
RTVSPropertyOp0
 70
     1
102
RTVSPropertyOp1
 70
     1
102
RTVSPropertyOp2
 70
     1
102
RTVSPropertyOp3
 70
     1
102
RTVSPropertyOp4
 70
     1
102
RTVSPropertyOp5
 70
     1
102
RTVSPropertyOp6
 70
     1
102
RTVSPropertyOp7
 70
     1
102
RTVSPropertyOp8
 70
     1
102
RTVSPropertyOp9
 70
     1
102
RTVSPropertyOp10
 70
     1
102
RTVSPropertyOp11
 70
     1
102
RTVSPropertyOp12
 70
     1
102
RTVSPropertyOp13
 70
     1
102
RTVSPropertyOp14
 70
     1
102
RTVSPropertyOp15
 70
     1
102
RTVSPropertyOp16
 70
     1
102
RTVSPropertyOp17
 70
     1
102
RTVSPropertyOp18
 70
     1
102
RTVSPropertyOp19
 70
     1
102
RTVSPropertyOp20
 70
     1
102
RTVSPropertyOp21
 70
     1
102
RTVSPropertyOp22
 70
     1
102
RTVSPropertyOp23
 70
     1
102
RTVSPropertyOp24
 70
     1
102
RTVSPropertyOp25
 70
     1
102
RTVSPropertyOp26
 70
     1
102
RTVSPropertyOp27
 70
     1
102
RTVSPropertyOp28
 70
     1
102
RTVSPropertyOp29
 70
     1
102
RTVSPropertyOp30
 70
     1
102
RTVSPropertyOp31
 70
     1
102
RTVSPropertyOp32
 70
     1
  0
XRECORD
  5
1CB
102
{ACAD_REACTORS
330
1CA
102
}
330
1CA
100
AcDbXrecord
280
     1
102
RTVSPropertyOp0
 70
     1
102
RTVSPropertyOp1
 70
     1
102
RTVSPropertyOp2
 70
     1
102
RTVSPropertyOp3
 70
     1
102
RTVSPropertyOp4
 70
     1
102
RTVSPropertyOp5
 70
     1
102
RTVSPropertyOp6
 70
     1
102
RTVSPropertyOp7
 70
     1
102
RTVSPropertyOp8
 70
     1
102
RTVSPropertyOp9
 70
     1
102
RTVSPropertyOp10
 70
     1
102
RTVSPropertyOp11
 70
     1
102
RTVSPropertyOp12
 70
     1
102
RTVSPropertyOp13
 70
     1
102
RTVSPropertyOp14
 70
     1
102
RTVSPropertyOp15
 70
     1
102
RTVSPropertyOp16
 70
     1
102
RTVSPropertyOp17
 70
     1
102
RTVSPropertyOp18
 70
     1
102
RTVSPropertyOp19
 70
     1
102
RTVSPropertyOp20
 70
     1
102
RTVSPropertyOp21
 70
     1
102
RTVSPropertyOp22
 70
     1
102
RTVSPropertyOp23
 70
     1
102
RTVSPropertyOp24
 70
     1
102
RTVSPropertyOp25
 70
     1
102
RTVSPropertyOp26
 70
     1
102
RTVSPropertyOp27
 70
     1
102
RTVSPropertyOp28
 70
     1
102
RTVSPropertyOp29
 70
     1
102
RTVSPropertyOp30
 70
     1
102
RTVSPropertyOp31
 70
     1
102
RTVSPropertyOp32
 70
     1
  0
XRECORD
  5
1DF
102
{ACAD_REACTORS
330
1DE
102
}
330
1DE
100
AcDbXrecord
280
     1
102
RTVSPropertyOp0
 70
     1
102
RTVSPropertyOp1
 70
     1
102
RTVSPropertyOp2
 70
     1
102
RTVSPropertyOp3
 70
     1
102
RTVSPropertyOp4
 70
     1
102
RTVSPropertyOp5
 70
     1
102
RTVSPropertyOp6
 70
     1
102
RTVSPropertyOp7
 70
     1
102
RTVSPropertyOp8
 70
     1
102
RTVSPropertyOp9
 70
     1
102
RTVSPropertyOp10
 70
     1
102
RTVSPropertyOp11
 70
     1
102
RTVSPropertyOp12
 70
     1
102
RTVSPropertyOp13
 70
     1
102
RTVSPropertyOp14
 70
     1
102
RTVSPropertyOp15
 70
     1
102
RTVSPropertyOp16
 70
     1
102
RTVSPropertyOp17
 70
     1
102
RTVSPropertyOp18
 70
     1
102
RTVSPropertyOp19
 70
     1
102
RTVSPropertyOp20
 70
     1
102
RTVSPropertyOp21
 70
     1
102
RTVSPropertyOp22
 70
     1
102
RTVSPropertyOp23
 70
     1
102
RTVSPropertyOp24
 70
     1
102
RTVSPropertyOp25
 70
     1
102
RTVSPropertyOp26
 70
     1
102
RTVSPropertyOp27
 70
     1
102
RTVSPropertyOp28
 70
     1
102
RTVSPropertyOp29
 70
     1
102
RTVSPropertyOp30
 70
     1
102
RTVSPropertyOp31
 70
     1
102
RTVSPropertyOp32
 70
     1
  0
XRECORD
  5
1D5
102
{ACAD_REACTORS
330
1D4
102
}
330
1D4
100
AcDbXrecord
280
     1
102
RTVSPropertyOp0
 70
     1
102
RTVSPropertyOp1
 70
     1
102
RTVSPropertyOp2
 70
     1
102
RTVSPropertyOp3
 70
     1
102
RTVSPropertyOp4
 70
     1
102
RTVSPropertyOp5
 70
     1
102
RTVSPropertyOp6
 70
     1
102
RTVSPropertyOp7
 70
     1
102
RTVSPropertyOp8
 70
     1
102
RTVSPropertyOp9
 70
     1
102
RTVSPropertyOp10
 70
     1
102
RTVSPropertyOp11
 70
     1
102
RTVSPropertyOp12
 70
     1
102
RTVSPropertyOp13
 70
     1
102
RTVSPropertyOp14
 70
     1
102
RTVSPropertyOp15
 70
     1
102
RTVSPropertyOp16
 70
     1
102
RTVSPropertyOp17
 70
     1
102
RTVSPropertyOp18
 70
     1
102
RTVSPropertyOp19
 70
     1
102
RTVSPropertyOp20
 70
     1
102
RTVSPropertyOp21
 70
     1
102
RTVSPropertyOp22
 70
     1
102
RTVSPropertyOp23
 70
     1
102
RTVSPropertyOp24
 70
     1
102
RTVSPropertyOp25
 70
     1
102
RTVSPropertyOp26
 70
     1
102
RTVSPropertyOp27
 70
     1
102
RTVSPropertyOp28
 70
     1
102
RTVSPropertyOp29
 70
     1
102
RTVSPropertyOp30
 70
     1
102
RTVSPropertyOp31
 70
     1
102
RTVSPropertyOp32
 70
     1
  0
XRECORD
  5
1DD
102
{ACAD_REACTORS
330
1DC
102
}
330
1DC
100
AcDbXrecord
280
     1
102
RTVSPropertyOp0
 70
     1
102
RTVSPropertyOp1
 70
     1
102
RTVSPropertyOp2
 70
     1
102
RTVSPropertyOp3
 70
     1
102
RTVSPropertyOp4
 70
     1
102
RTVSPropertyOp5
 70
     1
102
RTVSPropertyOp6
 70
     1
102
RTVSPropertyOp7
 70
     1
102
RTVSPropertyOp8
 70
     1
102
RTVSPropertyOp9
 70
     1
102
RTVSPropertyOp10
 70
     1
102
RTVSPropertyOp11
 70
     1
102
RTVSPropertyOp12
 70
     1
102
RTVSPropertyOp13
 70
     1
102
RTVSPropertyOp14
 70
     1
102
RTVSPropertyOp15
 70
     1
102
RTVSPropertyOp16
 70
     1
102
RTVSPropertyOp17
 70
     1
102
RTVSPropertyOp18
 70
     1
102
RTVSPropertyOp19
 70
     1
102
RTVSPropertyOp20
 70
     1
102
RTVSPropertyOp21
 70
     1
102
RTVSPropertyOp22
 70
     1
102
RTVSPropertyOp23
 70
     1
102
RTVSPropertyOp24
 70
     1
102
RTVSPropertyOp25
 70
     1
102
RTVSPropertyOp26
 70
     1
102
RTVSPropertyOp27
 70
     1
102
RTVSPropertyOp28
 70
     1
102
RTVSPropertyOp29
 70
     1
102
RTVSPropertyOp30
 70
     1
102
RTVSPropertyOp31
 70
     1
102
RTVSPropertyOp32
 70
     1
  0
ENDSEC
  0
EOF
