  0
SECTION
  2
HEADER
  9
$ACADVER
  1
AC1015
  9
$ACADMAINTVER
 70
     6
  9
$DWGCODEPAGE
  3
ANSI_949
  9
$INSBASE
 10
0.0
 20
0.0
 30
0.0
  9
$EXTMIN
 10
1.000000000000000E+20
 20
1.000000000000000E+20
 30
1.000000000000000E+20
  9
$EXTMAX
 10
-1.000000000000000E+20
 20
-1.000000000000000E+20
 30
-1.000000000000000E+20
  9
$LIMMIN
 10
0.0
 20
0.0
  9
$LIMMAX
 10
12.0
 20
9.0
  9
$ORTHOMODE
 70
     0
  9
$REGENMODE
 70
     1
  9
$FILLMODE
 70
     1
  9
$QTEXTMODE
 70
     0
  9
$MIRRTEXT
 70
     1
  9
$LTSCALE
 40
1.0
  9
$ATTMODE
 70
     1
  9
$TEXTSIZE
 40
0.2
  9
$TRACEWID
 40
0.05
  9
$TEXTSTYLE
  7
Standard
  9
$CLAYER
  8
0
  9
$CELTYPE
  6
ByLayer
  9
$CECOLOR
 62
   256
  9
$CELTSCALE
 40
1.0
  9
$DISPSILH
 70
     0
  9
$DIMSCALE
 40
1.0
  9
$DIMASZ
 40
0.18
  9
$DIMEXO
 40
0.0625
  9
$DIMDLI
 40
0.38
  9
$DIMRND
 40
0.0
  9
$DIMDLE
 40
0.0
  9
$DIMEXE
 40
0.18
  9
$DIMTP
 40
0.0
  9
$DIMTM
 40
0.0
  9
$DIMTXT
 40
0.18
  9
$DIMCEN
 40
0.09
  9
$DIMTSZ
 40
0.0
  9
$DIMTOL
 70
     0
  9
$DIMLIM
 70
     0
  9
$DIMTIH
 70
     1
  9
$DIMTOH
 70
     1
  9
$DIMSE1
 70
     0
  9
$DIMSE2
 70
     0
  9
$DIMTAD
 70
     0
  9
$DIMZIN
 70
     0
  9
$DIMBLK
  1

  9
$DIMASO
 70
     1
  9
$DIMSHO
 70
     1
  9
$DIMPOST
  1

  9
$DIMAPOST
  1

  9
$DIMALT
 70
     0
  9
$DIMALTD
 70
     2
  9
$DIMALTF
 40
25.4
  9
$DIMLFAC
 40
1.0
  9
$DIMTOFL
 70
     0
  9
$DIMTVP
 40
0.0
  9
$DIMTIX
 70
     0
  9
$DIMSOXD
 70
     0
  9
$DIMSAH
 70
     0
  9
$DIMBLK1
  1

  9
$DIMBLK2
  1

  9
$DIMSTYLE
  2
Standard
  9
$DIMCLRD
 70
     0
  9
$DIMCLRE
 70
     0
  9
$DIMCLRT
 70
     0
  9
$DIMTFAC
 40
1.0
  9
$DIMGAP
 40
0.09
  9
$DIMJUST
 70
     0
  9
$DIMSD1
 70
     0
  9
$DIMSD2
 70
     0
  9
$DIMTOLJ
 70
     1
  9
$DIMTZIN
 70
     0
  9
$DIMALTZ
 70
     0
  9
$DIMALTTZ
 70
     0
  9
$DIMUPT
 70
     0
  9
$DIMDEC
 70
     4
  9
$DIMTDEC
 70
     4
  9
$DIMALTU
 70
     2
  9
$DIMALTTD
 70
     2
  9
$DIMTXSTY
  7
Standard
  9
$DIMAUNIT
 70
     0
  9
$DIMADEC
 70
     0
  9
$DIMALTRND
 40
0.0
  9
$DIMAZIN
 70
     0
  9
$DIMDSEP
 70
    46
  9
$DIMATFIT
 70
     3
  9
$DIMFRAC
 70
     0
  9
$DIMLDRBLK
  1

  9
$DIMLUNIT
 70
     2
  9
$DIMLWD
 70
    -2
  9
$DIMLWE
 70
    -2
  9
$DIMTMOVE
 70
     0
  9
$LUNITS
 70
     2
  9
$LUPREC
 70
     4
  9
$SKETCHINC
 40
0.1
  9
$FILLETRAD
 40
0.5
  9
$AUNITS
 70
     0
  9
$AUPREC
 70
     0
  9
$MENU
  1
.
  9
$ELEVATION
 40
0.0
  9
$PELEVATION
 40
0.0
  9
$THICKNESS
 40
0.0
  9
$LIMCHECK
 70
     0
  9
$CHAMFERA
 40
0.5
  9
$CHAMFERB
 40
0.5
  9
$CHAMFERC
 40
1.0
  9
$CHAMFERD
 40
0.0
  9
$SKPOLY
 70
     0
  9
$TDCREATE
 40
2456522.591076713
  9
$TDUCREATE
 40
2456522.091076713
  9
$TDUPDATE
 40
2456522.591103067
  9
$TDUUPDATE
 40
2456522.091103067
  9
$TDINDWG
 40
0.0000000116
  9
$TDUSRTIMER
 40
0.0000000116
  9
$USRTIMER
 70
     1
  9
$ANGBASE
 50
0.0
  9
$ANGDIR
 70
     0
  9
$PDMODE
 70
     0
  9
$PDSIZE
 40
0.0
  9
$PLINEWID
 40
0.0
  9
$SPLFRAME
 70
     0
  9
$SPLINETYPE
 70
     6
  9
$SPLINESEGS
 70
     8
  9
$HANDSEED
  5
1FC
  9
$SURFTAB1
 70
     6
  9
$SURFTAB2
 70
     6
  9
$SURFTYPE
 70
     6
  9
$SURFU
 70
     6
  9
$SURFV
 70
     6
  9
$UCSBASE
  2

  9
$UCSNAME
  2

  9
$UCSORG
 10
0.0
 20
0.0
 30
0.0
  9
$UCSXDIR
 10
1.0
 20
0.0
 30
0.0
  9
$UCSYDIR
 10
0.0
 20
1.0
 30
0.0
  9
$UCSORTHOREF
  2

  9
$UCSORTHOVIEW
 70
     0
  9
$UCSORGTOP
 10
0.0
 20
0.0
 30
0.0
  9
$UCSORGBOTTOM
 10
0.0
 20
0.0
 30
0.0
  9
$UCSORGLEFT
 10
0.0
 20
0.0
 30
0.0
  9
$UCSORGRIGHT
 10
0.0
 20
0.0
 30
0.0
  9
$UCSORGFRONT
 10
0.0
 20
0.0
 30
0.0
  9
$UCSORGBACK
 10
0.0
 20
0.0
 30
0.0
  9
$PUCSBASE
  2

  9
$PUCSNAME
  2

  9
$PUCSORG
 10
0.0
 20
0.0
 30
0.0
  9
$PUCSXDIR
 10
1.0
 20
0.0
 30
0.0
  9
$PUCSYDIR
 10
0.0
 20
1.0
 30
0.0
  9
$PUCSORTHOREF
  2

  9
$PUCSORTHOVIEW
 70
     0
  9
$PUCSORGTOP
 10
0.0
 20
0.0
 30
0.0
  9
$PUCSORGBOTTOM
 10
0.0
 20
0.0
 30
0.0
  9
$PUCSORGLEFT
 10
0.0
 20
0.0
 30
0.0
  9
$PUCSORGRIGHT
 10
0.0
 20
0.0
 30
0.0
  9
$PUCSORGFRONT
 10
0.0
 20
0.0
 30
0.0
  9
$PUCSORGBACK
 10
0.0
 20
0.0
 30
0.0
  9
$USERI1
 70
     0
  9
$USERI2
 70
     0
  9
$USERI3
 70
     0
  9
$USERI4
 70
     0
  9
$USERI5
 70
     0
  9
$USERR1
 40
0.0
  9
$USERR2
 40
0.0
  9
$USERR3
 40
0.0
  9
$USERR4
 40
0.0
  9
$USERR5
 40
0.0
  9
$WORLDVIEW
 70
     1
  9
$SHADEDGE
 70
     3
  9
$SHADEDIF
 70
    70
  9
$TILEMODE
 70
     1
  9
$MAXACTVP
 70
    64
  9
$PINSBASE
 10
0.0
 20
0.0
 30
0.0
  9
$PLIMCHECK
 70
     0
  9
$PEXTMIN
 10
1.000000000000000E+20
 20
1.000000000000000E+20
 30
1.000000000000000E+20
  9
$PEXTMAX
 10
-1.000000000000000E+20
 20
-1.000000000000000E+20
 30
-1.000000000000000E+20
  9
$PLIMMIN
 10
0.0
 20
0.0
  9
$PLIMMAX
 10
12.0
 20
9.0
  9
$UNITMODE
 70
     0
  9
$VISRETAIN
 70
     1
  9
$PLINEGEN
 70
     0
  9
$PSLTSCALE
 70
     1
  9
$TREEDEPTH
 70
  3020
  9
$CMLSTYLE
  2
Standard
  9
$CMLJUST
 70
     0
  9
$CMLSCALE
 40
1.0
  9
$PROXYGRAPHICS
 70
     1
  9
$MEASUREMENT
 70
     0
  9
$CELWEIGHT
370
    -1
  9
$ENDCAPS
280
     0
  9
$JOINSTYLE
280
     0
  9
$LWDISPLAY
290
     1
  9
$INSUNITS
 70
     4
  9
$HYPERLINKBASE
  1

  9
$STYLESHEET
  1

  9
$XEDIT
290
     1
  9
$CEPSNTYPE
380
     0
  9
$PSTYLEMODE
290
     1
  9
$FINGERPRINTGUID
  2
{2838ACDE-F179-440B-A250-85B83BB4A58A}
  9
$VERSIONGUID
  2
{FAEB1C32-E019-11D5-929B-00C0DF256EC4}
  9
$EXTNAMES
290
     1
  9
$PSVPSCALE
 40
0.0
  9
$OLESTARTUP
290
     0
  0
ENDSEC
  0
SECTION
  2
CLASSES
  0
CLASS
  1
ACDBDICTIONARYWDFLT
  2
AcDbDictionaryWithDefault
  3
ObjectDBX Classes
 90
        0
280
     0
281
     0
  0
CLASS
  1
VISUALSTYLE
  2
AcDbVisualStyle
  3
ObjectDBX Classes
 90
     4095
280
     0
281
     0
  0
CLASS
  1
MATERIAL
  2
AcDbMaterial
  3
ObjectDBX Classes
 90
     1153
280
     0
281
     0
  0
CLASS
  1
SPATIAL_FILTER
  2
AcDbSpatialFilter
  3
ObjectDBX Classes
 90
        0
280
     0
281
     0
  0
CLASS
  1
SCALE
  2
AcDbScale
  3
ObjectDBX Classes
 90
     1153
280
     0
281
     0
  0
CLASS
  1
DICTIONARYVAR
  2
AcDbDictionaryVar
  3
ObjectDBX Classes
 90
        0
280
     0
281
     0
  0
CLASS
  1
ACDBPLACEHOLDER
  2
AcDbPlaceHolder
  3
ObjectDBX Classes
 90
        0
280
     0
281
     0
  0
CLASS
  1
LAYOUT
  2
AcDbLayout
  3
ObjectDBX Classes
 90
        0
280
     0
281
     0
  0
ENDSEC
  0
SECTION
  2
TABLES
  0
TABLE
  2
VPORT
  5
8
330
0
100
AcDbSymbolTable
 70
     1
  0
VPORT
  5
29
330
8
100
AcDbSymbolTableRecord
100
AcDbViewportTableRecord
  2
*Active
 70
     0
 10
0.0
 20
0.0
 11
1.0
 21
1.0
 12
148.6203422501967
 22
100.4660812394923
 13
0.0
 23
0.0
 14
0.5
 24
0.5
 15
0.5
 25
0.5
 16
0.0
 26
0.0
 36
1.0
 17
0.0
 27
0.0
 37
0.0
 40
200.8158936151757
 41
1.438658524413834
 42
50.0
 43
0.0
 44
0.0
 50
0.0
 51
0.0
 71
     0
 72
   100
 73
     1
 74
     3
 75
     0
 76
     0
 77
     0
 78
     0
281
     0
 65
     1
110
0.0
120
0.0
130
0.0
111
1.0
121
0.0
131
0.0
112
0.0
122
1.0
132
0.0
 79
     0
146
0.0
  0
ENDTAB
  0
TABLE
  2
LTYPE
  5
5
330
0
100
AcDbSymbolTable
 70
     2
  0
LTYPE
  5
14
330
5
100
AcDbSymbolTableRecord
100
AcDbLinetypeTableRecord
  2
ByBlock
 70
     0
  3

 72
    65
 73
     0
 40
0.0
  0
LTYPE
  5
15
330
5
100
AcDbSymbolTableRecord
100
AcDbLinetypeTableRecord
  2
ByLayer
 70
     0
  3

 72
    65
 73
     0
 40
0.0
  0
LTYPE
  5
16
330
5
100
AcDbSymbolTableRecord
100
AcDbLinetypeTableRecord
  2
Continuous
 70
     0
  3
Solid line
 72
    65
 73
     0
 40
0.0
  0
LTYPE
  5
132
330
5
100
AcDbSymbolTableRecord
100
AcDbLinetypeTableRecord
  2
Dashed
 70
     0
  3
- - - - - 
 72
    65
 73
     2
 40
5.644444465637207
 49
2.822222232818604
 74
     0
 49
-2.822222232818603
 74
     0
  0
ENDTAB
  0
TABLE
  2
LAYER
  5
2
330
0
100
AcDbSymbolTable
 70
     3
  0
LAYER
  5
10
330
2
100
AcDbSymbolTableRecord
100
AcDbLayerTableRecord
  2
0
 70
     0
 62
     7
  6
Continuous
370
    -3
390
F
  0
LAYER
  5
40
330
2
100
AcDbSymbolTableRecord
100
AcDbLayerTableRecord
  2
Doc_ Finishes
 70
     0
 62
     7
  6
Continuous
370
    -3
390
F
  0
LAYER
  5
DB
330
2
100
AcDbSymbolTableRecord
100
AcDbLayerTableRecord
  2
Doc_ Floor
 70
     0
 62
     7
  6
Continuous
370
    -3
390
F
  0
ENDTAB
  0
TABLE
  2
STYLE
  5
3
330
0
100
AcDbSymbolTable
 70
     4
  0
STYLE
  5
11
330
3
100
AcDbSymbolTableRecord
100
AcDbTextStyleTableRecord
  2
Standard
 70
     0
 40
0.0
 41
1.0
 50
0.0
 71
     0
 42
0.2
  3
txt
  4

  0
STYLE
  5
D6
330
3
100
AcDbSymbolTableRecord
100
AcDbTextStyleTableRecord
  2
GENERATED_STYLE_1
 70
     0
 40
0.0
 41
1.0
 50
0.0
 71
     0
 42
0.2
  3

  4

1001
ACAD
1000
Century Gothic
1071
       34
  0
STYLE
  5
D9
330
3
100
AcDbSymbolTableRecord
100
AcDbTextStyleTableRecord
  2
GENERATED_STYLE_2
 70
     0
 40
0.0
 41
1.0
 50
0.0
 71
     0
 42
0.2
  3

  4

1001
ACAD
1000
DilleniaUPC
1071
 33554450
  0
STYLE
  5
154
330
3
100
AcDbSymbolTableRecord
100
AcDbTextStyleTableRecord
  2
GENERATED_STYLE_3
 70
     0
 40
0.0
 41
1.0
 50
0.0
 71
     0
 42
0.2
  3

  4

1001
ACAD
1000
Arial
1071
       34
  0
ENDTAB
  0
TABLE
  2
VIEW
  5
6
330
0
100
AcDbSymbolTable
 70
     0
  0
ENDTAB
  0
TABLE
  2
UCS
  5
7
330
0
100
AcDbSymbolTable
 70
     0
  0
ENDTAB
  0
TABLE
  2
APPID
  5
9
330
0
100
AcDbSymbolTable
 70
     1
  0
APPID
  5
12
330
9
100
AcDbSymbolTableRecord
100
AcDbRegAppTableRecord
  2
ACAD
 70
     0
  0
ENDTAB
  0
TABLE
  2
DIMSTYLE
  5
A
330
0
100
AcDbSymbolTable
 70
     1
100
AcDbDimStyleTable
  0
DIMSTYLE
105
27
330
A
100
AcDbSymbolTableRecord
100
AcDbDimStyleTableRecord
  2
Standard
 70
     0
178
     0
340
11
  0
ENDTAB
  0
TABLE
  2
BLOCK_RECORD
  5
1
330
0
100
AcDbSymbolTable
 70
     3
  0
BLOCK_RECORD
  5
1F
330
1
100
AcDbSymbolTableRecord
100
AcDbBlockTableRecord
  2
*Model_Space
340
22
  0
BLOCK_RECORD
  5
1B
330
1
100
AcDbSymbolTableRecord
100
AcDbBlockTableRecord
  2
*Paper_Space
340
1E
  0
BLOCK_RECORD
  5
E3
330
1
100
AcDbSymbolTableRecord
100
AcDbBlockTableRecord
  2
Drawing_1_2
340
0
102
{BLKREFS
331
1A0
102
}
  0
BLOCK_RECORD
  5
1A4
330
1
100
AcDbSymbolTableRecord
100
AcDbBlockTableRecord
  2
R-TRSS-09 APRON DETAIL - SIDE_STORY_MARKER
340
0
  0
ENDTAB
  0
ENDSEC
  0
SECTION
  2
BLOCKS
  0
BLOCK
  5
20
330
1F
100
AcDbEntity
  8
0
100
AcDbBlockBegin
  2
*Model_Space
 70
     0
 10
0.0
 20
0.0
 30
0.0
  3
*Model_Space
  1

  0
ENDBLK
  5
21
330
1F
100
AcDbEntity
  8
0
100
AcDbBlockEnd
  0
BLOCK
  5
1C
330
1B
100
AcDbEntity
 67
     1
  8
0
100
AcDbBlockBegin
  2
*Paper_Space
 70
     0
 10
0.0
 20
0.0
 30
0.0
  3
*Paper_Space
  1

  0
ENDBLK
  5
1D
330
1B
100
AcDbEntity
 67
     1
  8
0
100
AcDbBlockEnd
  0
BLOCK
  5
E4
330
E3
100
AcDbEntity
  8
0
100
AcDbBlockBegin
  2
Drawing_1_2
 70
     0
 10
-1488.68793027213
 20
350.9956652514564
 30
0.0
  3
Drawing_1_2
  1

  0
HATCH
  5
E6
330
E3
100
AcDbEntity
  8
0
  6
Continuous
 62
   255
370
     0
100
AcDbHatch
 10
0.0
 20
0.0
 30
0.0
210
0.0
220
0.0
230
1.0
  2
SOLID
 70
     1
 71
     0
 91
        1
 92
        3
 72
     0
 73
     1
 93
        4
 10
168.1174859022492
 20
112.6406041731083
 10
168.1174859022492
 20
121.6406041731083
 10
79.43972639502928
 20
121.6406041731083
 10
79.43972639502928
 20
112.6406041731083
 97
        0
 75
     0
 76
     1
 98
        0
  0
LINE
  5
E7
330
E3
100
AcDbEntity
  8
0
  6
Continuous
100
AcDbLine
 10
168.117485204927
 20
121.640605229661
 30
0.0
 11
168.117485204927
 21
112.6406032683659
 31
0.0
  0
LINE
  5
E8
330
E3
100
AcDbEntity
  8
0
  6
Continuous
100
AcDbLine
 10
79.43972626077054
 20
121.640605229661
 30
0.0
 11
168.117485204927
 21
121.640605229661
 31
0.0
  0
LINE
  5
E9
330
E3
100
AcDbEntity
  8
0
  6
Continuous
100
AcDbLine
 10
79.43972626077054
 20
112.6406032683659
 30
0.0
 11
79.43972626077054
 21
121.640605229661
 31
0.0
  0
LINE
  5
EA
330
E3
100
AcDbEntity
  8
0
  6
Continuous
100
AcDbLine
 10
168.117485204927
 20
112.6406032683659
 30
0.0
 11
79.43972626077054
 21
112.6406032683659
 31
0.0
  0
HATCH
  5
EB
330
E3
100
AcDbEntity
  8
0
  6
Continuous
 62
   255
370
     0
100
AcDbHatch
 10
0.0
 20
0.0
 30
0.0
210
0.0
220
0.0
230
1.0
  2
SOLID
 70
     1
 71
     0
 91
        1
 92
        3
 72
     0
 73
     1
 93
        4
 10
168.1174859022492
 20
121.6406041731084
 10
154.1174859022492
 20
121.6406041731084
 10
154.1174859022492
 20
112.6406041731084
 10
168.1174859022492
 20
112.6406041731084
 97
        0
 75
     0
 76
     1
 98
        0
  0
LINE
  5
EC
330
E3
100
AcDbEntity
  8
0
  6
Continuous
100
AcDbLine
 10
168.117485204927
 20
121.640605229661
 30
0.0
 11
154.1174850381376
 21
112.6406032683659
 31
0.0
  0
LINE
  5
ED
330
E3
100
AcDbEntity
  8
0
  6
Continuous
100
AcDbLine
 10
168.117485204927
 20
121.640605229661
 30
0.0
 11
168.117485204927
 21
112.6406032683659
 31
0.0
  0
LINE
  5
EE
330
E3
100
AcDbEntity
  8
0
  6
Continuous
100
AcDbLine
 10
168.117485204927
 20
112.6406032683659
 30
0.0
 11
154.1174850381376
 21
112.6406032683659
 31
0.0
  0
LINE
  5
EF
330
E3
100
AcDbEntity
  8
0
  6
Continuous
100
AcDbLine
 10
154.1174850381376
 20
112.6406032683659
 30
0.0
 11
154.1174850381376
 21
121.640605229661
 31
0.0
  0
LINE
  5
F0
330
E3
100
AcDbEntity
  8
0
  6
Continuous
100
AcDbLine
 10
154.1174850381376
 20
121.640605229661
 30
0.0
 11
168.117485204927
 21
121.640605229661
 31
0.0
  0
HATCH
  5
F1
330
E3
100
AcDbEntity
  8
0
  6
Continuous
 62
   255
370
     0
100
AcDbHatch
 10
0.0
 20
0.0
 30
0.0
210
0.0
220
0.0
230
1.0
  2
SOLID
 70
     1
 71
     0
 91
        1
 92
        3
 72
     0
 73
     1
 93
        4
 10
168.1174859022492
 20
94.64060417310837
 10
168.1174859022492
 20
112.6406041731084
 10
79.43972639502928
 20
112.6406041731084
 10
79.43972639502928
 20
94.64060417310837
 97
        0
 75
     0
 76
     1
 98
        0
  0
LINE
  5
F2
330
E3
100
AcDbEntity
  8
0
  6
Continuous
100
AcDbLine
 10
168.117485204927
 20
112.6406032683659
 30
0.0
 11
168.117485204927
 21
94.64060259040403
 31
0.0
  0
LINE
  5
F3
330
E3
100
AcDbEntity
  8
0
  6
Continuous
100
AcDbLine
 10
79.43972626077054
 20
112.6406032683659
 30
0.0
 11
168.117485204927
 21
112.6406032683659
 31
0.0
  0
LINE
  5
F4
330
E3
100
AcDbEntity
  8
0
  6
Continuous
100
AcDbLine
 10
79.43972626077054
 20
94.64060259040403
 30
0.0
 11
79.43972626077054
 21
112.6406032683659
 31
0.0
  0
LINE
  5
F5
330
E3
100
AcDbEntity
  8
0
  6
Continuous
100
AcDbLine
 10
168.117485204927
 20
94.64060259040403
 30
0.0
 11
79.43972626077054
 21
94.64060259040403
 31
0.0
  0
HATCH
  5
F6
330
E3
100
AcDbEntity
  8
0
  6
Continuous
 62
   255
370
     0
100
AcDbHatch
 10
0.0
 20
0.0
 30
0.0
210
0.0
220
0.0
230
1.0
  2
SOLID
 70
     1
 71
     0
 91
        1
 92
        3
 72
     0
 73
     1
 93
        4
 10
160.0358493339309
 20
198.9052445224275
 10
160.0358493339309
 20
142.0865267900811
 10
164.0358498451034
 20
142.0865267900811
 10
164.0358498451034
 20
198.9052445224275
 97
        0
 75
     0
 76
     1
 98
        0
  0
LINE
  5
F7
330
E3
100
AcDbEntity
  8
0
  6
Continuous
100
AcDbLine
 10
160.0358493339309
 20
198.9052445224275
 30
0.0
 11
160.0358493339309
 21
142.0865267900811
 31
0.0
  0
LINE
  5
F8
330
E3
100
AcDbEntity
  8
0
  6
Continuous
100
AcDbLine
 10
160.0358493339309
 20
142.0865267900811
 30
0.0
 11
164.0358498451034
 21
142.0865267900811
 31
0.0
  0
LINE
  5
F9
330
E3
100
AcDbEntity
  8
0
  6
Continuous
100
AcDbLine
 10
164.0358498451034
 20
142.0865267900811
 30
0.0
 11
164.0358498451034
 21
198.9052445224275
 31
0.0
  0
HATCH
  5
FA
330
E3
100
AcDbEntity
  8
0
  6
Continuous
 62
   255
370
     0
100
AcDbHatch
 10
0.0
 20
0.0
 30
0.0
210
0.0
220
0.0
230
1.0
  2
SOLID
 70
     1
 71
     0
 91
        1
 92
        3
 72
     0
 73
     1
 93
        4
 10
160.0358492924565
 20
142.0426988157142
 10
164.0358492924563
 20
142.0426988157142
 10
164.0358492924563
 20
151.0426988157143
 10
160.0358492924565
 20
151.0426988157143
 97
        0
 75
     0
 76
     1
 98
        0
  0
LINE
  5
FB
330
E3
100
AcDbEntity
  8
0
  6
Continuous
100
AcDbLine
 10
160.0358493339309
 20
142.0426983506702
 30
0.0
 11
164.0358498451034
 21
151.0427003119652
 31
0.0
  0
LINE
  5
FC
330
E3
100
AcDbEntity
  8
0
  6
Continuous
100
AcDbLine
 10
160.0358493339309
 20
142.0426983506702
 30
0.0
 11
164.0358498451034
 21
142.0426983506702
 31
0.0
  0
LINE
  5
FD
330
E3
100
AcDbEntity
  8
0
  6
Continuous
100
AcDbLine
 10
164.0358498451034
 20
142.0426983506702
 30
0.0
 11
164.0358498451034
 21
151.0427003119652
 31
0.0
  0
LINE
  5
FE
330
E3
100
AcDbEntity
  8
0
  6
Continuous
100
AcDbLine
 10
164.0358498451034
 20
151.0427003119652
 30
0.0
 11
160.0358493339309
 21
151.0427003119652
 31
0.0
  0
LINE
  5
FF
330
E3
100
AcDbEntity
  8
0
  6
Continuous
100
AcDbLine
 10
160.0358493339309
 20
151.0427003119652
 30
0.0
 11
160.0358493339309
 21
142.0426983506702
 31
0.0
  0
HATCH
  5
100
330
E3
100
AcDbEntity
  8
0
  6
Continuous
 62
   255
370
     0
100
AcDbHatch
 10
0.0
 20
0.0
 30
0.0
210
0.0
220
0.0
230
1.0
  2
SOLID
 70
     1
 71
     0
 91
        1
 92
        3
 72
     0
 73
     1
 93
        4
 10
168.1174887648496
 20
198.9052482462201
 10
168.1174887648496
 20
23.56187983551988
 10
186.1174869618074
 20
23.56187983551988
 10
186.1174869618074
 20
198.9052482462201
 97
        0
 75
     0
 76
     1
 98
        0
  0
LINE
  5
101
330
E3
100
AcDbEntity
  8
0
  6
Continuous
100
AcDbLine
 10
186.1174869618074
 20
23.56187983551988
 30
0.0
 11
186.1174869618074
 21
198.9052482462201
 31
0.0
  0
LINE
  5
102
330
E3
100
AcDbEntity
  8
0
  6
Continuous
100
AcDbLine
 10
168.1174887648496
 20
198.9052482462201
 30
0.0
 11
168.1174887648496
 21
23.56187983551988
 31
0.0
  0
HATCH
  5
103
330
E3
100
AcDbEntity
  8
0
  6
Continuous
 62
   255
370
     0
100
AcDbHatch
 10
0.0
 20
0.0
 30
0.0
210
0.0
220
0.0
230
1.0
  2
SOLID
 70
     1
 71
     0
 91
        1
 92
        3
 72
     0
 73
     1
 93
        4
 10
168.117485204927
 20
194.16910598156
 10
186.1174858828889
 20
194.16910598156
 10
186.1174858828889
 20
198.9052445224275
 10
168.117485204927
 20
198.9052445224275
 97
        0
 75
     0
 76
     1
 98
        0
  0
LINE
  5
104
330
E3
100
AcDbEntity
  8
0
  6
Continuous
100
AcDbLine
 10
186.1174858828889
 20
194.16910598156
 30
0.0
 11
186.1174858828889
 21
198.9052445224275
 31
0.0
  0
LINE
  5
105
330
E3
100
AcDbEntity
  8
0
  6
Continuous
100
AcDbLine
 10
168.117485204927
 20
198.9052445224275
 30
0.0
 11
168.117485204927
 21
194.16910598156
 31
0.0
  0
LINE
  5
106
330
E3
100
AcDbEntity
  8
0
  6
Continuous
100
AcDbLine
 10
168.117485204927
 20
194.16910598156
 30
0.0
 11
186.1174858828889
 21
194.16910598156
 31
0.0
  0
HATCH
  5
107
330
E3
100
AcDbEntity
  8
0
  6
Continuous
 62
   255
370
     0
100
AcDbHatch
 10
0.0
 20
0.0
 30
0.0
210
0.0
220
0.0
230
1.0
  2
SOLID
 70
     1
 71
     0
 91
        1
 92
        3
 72
     0
 73
     1
 93
        4
 10
186.1174859022492
 20
45.66910478962427
 10
186.1174859022492
 20
54.66910478962428
 10
168.1174859022492
 20
54.66910478962428
 10
168.1174859022492
 20
45.66910478962427
 97
        0
 75
     0
 76
     1
 98
        0
  0
LINE
  5
108
330
E3
100
AcDbEntity
  8
0
  6
Continuous
100
AcDbLine
 10
186.1174858828889
 20
45.66910606647417
 30
0.0
 11
186.1174858828889
 21
54.66910478314094
 31
0.0
  0
LINE
  5
109
330
E3
100
AcDbEntity
  8
0
  6
Continuous
100
AcDbLine
 10
186.1174858828889
 20
54.66910478314094
 30
0.0
 11
168.117485204927
 21
54.66910478314094
 31
0.0
  0
LINE
  5
10A
330
E3
100
AcDbEntity
  8
0
  6
Continuous
100
AcDbLine
 10
168.117485204927
 20
54.66910478314094
 30
0.0
 11
168.117485204927
 21
45.66910606647417
 31
0.0
  0
LINE
  5
10B
330
E3
100
AcDbEntity
  8
0
  6
Continuous
100
AcDbLine
 10
168.117485204927
 20
45.66910606647417
 30
0.0
 11
186.1174858828889
 21
45.66910606647417
 31
0.0
  0
LINE
  5
10C
330
E3
100
AcDbEntity
  8
0
  6
Continuous
100
AcDbLine
 10
186.1174858828889
 20
194.16910598156
 30
0.0
 11
176.6452088011538
 21
198.9052445224275
 31
0.0
  0
LINE
  5
10D
330
E3
100
AcDbEntity
  8
0
  6
Continuous
100
AcDbLine
 10
177.5897655312904
 20
198.9052445224275
 30
0.0
 11
168.117485204927
 21
194.16910598156
 31
0.0
  0
LINE
  5
10E
330
E3
100
AcDbEntity
  8
0
  6
Continuous
100
AcDbLine
 10
168.117485204927
 20
45.66910606647417
 30
0.0
 11
186.1174858828889
 21
54.66910478314094
 31
0.0
  0
HATCH
  5
10F
330
E3
100
AcDbEntity
  8
0
  6
Continuous
 62
   255
370
     0
100
AcDbHatch
 10
0.0
 20
0.0
 30
0.0
210
0.0
220
0.0
230
1.0
  2
SOLID
 70
     1
 71
     0
 91
        1
 92
        3
 72
     0
 73
     1
 93
        4
 10
157.2358477855965
 20
198.90524494705
 10
157.2358477855965
 20
139.0865260571862
 10
159.0358478527942
 20
139.0865260571862
 10
159.0358478527942
 20
198.90524494705
 97
        0
 75
     0
 76
     1
 98
        0
  0
HATCH
  5
110
330
E3
100
AcDbEntity
  8
0
  6
Continuous
100
AcDbHatch
 10
0.0
 20
0.0
 30
0.0
210
0.0
220
0.0
230
1.0
  2
Plaster_0002
 70
     0
 71
     0
 91
        1
 92
        3
 72
     0
 73
     1
 93
        4
 10
157.2358477855965
 20
198.90524494705
 10
157.2358477855965
 20
139.0865260571862
 10
159.0358478527942
 20
139.0865260571862
 10
159.0358478527942
 20
198.90524494705
 97
        0
 75
     0
 76
     2
 52
0.0
 41
1.0
 77
     0
 78
     2
 53
0.0
 43
-1488.68793027213
 44
350.9956652514564
 45
0.0
 46
1.732050807568877
 79
     2
 49
0.0
 49
-1.0
 53
0.0
 43
-1488.18793027213
 44
351.8616906396973
 45
0.0
 46
1.732050807568877
 79
     2
 49
0.0
 49
-1.0
 98
        0
  0
LINE
  5
111
330
E3
100
AcDbEntity
  8
0
  6
Continuous
100
AcDbLine
 10
157.2358477855965
 20
198.90524494705
 30
0.0
 11
157.2358477855965
 21
139.0865260571862
 31
0.0
  0
LINE
  5
112
330
E3
100
AcDbEntity
  8
0
  6
Continuous
100
AcDbLine
 10
157.2358486516474
 20
139.0865272178588
 30
0.0
 11
159.0358483949807
 21
139.0865272178588
 31
0.0
  0
LINE
  5
113
330
E3
100
AcDbEntity
  8
0
  6
Continuous
100
AcDbLine
 10
159.0358478527942
 20
139.0865260571862
 30
0.0
 11
159.0358478527942
 21
198.90524494705
 31
0.0
  0
HATCH
  5
114
330
E3
100
AcDbEntity
  8
0
  6
Continuous
 62
   255
370
     0
100
AcDbHatch
 10
0.0
 20
0.0
 30
0.0
210
0.0
220
0.0
230
1.0
  2
SOLID
 70
     1
 71
     0
 91
        1
 92
        3
 72
     0
 73
     1
 93
        4
 10
177.1174859022491
 20
151.3784425109963
 10
168.1174859022492
 20
151.3784425109963
 10
168.1174859022492
 20
133.3784425109963
 10
177.1174859022491
 20
133.3784425109963
 97
        0
 75
     0
 76
     1
 98
        0
  0
LINE
  5
115
330
E3
100
AcDbEntity
  8
0
  6
Continuous
100
AcDbLine
 10
177.1174871662221
 20
151.378441472499
 30
0.0
 11
168.117485204927
 21
133.3784440391654
 31
0.0
  0
LINE
  5
116
330
E3
100
AcDbEntity
  8
0
  6
Continuous
100
AcDbLine
 10
177.1174871662221
 20
151.378441472499
 30
0.0
 11
168.117485204927
 21
151.378441472499
 31
0.0
  0
LINE
  5
117
330
E3
100
AcDbEntity
  8
0
  6
Continuous
100
AcDbLine
 10
168.117485204927
 20
151.378441472499
 30
0.0
 11
168.117485204927
 21
133.3784440391654
 31
0.0
  0
LINE
  5
118
330
E3
100
AcDbEntity
  8
0
  6
Continuous
100
AcDbLine
 10
168.117485204927
 20
133.3784440391654
 30
0.0
 11
177.1174871662221
 21
133.3784440391654
 31
0.0
  0
LINE
  5
119
330
E3
100
AcDbEntity
  8
0
  6
Continuous
100
AcDbLine
 10
177.1174871662221
 20
133.3784440391654
 30
0.0
 11
177.1174871662221
 21
151.378441472499
 31
0.0
  0
HATCH
  5
11A
330
E3
100
AcDbEntity
  8
0
  6
Continuous
 62
   255
370
     0
100
AcDbHatch
 10
0.0
 20
0.0
 30
0.0
210
0.0
220
0.0
230
1.0
  2
SOLID
 70
     1
 71
     0
 91
        1
 92
        3
 72
     0
 73
     1
 93
        4
 10
177.1174859022491
 20
130.736097640514
 10
168.1174859022492
 20
130.736097640514
 10
168.1174859022492
 20
112.736097640514
 10
177.1174859022491
 20
112.736097640514
 97
        0
 75
     0
 76
     1
 98
        0
  0
LINE
  5
11B
330
E3
100
AcDbEntity
  8
0
  6
Continuous
100
AcDbLine
 10
177.1174871662221
 20
130.736096602554
 30
0.0
 11
168.117485204927
 21
112.7360991692205
 31
0.0
  0
LINE
  5
11C
330
E3
100
AcDbEntity
  8
0
  6
Continuous
100
AcDbLine
 10
177.1174871662221
 20
130.736096602554
 30
0.0
 11
168.117485204927
 21
130.736096602554
 31
0.0
  0
LINE
  5
11D
330
E3
100
AcDbEntity
  8
0
  6
Continuous
100
AcDbLine
 10
168.117485204927
 20
130.736096602554
 30
0.0
 11
168.117485204927
 21
112.7360991692205
 31
0.0
  0
LINE
  5
11E
330
E3
100
AcDbEntity
  8
0
  6
Continuous
100
AcDbLine
 10
168.117485204927
 20
112.7360991692205
 30
0.0
 11
177.1174871662221
 21
112.7360991692205
 31
0.0
  0
LINE
  5
11F
330
E3
100
AcDbEntity
  8
0
  6
Continuous
100
AcDbLine
 10
177.1174871662221
 20
112.7360991692205
 30
0.0
 11
177.1174871662221
 21
130.736096602554
 31
0.0
  0
HATCH
  5
120
330
E3
100
AcDbEntity
  8
0
  6
Continuous
 62
   255
370
     0
100
AcDbHatch
 10
0.0
 20
0.0
 30
0.0
210
0.0
220
0.0
230
1.0
  2
SOLID
 70
     1
 71
     0
 91
        1
 92
        3
 72
     0
 73
     1
 93
        4
 10
159.1174859022493
 20
112.736097640514
 10
159.1174859022493
 20
94.73609764051399
 10
168.1174859022492
 20
94.73609764051399
 10
168.1174859022492
 20
112.736097640514
 97
        0
 75
     0
 76
     1
 98
        0
  0
LINE
  5
121
330
E3
100
AcDbEntity
  8
0
  6
Continuous
100
AcDbLine
 10
168.117485204927
 20
112.7360991692205
 30
0.0
 11
159.1174864882602
 21
94.7360984912586
 31
0.0
  0
LINE
  5
122
330
E3
100
AcDbEntity
  8
0
  6
Continuous
100
AcDbLine
 10
159.1174864882602
 20
112.7360991692205
 30
0.0
 11
168.117485204927
 21
94.7360984912586
 31
0.0
  0
LINE
  5
123
330
E3
100
AcDbEntity
  8
0
  6
Continuous
100
AcDbLine
 10
159.1174864882602
 20
112.7360991692205
 30
0.0
 11
168.117485204927
 21
112.7360991692205
 31
0.0
  0
LINE
  5
124
330
E3
100
AcDbEntity
  8
0
  6
Continuous
100
AcDbLine
 10
168.117485204927
 20
112.7360991692205
 30
0.0
 11
168.117485204927
 21
94.7360984912586
 31
0.0
  0
LINE
  5
125
330
E3
100
AcDbEntity
  8
0
  6
Continuous
100
AcDbLine
 10
168.117485204927
 20
94.7360984912586
 30
0.0
 11
159.1174864882602
 21
94.7360984912586
 31
0.0
  0
LINE
  5
126
330
E3
100
AcDbEntity
  8
0
  6
Continuous
100
AcDbLine
 10
159.1174864882602
 20
94.7360984912586
 30
0.0
 11
159.1174864882602
 21
112.7360991692205
 31
0.0
  0
HATCH
  5
127
330
E3
100
AcDbEntity
  8
0
  6
Continuous
 62
   255
370
     0
100
AcDbHatch
 10
0.0
 20
0.0
 30
0.0
210
0.0
220
0.0
230
1.0
  2
SOLID
 70
     1
 71
     0
 91
        1
 92
        3
 72
     0
 73
     1
 93
        4
 10
168.1174864760951
 20
124.6406061305736
 10
28.46927289270988
 20
124.6406061305736
 10
28.46927289270988
 20
121.640602853896
 10
168.1174864760951
 20
121.640602853896
 97
        0
 75
     0
 76
     1
 98
        0
  0
HATCH
  5
128
330
E3
100
AcDbEntity
  8
0
  6
Continuous
100
AcDbHatch
 10
0.0
 20
0.0
 30
0.0
210
0.0
220
0.0
230
1.0
  2
Wood_0002
 70
     0
 71
     0
 91
        1
 92
        3
 72
     0
 73
     1
 93
        4
 10
168.1174864760951
 20
124.6406061305736
 10
28.46927289270988
 20
124.6406061305736
 10
28.46927289270988
 20
121.640602853896
 10
168.1174864760951
 20
121.640602853896
 97
        0
 75
     0
 76
     2
 52
0.0
 41
1.0
 77
     0
 78
     1
 53
9.999999999999996
 43
-1488.68793027213
 44
350.9956652514564
 45
-0.1562833557601421
 46
0.8863269542313407
 79
     0
 98
        0
  0
LINE
  5
129
330
E3
100
AcDbEntity
  8
0
  6
Continuous
100
AcDbLine
 10
168.117485204927
 20
124.6406048018833
 30
0.0
 11
168.117485204927
 21
121.640605229661
 31
0.0
  0
LINE
  5
12A
330
E3
100
AcDbEntity
  8
0
  6
Continuous
100
AcDbLine
 10
28.46927289270988
 20
124.6406061305736
 30
0.0
 11
168.1174864760951
 21
124.6406061305736
 31
0.0
  0
LINE
  5
12B
330
E3
100
AcDbEntity
  8
0
  6
Continuous
100
AcDbLine
 10
168.1174864760951
 20
121.640602853896
 30
0.0
 11
28.46927289270988
 21
121.640602853896
 31
0.0
  0
HATCH
  5
12C
330
E3
100
AcDbEntity
  8
0
  6
Continuous
 62
   255
370
     0
100
AcDbHatch
 10
0.0
 20
0.0
 30
0.0
210
0.0
220
0.0
230
1.0
  2
SOLID
 70
     1
 71
     0
 91
        1
 92
        3
 72
     0
 73
     1
 93
        8
 10
149.4538278134524
 20
75.11660877879062
 10
149.4538278134524
 20
23.56188081484578
 10
197.2914024243301
 20
23.56188081484578
 10
197.2914024243301
 20
83.55166601136033
 10
175.3422300053514
 20
79.68143322333098
 10
174.029148629898
 20
85.44990124193052
 10
172.7160744311645
 20
73.21837354822041
 10
171.403000232431
 20
78.98684156681995
 97
        0
 75
     0
 76
     1
 98
        0
  0
LINE
  5
12D
330
E3
100
AcDbEntity
  8
0
  6
Continuous
100
AcDbLine
 10
149.4538282494171
 20
75.11661296681187
 30
0.0
 11
171.4029990912155
 21
78.9868413235069
 31
0.0
  0
LINE
  5
12E
330
E3
100
AcDbEntity
  8
0
  6
Continuous
100
AcDbLine
 10
175.3422277138651
 20
79.68143513213164
 30
0.0
 11
197.2913985556636
 21
83.551666733455
 31
0.0
  0
LINE
  5
12F
330
E3
100
AcDbEntity
  8
0
  6
Continuous
100
AcDbLine
 10
175.3422277138651
 20
79.68143513213164
 30
0.0
 11
174.029152587858
 21
85.44990408857734
 31
0.0
  0
LINE
  5
130
330
E3
100
AcDbEntity
  8
0
  6
Continuous
100
AcDbLine
 10
174.029152587858
 20
85.44990408857734
 30
0.0
 11
172.7160742172226
 21
73.21837236706119
 31
0.0
  0
LINE
  5
131
330
E3
100
AcDbEntity
  8
0
  6
Continuous
100
AcDbLine
 10
172.7160742172226
 20
73.21837236706119
 30
0.0
 11
171.4029990912155
 21
78.9868413235069
 31
0.0
  0
LINE
  5
133
330
E3
100
AcDbEntity
  8
0
  6
Dashed
100
AcDbLine
 10
165.2377542708189
 20
155.5934440349838
 30
0.0
 11
165.2377542708189
 21
141.6402119408676
 31
0.0
  0
LINE
  5
134
330
E3
100
AcDbEntity
  8
0
  6
Dashed
100
AcDbLine
 10
167.2960556304587
 20
125.3073402317115
 30
0.0
 11
167.2960556304587
 21
156.0923640432268
 31
0.0
  0
LINE
  5
135
330
E3
100
AcDbEntity
  8
0
  6
Dashed
100
AcDbLine
 10
165.2377542708189
 20
155.5934440349838
 30
0.0
 11
165.9827890713805
 21
156.2360621424741
 31
0.0
  0
LINE
  5
136
330
E3
100
AcDbEntity
  8
0
  6
Dashed
100
AcDbLine
 10
165.9827890713805
 20
156.2360621424741
 30
0.0
 11
165.9827890713805
 21
198.9052445224275
 31
0.0
  0
LINE
  5
137
330
E3
100
AcDbEntity
  8
0
  6
Continuous
100
AcDbLine
 10
77.03935671536371
 20
52.9371740974329
 30
0.0
 11
201.4024594497645
 21
52.9371740974329
 31
0.0
  0
LINE
  5
138
330
E3
100
AcDbEntity
  8
0
  6
Continuous
100
AcDbLine
 10
177.4324432377073
 20
61.02354063652648
 30
0.0
 11
177.4324432377073
 21
31.41598919944127
 31
0.0
  0
LINE
  5
139
330
E3
100
AcDbEntity
  8
0
  6
Continuous
100
AcDbLine
 10
77.03935671536371
 20
31.41598919944127
 30
0.0
 11
77.03935671536371
 21
52.9371740974329
 31
0.0
  0
LINE
  5
13A
330
E3
100
AcDbEntity
  8
0
  6
Continuous
100
AcDbLine
 10
153.4624270256502
 20
61.02354063652648
 30
0.0
 11
153.4624270256502
 21
31.41598919944127
 31
0.0
  0
LINE
  5
13B
330
E3
100
AcDbEntity
  8
0
  6
Continuous
100
AcDbLine
 10
77.03935671536371
 20
42.17658164843709
 30
0.0
 11
201.4024594497645
 21
42.17658164843709
 31
0.0
  0
LINE
  5
13C
330
E3
100
AcDbEntity
  8
0
  6
Continuous
100
AcDbLine
 10
77.03935671536371
 20
31.41598919944127
 30
0.0
 11
201.4024594497645
 21
31.41598919944127
 31
0.0
  0
LINE
  5
13D
330
E3
100
AcDbEntity
  8
0
  6
Continuous
100
AcDbLine
 10
153.4624270256502
 20
61.02354063652648
 30
0.0
 11
177.4324432377073
 21
61.02354063652648
 31
0.0
  0
LINE
  5
13E
330
E3
100
AcDbEntity
  8
0
  6
Continuous
100
AcDbLine
 10
201.4024594497645
 20
61.02354063652648
 30
0.0
 11
201.4024594497645
 21
31.41598919944127
 31
0.0
  0
LINE
  5
13F
330
E3
100
AcDbEntity
  8
0
  6
Continuous
100
AcDbLine
 10
177.4324432377073
 20
61.02354063652648
 30
0.0
 11
201.4024594497645
 21
61.02354063652648
 31
0.0
  0
LINE
  5
140
330
E3
100
AcDbEntity
  8
0
  6
Dashed
100
AcDbLine
 10
167.2960556304587
 20
125.3073402317115
 30
0.0
 11
78.75967812092574
 21
125.3073402317115
 31
0.0
  0
LWPOLYLINE
  5
141
330
E3
100
AcDbEntity
  8
0
  6
Continuous
100
AcDbPolyline
 90
        4
 70
   128
 43
0.0
 10
159.5560999963057
 20
143.436139988114
 10
159.5560999963057
 20
141.4865257098756
 10
164.6300565694887
 20
141.4865257098756
 10
164.6300565694887
 20
153.4091668729485
  0
LWPOLYLINE
  5
142
330
E3
100
AcDbEntity
  8
0
  6
Continuous
100
AcDbPolyline
 90
        3
 70
   128
 43
0.0
 10
92.06513356143708
 20
127.5011779545818
 42
0.5012060838038215
 10
99.71990934907127
 20
127.723502625549
 42
-0.4736328287552234
 10
107.0402104810115
 20
127.6183838804715
  0
LWPOLYLINE
  5
143
330
E3
100
AcDbEntity
  8
0
  6
Continuous
100
AcDbPolyline
 90
       14
 70
   128
 43
0.0
 10
97.28219101712354
 20
130.9024868041977
 10
96.11129488579806
 20
130.9024868041977
 10
95.98828154249061
 20
131.1281512602488
 10
95.98828154249061
 20
131.4102125189842
 10
96.0997941331534
 20
131.6922737777197
 10
98.08734207261493
 20
131.6922737777197
 10
98.3202066001756
 20
131.459409250159
 10
98.70607164977696
 20
126.7968301159356
 10
99.0720953297175
 20
126.4308064359953
 10
131.3906180275148
 20
126.4308064359953
 10
131.5930144815747
 20
126.8109181706208
 10
131.5930144815747
 20
131.0220701986404
 10
131.4057614898034
 20
131.2510357212562
 10
129.8755463633427
 20
131.2510357212562
  0
LWPOLYLINE
  5
144
330
E3
100
AcDbEntity
  8
0
  6
Continuous
100
AcDbPolyline
 90
       14
 70
   128
 43
0.0
 10
130.997704122747
 20
130.7863037198866
 10
129.7055224604024
 20
130.7863037198866
 10
129.5014937768746
 20
130.9903324034147
 10
129.5014937768746
 20
131.3757199167455
 10
129.7508621678531
 20
131.670428015175
 10
131.7458092956834
 20
131.670428015175
 10
131.9611729060739
 20
131.4663993316469
 10
132.4032350537181
 20
126.7510697567759
 10
132.7036106155792
 20
126.4506941949151
 10
164.8609907034648
 20
126.4506941949151
 10
165.2215365910899
 20
126.8112400825404
 10
165.2215365910899
 20
131.034729044964
 10
165.0230018206722
 20
131.233263815382
 10
163.4363163404584
 20
131.233263815382
  0
LWPOLYLINE
  5
145
330
E3
100
AcDbEntity
  8
0
  6
Continuous
100
AcDbPolyline
 90
        8
 70
   128
 43
0.0
 10
127.9688666320855
 20
130.945004181296
 10
121.5288348365773
 20
130.945004181296
 10
122.2206757014601
 20
132.9849023470787
 10
166.4372284569486
 20
132.9849023470787
 10
166.4372284569486
 20
154.7355107527283
 10
166.0970947732687
 20
155.5039955148852
 10
165.8312093393297
 20
154.7451839367494
 10
165.8312093393297
 20
153.0897487491511
  0
LWPOLYLINE
  5
146
330
E3
100
AcDbEntity
  8
0
  6
Continuous
100
AcDbPolyline
 90
        5
 70
   128
 43
0.0
 10
165.0199304631954
 20
132.2620694085411
 10
122.6450452390264
 20
132.2620694085411
 10
122.4005019950984
 20
131.5714944178956
 10
128.6817283617436
 20
131.5647329568141
 10
128.6817283617436
 20
127.0959023199349
  0
HATCH
  5
147
330
E3
100
AcDbEntity
  8
0
  6
Continuous
 62
   255
370
     0
100
AcDbHatch
 10
0.0
 20
0.0
 30
0.0
210
0.0
220
0.0
230
1.0
  2
SOLID
 70
     1
 71
     0
 91
        1
 92
        3
 72
     0
 73
     1
 93
        8
 10
148.5420026186231
 20
168.5444418697064
 10
170.6903456440661
 20
172.4497925871144
 10
172.0034239112341
 20
166.6813263966904
 10
173.3165021784022
 20
178.9128544981364
 10
174.6295753540475
 20
173.1443883077123
 10
196.7779234710133
 20
177.0497390251203
 10
196.7779234710133
 20
198.9052431179118
 10
148.5420026186231
 20
198.9052431179118
 97
        0
 75
     0
 76
     1
 98
        0
  0
LINE
  5
148
330
E3
100
AcDbEntity
  8
0
  6
Continuous
100
AcDbLine
 10
148.5420000851925
 20
168.5444428858624
 30
0.0
 11
170.6903456813351
 21
172.4497943441731
 31
0.0
  0
LINE
  5
149
330
E3
100
AcDbEntity
  8
0
  6
Continuous
100
AcDbLine
 10
174.629577548613
 20
173.1443881527978
 30
0.0
 11
196.7779231447557
 21
177.0497396111085
 31
0.0
  0
LINE
  5
14A
330
E3
100
AcDbEntity
  8
0
  6
Continuous
100
AcDbLine
 10
174.629577548613
 20
173.1443881527978
 30
0.0
 11
173.3164991779776
 21
178.9128571092435
 31
0.0
  0
LINE
  5
14B
330
E3
100
AcDbEntity
  8
0
  6
Continuous
100
AcDbLine
 10
173.3164991779776
 20
178.9128571092435
 30
0.0
 11
172.0034240519706
 21
166.6813253877274
 31
0.0
  0
LINE
  5
14C
330
E3
100
AcDbEntity
  8
0
  6
Continuous
100
AcDbLine
 10
172.0034240519706
 20
166.6813253877274
 30
0.0
 11
170.6903456813351
 21
172.4497943441731
 31
0.0
  0
LINE
  5
14D
330
E3
100
AcDbEntity
  8
Doc_ Floor
  6
Continuous
100
AcDbLine
 10
151.180243066973
 20
132.3969796618346
 30
0.0
 11
151.180243066973
 21
133.3749820207429
 31
0.0
  0
LINE
  5
14E
330
E3
100
AcDbEntity
  8
Doc_ Floor
  6
Continuous
100
AcDbLine
 10
151.180243066973
 20
133.3749820207429
 30
0.0
 11
151.180243066973
 21
139.0865272178588
 31
0.0
  0
LINE
  5
14F
330
E3
100
AcDbEntity
  8
Doc_ Floor
  6
Continuous
100
AcDbLine
 10
150.1802421280228
 20
133.9523311848521
 30
0.0
 11
152.1802407612949
 21
132.7976296120053
 31
0.0
  0
LINE
  5
150
330
E3
100
AcDbEntity
  8
Doc_ Floor
  6
Continuous
100
AcDbLine
 10
152.1802407612949
 20
138.5091748091213
 30
0.0
 11
150.1802421280228
 21
139.6638763819681
 31
0.0
  0
LINE
  5
151
330
E3
100
AcDbEntity
  8
Doc_ Floor
  6
Continuous
100
AcDbLine
 10
151.180243066973
 20
139.0865272178588
 30
0.0
 11
151.180243066973
 21
140.0645263321388
 31
0.0
  0
LINE
  5
152
330
E3
100
AcDbEntity
  8
Doc_ Floor
  6
Continuous
100
AcDbLine
 10
152.68024123077
 20
133.3749820207429
 30
0.0
 11
149.6802416585477
 21
133.3749820207429
 31
0.0
  0
LINE
  5
153
330
E3
100
AcDbEntity
  8
Doc_ Floor
  6
Continuous
100
AcDbLine
 10
152.68024123077
 20
139.0865272178588
 30
0.0
 11
149.6802416585477
 21
139.0865272178588
 31
0.0
  0
MTEXT
  5
155
330
E3
100
AcDbEntity
  8
Doc_ Floor
  6
Continuous
100
AcDbMText
 10
148.1016718934012
 20
133.5266122630472
 30
0.0
 40
2.5
 41
0.0
 71
     7
 72
     1
  1
{35 MIN.}
  7
GENERATED_STYLE_3
 11
6.123233995736766E-17
 21
1.0
 31
0.0
 73
     1
 44
1.0
  0
LINE
  5
156
330
E3
100
AcDbEntity
  8
Doc_ Floor
  6
Continuous
100
AcDbLine
 10
151.1553080982972
 20
138.1085248589506
 30
0.0
 11
151.1553080982972
 21
139.0865272178588
 31
0.0
  0
LINE
  5
157
330
E3
100
AcDbEntity
  8
Doc_ Floor
  6
Continuous
100
AcDbLine
 10
151.1553080982972
 20
139.0865272178588
 30
0.0
 11
151.1553080982972
 21
155.5039961213266
 31
0.0
  0
LINE
  5
158
330
E3
100
AcDbEntity
  8
Doc_ Floor
  6
Continuous
100
AcDbLine
 10
150.1553104039753
 20
139.6638763819681
 30
0.0
 11
152.1553090372473
 21
138.5091748091213
 31
0.0
  0
LINE
  5
159
330
E3
100
AcDbEntity
  8
Doc_ Floor
  6
Continuous
100
AcDbLine
 10
152.1553090372473
 20
154.9266469572174
 30
0.0
 11
150.1553104039753
 21
156.0813452854359
 31
0.0
  0
LINE
  5
15A
330
E3
100
AcDbEntity
  8
Doc_ Floor
  6
Continuous
100
AcDbLine
 10
151.1553080982972
 20
155.5039961213266
 30
0.0
 11
151.1553080982972
 21
156.4819952356066
 31
0.0
  0
LINE
  5
15B
330
E3
100
AcDbEntity
  8
Doc_ Floor
  6
Continuous
100
AcDbLine
 10
152.6553095067224
 20
139.0865272178588
 30
0.0
 11
149.6553099345002
 21
139.0865272178588
 31
0.0
  0
LINE
  5
15C
330
E3
100
AcDbEntity
  8
Doc_ Floor
  6
Continuous
100
AcDbLine
 10
152.6553095067224
 20
155.5039961213266
 30
0.0
 11
149.6553099345002
 21
155.5039961213266
 31
0.0
  0
MTEXT
  5
15D
330
E3
100
AcDbEntity
  8
Doc_ Floor
  6
Continuous
100
AcDbMText
 10
150.6553096188925
 20
146.1524030161023
 30
0.0
 40
2.5
 41
0.0
 71
     7
 72
     1
  1
{A}
  7
GENERATED_STYLE_3
 11
6.123233995736766E-17
 21
1.0
 31
0.0
 73
     1
 44
1.0
  0
LINE
  5
15E
330
E3
100
AcDbEntity
  8
Doc_ Floor
  6
Continuous
100
AcDbLine
 10
121.6670454215721
 20
135.5500640430478
 30
0.0
 11
122.645044535852
 21
135.5500640430478
 31
0.0
  0
LINE
  5
15F
330
E3
100
AcDbEntity
  8
Doc_ Floor
  6
Continuous
100
AcDbLine
 10
122.645044535852
 20
135.5500640430478
 30
0.0
 11
165.0199293928639
 21
135.5500640430478
 31
0.0
  0
LINE
  5
160
330
E3
100
AcDbEntity
  8
Doc_ Floor
  6
Continuous
100
AcDbLine
 10
123.2223936999612
 20
136.5500617373696
 30
0.0
 11
122.0676953717428
 21
134.5500631040976
 31
0.0
  0
LINE
  5
161
330
E3
100
AcDbEntity
  8
Doc_ Floor
  6
Continuous
100
AcDbLine
 10
164.4425802287547
 20
134.5500631040976
 30
0.0
 11
165.5972818016015
 21
136.5500617373696
 31
0.0
  0
LINE
  5
162
330
E3
100
AcDbEntity
  8
Doc_ Floor
  6
Continuous
100
AcDbLine
 10
165.0199293928639
 20
135.5500640430478
 30
0.0
 11
165.9979317517722
 21
135.5500640430478
 31
0.0
  0
LINE
  5
163
330
E3
100
AcDbEntity
  8
Doc_ Floor
  6
Continuous
100
AcDbLine
 10
122.645044535852
 20
134.0500626346225
 30
0.0
 11
122.645044535852
 21
137.0500622068447
 31
0.0
  0
LINE
  5
164
330
E3
100
AcDbEntity
  8
Doc_ Floor
  6
Continuous
100
AcDbLine
 10
165.0199293928639
 20
134.0500626346225
 30
0.0
 11
165.0199293928639
 21
137.0500622068447
 31
0.0
  0
MTEXT
  5
165
330
E3
100
AcDbEntity
  8
Doc_ Floor
  6
Continuous
100
AcDbMText
 10
137.8900803993517
 20
136.0500631350586
 30
0.0
 40
2.5
 41
0.0
 71
     7
 72
     1
  1
{B}
  7
GENERATED_STYLE_3
 73
     1
 44
1.0
  0
MTEXT
  5
166
330
E3
100
AcDbEntity
  8
Doc_ Floor
  6
Continuous
100
AcDbMText
 10
192.878978509635
 20
162.4126593264753
 30
0.0
 40
2.499999999999999
 41
0.0
 71
     4
 72
     1
  1
{HEM TO FLASHING EDGE}
  7
GENERATED_STYLE_1
 73
     1
 44
1.0
  0
LINE
  5
167
330
E3
100
AcDbEntity
  8
Doc_ Floor
  6
Continuous
100
AcDbLine
 10
166.3258079332467
 20
154.9872533696957
 30
0.0
 11
169.3496749914259
 21
157.3923341154301
 31
0.0
  0
LINE
  5
168
330
E3
100
AcDbEntity
  8
Doc_ Floor
  6
Continuous
100
AcDbLine
 10
166.3258079332467
 20
154.9872533696957
 30
0.0
 11
170.1470943162909
 21
155.5581814143503
 31
0.0
  0
LINE
  5
169
330
E3
100
AcDbEntity
  8
Doc_ Floor
  6
Continuous
100
AcDbLine
 10
169.3496749914259
 20
157.3923341154301
 30
0.0
 11
170.1470943162909
 21
155.5581814143503
 31
0.0
  0
LWPOLYLINE
  5
16A
330
E3
100
AcDbEntity
  8
Doc_ Floor
  6
Continuous
100
AcDbPolyline
 90
        8
 70
   128
 43
0.0
 10
169.7483844823582
 20
156.475257671774
 10
176.761344869911
 20
159.2752422127747
 10
179.7588974500141
 20
160.3070492830593
 10
182.4912180975297
 20
161.1149727959462
 10
185.0138466698536
 20
161.7151926834951
 10
187.3823230243818
 20
162.1238888777657
 10
189.6521870185103
 20
162.3572413108176
 10
191.8789785096349
 20
162.4314299147105
  0
MTEXT
  5
16B
330
E3
100
AcDbEntity
  8
Doc_ Floor
  6
Continuous
100
AcDbMText
 10
110.2044393979538
 20
170.8655649609201
 30
0.0
 40
2.5
 41
56.71228972547948
 71
     6
 72
     1
  1
{CLADDING ON CAVITY BATTENS WITH BUILDING WRAP OVER METAL HIDDEN GUTTER}
  7
GENERATED_STYLE_1
 73
     1
 44
1.065340909090909
  0
LINE
  5
16C
330
E3
100
AcDbEntity
  8
Doc_ Floor
  6
Continuous
100
AcDbLine
 10
157.0358497617087
 20
150.943651543095
 30
0.0
 11
153.4468690328329
 21
152.3745293896895
 31
0.0
  0
LINE
  5
16D
330
E3
100
AcDbEntity
  8
Doc_ Floor
  6
Continuous
100
AcDbLine
 10
157.0358497617087
 20
150.943651543095
 30
0.0
 11
154.6431375391483
 21
153.9773206234434
 31
0.0
  0
LINE
  5
16E
330
E3
100
AcDbEntity
  8
Doc_ Floor
  6
Continuous
100
AcDbLine
 10
153.4468690328329
 20
152.3745293896895
 30
0.0
 11
154.6431375391483
 21
153.9773206234434
 31
0.0
  0
LWPOLYLINE
  5
16F
330
E3
100
AcDbEntity
  8
Doc_ Floor
  6
Continuous
100
AcDbPolyline
 90
       15
 70
   128
 43
0.0
 10
154.0450034690336
 20
153.1759243893217
 10
147.6123693558259
 20
157.7334386206432
 10
141.7167589291798
 20
161.5215493634779
 10
138.9345331653421
 20
163.1426564909121
 10
136.2435980035747
 20
164.590106423264
 10
133.6296316706874
 20
165.8701303862132
 10
131.0783123934904
 20
166.9889596054397
 10
128.5753183987934
 20
167.9528253066231
 10
126.1063279134064
 20
168.7679587154432
 10
123.6570191641395
 20
169.4405910575798
 10
121.2130703778026
 20
169.9769535587127
 10
118.7601597812055
 20
170.3832774445216
 10
116.2839656011584
 20
170.6657939406864
 10
113.7701660644711
 20
170.8307342728867
 10
111.2044393979537
 20
170.8843296668024
  0
MTEXT
  5
170
330
E3
100
AcDbEntity
  8
Doc_ Floor
  6
Continuous
100
AcDbMText
 10
100.5528247465177
 20
133.3946435891323
 30
0.0
 40
2.5
 41
0.0
 71
     6
 72
     1
  1
{UNDERLAY}
  7
GENERATED_STYLE_1
 73
     1
 44
1.0
  0
LINE
  5
171
330
E3
100
AcDbEntity
  8
Doc_ Floor
  6
Continuous
100
AcDbLine
 10
114.4432049193082
 20
125.3073402317115
 30
0.0
 11
111.6819548331074
 21
128.0098755237474
 31
0.0
  0
LINE
  5
172
330
E3
100
AcDbEntity
  8
Doc_ Floor
  6
Continuous
100
AcDbLine
 10
114.4432049193082
 20
125.3073402317115
 30
0.0
 11
113.4031620222021
 21
129.0284292474586
 31
0.0
  0
LINE
  5
173
330
E3
100
AcDbEntity
  8
Doc_ Floor
  6
Continuous
100
AcDbLine
 10
111.6819548331074
 20
128.0098755237474
 30
0.0
 11
113.4031620222021
 21
129.0284292474586
 31
0.0
  0
LWPOLYLINE
  5
174
330
E3
100
AcDbEntity
  8
Doc_ Floor
  6
Continuous
100
AcDbPolyline
 90
        9
 70
   128
 43
0.0
 10
112.5425584204468
 20
128.5191512816196
 10
111.5389109047372
 20
129.7727824408877
 10
110.4679696220717
 20
130.8198950448797
 10
109.3105144282809
 20
131.6726229842243
 10
108.0473251791954
 20
132.3431001495507
 10
106.6591817306458
 20
132.8434604314874
 10
105.1268639384626
 20
133.1858377206636
 10
103.4311516584764
 20
133.3823659077082
 10
101.5528247465178
 20
133.4451788832499
  0
MTEXT
  5
175
330
E3
100
AcDbEntity
  8
Doc_ Floor
  6
Continuous
100
AcDbMText
 10
196.4204054808611
 20
101.6734988943001
 30
0.0
 40
2.499999999999999
 41
0.0
 71
     4
 72
     1
  1
{PURLIN}
  7
GENERATED_STYLE_1
 73
     1
 44
1.0
  0
LINE
  5
176
330
E3
100
AcDbEntity
  8
Doc_ Floor
  6
Continuous
100
AcDbLine
 10
161.7465861074216
 20
114.3519532766099
 30
0.0
 11
165.3083476492809
 21
112.8546092187826
 31
0.0
  0
LINE
  5
177
330
E3
100
AcDbEntity
  8
Doc_ Floor
  6
Continuous
100
AcDbLine
 10
161.7465861074216
 20
114.3519532766099
 30
0.0
 11
164.0824881326436
 21
111.2743324609743
 31
0.0
  0
LINE
  5
178
330
E3
100
AcDbEntity
  8
Doc_ Floor
  6
Continuous
100
AcDbLine
 10
165.3083476492809
 20
112.8546092187826
 30
0.0
 11
164.0824881326436
 21
111.2743324609743
 31
0.0
  0
LWPOLYLINE
  5
179
330
E3
100
AcDbEntity
  8
Doc_ Floor
  6
Continuous
100
AcDbPolyline
 90
        9
 70
   128
 43
0.0
 10
164.6954186516882
 20
112.064469962939
 10
168.4723499816776
 20
109.4096977639644
 10
172.1164728403631
 20
107.2007590129916
 10
175.703290323919
 20
105.409339518471
 10
179.3083055285199
 20
104.0071250888531
 10
183.00702155034
 20
102.9658015325883
 10
186.874941485554
 20
102.2570546581272
 10
190.9875684303362
 20
101.8525702739202
 10
195.420405480861
 20
101.7240341884178
  0
MTEXT
  5
17A
330
E3
100
AcDbEntity
  8
Doc_ Floor
  6
Continuous
100
AcDbMText
 10
100.3018175712533
 20
142.6796930450197
 30
0.0
 40
2.5
 41
0.0
 71
     6
 72
     1
  1
{5MM MAX. GAP}
  7
GENERATED_STYLE_1
 73
     1
 44
1.0
  0
LINE
  5
17B
330
E3
100
AcDbEntity
  8
Doc_ Floor
  6
Continuous
100
AcDbLine
 10
127.7605320419381
 20
126.8541064681817
 30
0.0
 11
124.3037244925001
 21
128.5799891666924
 31
0.0
  0
LINE
  5
17C
330
E3
100
AcDbEntity
  8
Doc_ Floor
  6
Continuous
100
AcDbLine
 10
127.7605320419381
 20
126.8541064681817
 30
0.0
 11
125.6297911103195
 21
130.0771677484751
 31
0.0
  0
LINE
  5
17D
330
E3
100
AcDbEntity
  8
Doc_ Floor
  6
Continuous
100
AcDbLine
 10
124.3037244925001
 20
128.5799891666924
 30
0.0
 11
125.6297911103195
 21
130.0771677484751
 31
0.0
  0
LWPOLYLINE
  5
17E
330
E3
100
AcDbEntity
  8
Doc_ Floor
  6
Continuous
100
AcDbPolyline
 90
        9
 70
   128
 43
0.0
 10
124.9667572021603
 20
129.3285788510556
 10
120.9235744050127
 20
132.7642132796186
 10
117.3139434280667
 20
135.6217579974907
 10
114.0760976959764
 20
137.9382008841905
 10
111.1482706333958
 20
139.7505298192366
 10
108.4686956649791
 20
141.0957326821475
 10
105.9756062153804
 20
142.0107973524418
 10
103.6072357092537
 20
142.5327117096381
 10
101.3018175712532
 20
142.698463633255
  0
MTEXT
  5
17F
330
E3
100
AcDbEntity
  8
Doc_ Floor
  6
Continuous
100
AcDbMText
 10
100.5528247465177
 20
150.5702749515494
 30
0.0
 40
2.500000000000001
 41
0.0
 71
     6
 72
     1
  1
{FIXING THROUGH RIB}
  7
GENERATED_STYLE_1
 73
     1
 44
1.0
  0
LINE
  5
180
330
E3
100
AcDbEntity
  8
Doc_ Floor
  6
Continuous
100
AcDbLine
 10
130.4906174730795
 20
132.6594408916534
 30
0.0
 11
127.0298352539436
 21
134.3773418044852
 31
0.0
  0
LINE
  5
181
330
E3
100
AcDbEntity
  8
Doc_ Floor
  6
Continuous
100
AcDbLine
 10
130.4906174730795
 20
132.6594408916534
 30
0.0
 11
128.3524430979689
 21
135.8775768261499
 31
0.0
  0
LINE
  5
182
330
E3
100
AcDbEntity
  8
Doc_ Floor
  6
Continuous
100
AcDbLine
 10
127.0298352539436
 20
134.3773418044852
 30
0.0
 11
128.3524430979689
 21
135.8775768261499
 31
0.0
  0
LWPOLYLINE
  5
183
330
E3
100
AcDbEntity
  8
Doc_ Floor
  6
Continuous
100
AcDbPolyline
 90
        9
 70
   128
 43
0.0
 10
127.6911398862237
 20
135.1274589714135
 10
123.0242786417064
 20
139.1031911510903
 10
118.8963951266323
 20
142.4090141888609
 10
115.2379393122876
 20
145.0880206758741
 10
111.9793611699584
 20
147.1833032032786
 10
109.0511106709307
 20
148.7379543622231
 10
106.3836377864907
 20
149.7950667438565
 10
103.9073924879243
 20
150.3977329393274
 10
101.5528247465178
 20
150.5890455397847
  0
MTEXT
  5
184
330
E3
100
AcDbEntity
  8
0
  6
Continuous
100
AcDbMText
 10
80.59528482672773
 20
44.09353246607213
 30
0.0
 40
2.499999999999999
 41
69.01187578516166
 71
     7
 72
     1
  1
\A1;{\fCentury Gothic|b0|i0|c0|p34;LOW, MEDIUM OR HIGH WIND ZONE.\P ROOF PITCH \fArial|b0|i0|c0|p34;\H1.029412x;\U+2265\fCentury Gothic|b0|i0|c0|p34;\H0.971429x; 10\fArial|b0|i0|c0|p34;\H1.029412x;\U+00B0}
  7
GENERATED_STYLE_1
 73
     1
 44
1.056355725756043
  0
MTEXT
  5
185
330
E3
100
AcDbEntity
  8
0
  6
Continuous
100
AcDbMText
 10
80.59528482672773
 20
33.67068453509616
 30
0.0
 40
2.5
 41
69.01187578516166
 71
     7
 72
     1
  1
\A1;{\fCentury Gothic|b0|i0|c0|p34;VERY HIGH WIND ZONE.\P ROOF PITCH \fArial|b0|i0|c0|p34;\H1.029412x;<\fCentury Gothic|b0|i0|c0|p34;\H0.971429x; 10\fArial|b0|i0|c0|p34;\H1.029412x;\U+00B0}
  7
GENERATED_STYLE_1
 73
     1
 44
1.056355725756043
  0
MTEXT
  5
186
330
E3
100
AcDbEntity
  8
0
  6
Continuous
100
AcDbMText
 10
165.0946188833159
 20
46.13336019751756
 30
0.0
 40
2.499999999999999
 41
0.0
 71
     8
 72
     1
  1
{75MM}
  7
GENERATED_STYLE_1
 73
     1
 44
1.0
  0
MTEXT
  5
187
330
E3
100
AcDbEntity
  8
0
  6
Continuous
100
AcDbMText
 10
165.0946188833159
 20
34.89458067605982
 30
0.0
 40
2.499999999999999
 41
0.0
 71
     8
 72
     1
  1
{100MM}
  7
GENERATED_STYLE_1
 73
     1
 44
1.0
  0
MTEXT
  5
188
330
E3
100
AcDbEntity
  8
0
  6
Continuous
100
AcDbMText
 10
165.0946188833159
 20
56.01542426293395
 30
0.0
 40
2.499999999999999
 41
0.0
 71
     8
 72
     1
  1
{A}
  7
GENERATED_STYLE_1
 73
     1
 44
1.0
  0
MTEXT
  5
189
330
E3
100
AcDbEntity
  8
0
  6
Continuous
100
AcDbMText
 10
189.0646357201038
 20
46.13334921009891
 30
0.0
 40
2.5
 41
0.0
 71
     8
 72
     1
  1
{130MM}
  7
GENERATED_STYLE_1
 73
     1
 44
1.0
  0
MTEXT
  5
18A
330
E3
100
AcDbEntity
  8
0
  6
Continuous
100
AcDbMText
 10
189.0646357201038
 20
34.89456968864118
 30
0.0
 40
2.499999999999999
 41
0.0
 71
     8
 72
     1
  1
{200MM}
  7
GENERATED_STYLE_1
 73
     1
 44
1.0
  0
MTEXT
  5
18B
330
E3
100
AcDbEntity
  8
0
  6
Continuous
100
AcDbMText
 10
189.0646357201038
 20
56.015424262934
 30
0.0
 40
2.499999999999999
 41
0.0
 71
     8
 72
     1
  1
{B}
  7
GENERATED_STYLE_1
 73
     1
 44
1.0
  0
LINE
  5
18C
330
E3
100
AcDbEntity
  8
0
  6
Continuous
100
AcDbLine
 10
131.1306204101401
 20
132.6594408916534
 30
0.0
 11
129.8506177806474
 21
132.6594408916534
 31
0.0
  0
LINE
  5
18D
330
E3
100
AcDbEntity
  8
0
  6
Continuous
100
AcDbLine
 10
130.4906174730795
 20
132.6594408916534
 30
0.0
 11
130.4906174730795
 21
130.2594412338756
 31
0.0
  0
LINE
  5
18E
330
E3
100
AcDbEntity
  8
0
  6
Continuous
100
AcDbLine
 10
164.8489374801487
 20
132.6594408916534
 30
0.0
 11
163.5689348506559
 21
132.6594408916534
 31
0.0
  0
LINE
  5
18F
330
E3
100
AcDbEntity
  8
0
  6
Continuous
100
AcDbLine
 10
164.2089377877165
 20
132.6594408916534
 30
0.0
 11
164.2089377877165
 21
130.2594412338756
 31
0.0
  0
MTEXT
  5
190
330
E3
100
AcDbEntity
  8
Doc_ Floor
  6
Continuous
100
AcDbMText
 10
109.0617621256458
 20
80.02827394823937
 30
0.0
 40
2.499999999999999
 41
0.0
 71
     6
 72
     1
  1
{ROOF FRAME}
  7
GENERATED_STYLE_1
 73
     1
 44
1.0
  0
LINE
  5
191
330
E3
100
AcDbEntity
  8
Doc_ Floor
  6
Continuous
100
AcDbLine
 10
129.6189772752855
 20
105.6595388358745
 30
0.0
 11
129.2825742105735
 21
101.8105108806536
 31
0.0
  0
LINE
  5
192
330
E3
100
AcDbEntity
  8
Doc_ Floor
  6
Continuous
100
AcDbLine
 10
129.6189772752855
 20
105.6595388358745
 30
0.0
 11
127.4031264980799
 21
102.4943844372932
 31
0.0
  0
LINE
  5
193
330
E3
100
AcDbEntity
  8
Doc_ Floor
  6
Continuous
100
AcDbLine
 10
129.2825742105735
 20
101.8105108806536
 30
0.0
 11
127.4031264980799
 21
102.4943844372932
 31
0.0
  0
LWPOLYLINE
  5
194
330
E3
100
AcDbEntity
  8
Doc_ Floor
  6
Continuous
100
AcDbPolyline
 90
       15
 70
   128
 43
0.0
 10
128.3428502201417
 20
102.1524470380339
 10
126.0877698862937
 20
96.46820656854938
 10
123.918216553828
 20
91.74181004382471
 10
122.8508071478098
 20
89.71854483887815
 10
121.7871330537728
 20
87.91163051387852
 10
120.7213121255955
 20
86.31336370007814
 10
119.6474622171564
 20
84.91604102872935
 10
118.5597011823341
 20
83.71195913108446
 10
117.4521468750072
 20
82.6934146383958
 10
116.3189171490541
 20
81.85270418191567
 10
115.1541298583535
 20
81.18212439289643
 10
113.9519028567838
 20
80.6739719025904
 10
112.7063539982236
 20
80.32054334224986
 10
111.4116011365515
 20
80.11413534312719
 10
110.0617621256459
 20
80.04704453647466
  0
HATCH
  5
195
330
E3
100
AcDbEntity
  8
0
  6
Continuous
 62
   255
370
     0
100
AcDbHatch
 10
0.0
 20
0.0
 30
0.0
210
0.0
220
0.0
230
1.0
  2
SOLID
 70
     1
 71
     0
 91
        1
 92
        3
 72
     0
 73
     1
 93
        8
 10
28.46927244075527
 20
132.0465291382426
 10
28.46927244075527
 20
87.01523621498845
 10
114.0931838383449
 20
87.01523621498845
 10
110.4703649503075
 20
107.5612675135673
 10
104.2388327018292
 20
108.874347124275
 10
116.0073035560188
 20
110.1874224819694
 10
109.7757713075404
 20
111.5004978396638
 10
106.152952419503
 20
132.0465291382426
 97
        0
 75
     0
 76
     1
 98
        0
  0
LINE
  5
196
330
E3
100
AcDbEntity
  8
0
  6
Continuous
100
AcDbLine
 10
106.1529524255429
 20
132.0465306011047
 30
0.0
 11
109.7757713832177
 21
111.5004992783522
 31
0.0
  0
LINE
  5
197
330
E3
100
AcDbEntity
  8
0
  6
Continuous
100
AcDbLine
 10
110.4703651918424
 20
107.5612674110744
 30
0.0
 11
114.0931841495172
 21
87.01523608832184
 31
0.0
  0
LINE
  5
198
330
E3
100
AcDbEntity
  8
0
  6
Continuous
100
AcDbLine
 10
110.4703651918424
 20
107.5612674110744
 30
0.0
 11
104.2388326147708
 21
108.8743457817097
 31
0.0
  0
LINE
  5
199
330
E3
100
AcDbEntity
  8
0
  6
Continuous
100
AcDbLine
 10
104.2388326147708
 20
108.8743457817097
 30
0.0
 11
116.0073039602893
 21
110.1874241523451
 31
0.0
  0
LINE
  5
19A
330
E3
100
AcDbEntity
  8
0
  6
Continuous
100
AcDbLine
 10
116.0073039602893
 20
110.1874241523451
 30
0.0
 11
109.7757713832177
 21
111.5004992783522
 31
0.0
  0
MTEXT
  5
19B
102
{ACAD_XDICTIONARY
360
1D4
102
}
330
E3
100
AcDbEntity
  8
Doc_ Floor
  6
Continuous
100
AcDbMText
 10
98.0461007699538
 20
118.4287945483293
 30
0.0
 40
2.5
 41
65.71313433727744
 71
     6
 72
     1
  1
{TRS SEAM\PMIN. ROOF PITCH 5° FOR ANGLE SEAM\PMIN. ROOF PITCH 3° FOR DOUBLE\PSTANDING SEAM}
  7
GENERATED_STYLE_1
 73
     1
 44
1.06374321355081
  0
LINE
  5
19C
330
E3
100
AcDbEntity
  8
Doc_ Floor
  6
Continuous
100
AcDbLine
 10
120.2325141234839
 20
126.4308057676758
 30
0.0
 11
119.2166891321938
 21
122.7030328175797
 31
0.0
  0
LINE
  5
19D
330
E3
100
AcDbEntity
  8
Doc_ Floor
  6
Continuous
100
AcDbLine
 10
120.2325141234839
 20
126.4308057676758
 30
0.0
 11
117.4888985922282
 21
123.7103731058006
 31
0.0
  0
LINE
  5
19E
330
E3
100
AcDbEntity
  8
Doc_ Floor
  6
Continuous
100
AcDbLine
 10
119.2166891321938
 20
122.7030328175797
 30
0.0
 11
117.4888985922282
 21
123.7103731058006
 31
0.0
  0
LWPOLYLINE
  5
19F
330
E3
100
AcDbEntity
  8
Doc_ Floor
  6
Continuous
100
AcDbPolyline
 90
        9
 70
   128
 43
0.0
 10
118.3527932729052
 20
123.2067031751223
 10
117.1012062894364
 20
121.9960765882427
 10
115.5795726700874
 20
120.9846930998446
 10
113.7569515071696
 20
120.1608939434186
 10
111.6024018929946
 20
119.5130203524551
 10
109.084982919874
 20
119.0294135604446
 10
106.1737536801193
 20
118.6984148008774
 10
102.837773266042
 20
118.5083653072442
 10
99.04610076995368
 20
118.4476063130352
  0
ENDBLK
  5
E5
330
E3
100
AcDbEntity
  8
0
100
AcDbBlockEnd
  0
BLOCK
  5
1A5
330
1A4
100
AcDbEntity
  8
0
100
AcDbBlockBegin
  2
R-TRSS-09 APRON DETAIL - SIDE_STORY_MARKER
 70
     0
 10
0.0
 20
0.0
 30
0.0
  3
R-TRSS-09 APRON DETAIL - SIDE_STORY_MARKER
  1

  0
ENDBLK
  5
1A6
330
1A4
100
AcDbEntity
  8
0
100
AcDbBlockEnd
  0
ENDSEC
  0
SECTION
  2
ENTITIES
  0
HATCH
  5
3F
330
1F
100
AcDbEntity
  8
Doc_ Finishes
  6
Continuous
100
AcDbHatch
 10
0.0
 20
0.0
 30
0.0
210
0.0
220
0.0
230
1.0
  2
SOLID
 70
     1
 71
     0
 91
        1
 92
        3
 72
     0
 73
     1
 93
       54
 10
27.4117749414874
 20
16.87044408857867
 10
26.89356552397386
 20
16.5825499677378
 10
26.5480925789648
 20
16.29465584689693
 10
26.12584786839819
 20
16.02595466744544
 10
25.76118198199976
 20
15.60370995687884
 10
25.39651609560134
 20
15.33500877742737
 10
25.07023609198168
 20
14.89357112547136
 10
24.49444785029994
 20
14.45213347351537
 10
23.93785255000758
 20
14.02988876294876
 10
23.43883607388344
 20
13.81876640766546
 10
22.74789018386533
 20
13.39652169709885
 10
22.09533017662603
 20
12.99346992792163
 10
21.63469958328064
 20
12.55203227596564
 10
20.90536781048376
 20
12.12978756539902
 10
20.59828074825351
 20
11.7459287376112
 10
20.04168544796116
 20
11.28529814426581
 10
19.36993249933246
 20
10.8630534336992
 10
18.73656543348255
 20
10.42161578174319
 10
18.04561954346447
 20
10.15291460229172
 10
17.1051654153843
 20
9.692284008946325
 10
16.39502658397681
 20
9.020531060317637
 10
15.83843128368446
 20
8.598286349751023
 10
15.12829245227699
 20
8.137655756405634
 10
14.84039833143612
 20
7.98411222529051
 10
14.37976773809073
 20
7.81137575278599
 10
14.07268067586046
 20
7.523481631945121
 10
14.0151018516923
 20
7.216394569714853
 10
14.14945244141803
 20
6.890114566095209
 10
14.4373465622589
 20
6.563834562475543
 10
14.8787842142149
 20
6.659799269422514
 10
15.51215128006482
 20
7.06285103859973
 10
16.01116775618899
 20
7.389131042219374
 10
16.33744775980864
 20
7.696218104449641
 10
16.51018423231316
 20
7.907340459732938
 10
17.01303929671522
 20
8.421711288968723
 10
17.33548071205699
 20
8.652026585641417
 10
17.75004824606785
 20
8.99749953065046
 10
18.14158425041142
 20
9.204783297655894
 10
19.24709767444037
 20
9.75754000967037
 10
20.23745345013295
 20
10.47151742935572
 10
21.4120614631637
 20
11.1624633193738
 10
21.84966052684182
 20
11.64612544238645
 10
22.49454335752537
 20
12.06069297639732
 10
23.78430901889248
 20
12.9819541630881
 10
24.3600972605742
 20
13.25833251909534
 10
25.6498629219413
 20
14.24868829478776
 10
25.85714668894673
 20
14.64022429913134
 10
26.68628175696843
 20
15.23904407048036
 10
27.28510152831745
 20
15.72270619349301
 10
27.81482671066464
 20
16.1142421978366
 10
28.27545730401003
 20
16.52880973184745
 10
28.22939424467549
 20
16.7821565581874
 10
28.09120506667188
 20
16.89731420652375
 10
27.56147988432467
 20
16.89731420652375
 97
        0
 75
     0
 76
     1
 98
        0
  0
LINE
  5
41
330
1F
100
AcDbEntity
  8
Doc_ Finishes
  6
Continuous
100
AcDbLine
 10
27.41177566876475
 20
16.87044600708104
 30
0.0
 11
26.89356756490952
 21
16.58254868214004
 31
0.0
  0
LINE
  5
42
330
1F
100
AcDbEntity
  8
Doc_ Finishes
  6
Continuous
100
AcDbLine
 10
26.89356756490952
 20
16.58254868214004
 30
0.0
 11
26.54809254523997
 21
16.29465578284815
 31
0.0
  0
LINE
  5
43
330
1F
100
AcDbEntity
  8
Doc_ Finishes
  6
Continuous
100
AcDbLine
 10
26.54809254523997
 20
16.29465578284815
 30
0.0
 11
26.12584579071597
 21
16.02595249803305
 31
0.0
  0
LINE
  5
44
330
1F
100
AcDbEntity
  8
Doc_ Finishes
  6
Continuous
100
AcDbLine
 10
26.12584579071597
 20
16.02595249803305
 30
0.0
 11
25.76118115656963
 21
15.60371016915814
 31
0.0
  0
LINE
  5
45
330
1F
100
AcDbEntity
  8
Doc_ Finishes
  6
Continuous
100
AcDbLine
 10
25.76118115656963
 20
15.60371016915814
 30
0.0
 11
25.39651652242329
 21
15.33500688434304
 31
0.0
  0
LINE
  5
46
330
1F
100
AcDbEntity
  8
Doc_ Finishes
  6
Continuous
100
AcDbLine
 10
25.39651652242329
 20
15.33500688434304
 30
0.0
 11
25.07023554287962
 21
14.89357051534225
 31
0.0
  0
LINE
  5
47
330
1F
100
AcDbEntity
  8
Doc_ Finishes
  6
Continuous
100
AcDbLine
 10
25.07023554287962
 20
14.89357051534225
 30
0.0
 11
24.49444974429583
 21
14.45213414634146
 31
0.0
  0
LINE
  5
48
330
1F
100
AcDbEntity
  8
Doc_ Finishes
  6
Continuous
100
AcDbLine
 10
24.49444974429583
 20
14.45213414634146
 30
0.0
 11
23.93785356018882
 21
14.02988739181747
 31
0.0
  0
LINE
  5
49
330
1F
100
AcDbEntity
  8
Doc_ Finishes
  6
Continuous
100
AcDbLine
 10
23.93785356018882
 20
14.02988739181747
 30
0.0
 11
23.43883507081038
 21
13.81876622738001
 31
0.0
  0
LINE
  5
4A
330
1F
100
AcDbEntity
  8
Doc_ Finishes
  6
Continuous
100
AcDbLine
 10
23.43883507081038
 20
13.81876622738001
 30
0.0
 11
22.74788945712038
 21
13.39652389850511
 31
0.0
  0
LINE
  5
4B
330
1F
100
AcDbEntity
  8
Doc_ Finishes
  6
Continuous
100
AcDbLine
 10
22.74788945712038
 20
13.39652389850511
 30
0.0
 11
22.09533192368214
 21
12.993471184107
 31
0.0
  0
LINE
  5
4C
330
1F
100
AcDbEntity
  8
Doc_ Finishes
  6
Continuous
100
AcDbLine
 10
22.09533192368214
 20
12.993471184107
 30
0.0
 11
21.63470151455547
 21
12.55203038945712
 31
0.0
  0
LINE
  5
4D
330
1F
100
AcDbEntity
  8
Doc_ Finishes
  6
Continuous
100
AcDbLine
 10
21.63470151455547
 20
12.55203038945712
 30
0.0
 11
20.90536782061369
 21
12.12978806058222
 31
0.0
  0
LINE
  5
4E
330
1F
100
AcDbEntity
  8
Doc_ Finishes
  6
Continuous
100
AcDbLine
 10
20.90536782061369
 20
12.12978806058222
 30
0.0
 11
20.59828088119591
 21
11.74592938630999
 31
0.0
  0
LINE
  5
4F
330
1F
100
AcDbEntity
  8
Doc_ Finishes
  6
Continuous
100
AcDbLine
 10
20.59828088119591
 20
11.74592938630999
 30
0.0
 11
20.0416846970889
 21
11.28529897718332
 31
0.0
  0
LINE
  5
50
330
1F
100
AcDbEntity
  8
Doc_ Finishes
  6
Continuous
100
AcDbLine
 10
20.0416846970889
 20
11.28529897718332
 30
0.0
 11
19.36993312352478
 21
10.86305222265932
 31
0.0
  0
LINE
  5
51
330
1F
100
AcDbEntity
  8
Doc_ Finishes
  6
Continuous
100
AcDbLine
 10
19.36993312352478
 20
10.86305222265932
 30
0.0
 11
18.73656520456333
 21
10.42161585365854
 31
0.0
  0
LINE
  5
52
330
1F
100
AcDbEntity
  8
Doc_ Finishes
  6
Continuous
100
AcDbLine
 10
18.73656520456333
 20
10.42161585365854
 30
0.0
 11
18.04561959087333
 21
10.15291256884343
 31
0.0
  0
LINE
  5
53
330
1F
100
AcDbEntity
  8
Doc_ Finishes
  6
Continuous
100
AcDbLine
 10
18.04561959087333
 20
10.15291256884343
 30
0.0
 11
17.1051647324941
 21
9.692282159716758
 31
0.0
  0
LINE
  5
54
330
1F
100
AcDbEntity
  8
Doc_ Finishes
  6
Continuous
100
AcDbLine
 10
17.1051647324941
 20
9.692282159716758
 30
0.0
 11
16.3950250786782
 21
9.020530586152635
 31
0.0
  0
LINE
  5
55
330
1F
100
AcDbEntity
  8
Doc_ Finishes
  6
Continuous
100
AcDbLine
 10
16.3950250786782
 20
9.020530586152635
 30
0.0
 11
15.8384333202203
 21
8.598288257277733
 31
0.0
  0
LINE
  5
56
330
1F
100
AcDbEntity
  8
Doc_ Finishes
  6
Continuous
100
AcDbLine
 10
15.8384333202203
 20
8.598288257277733
 30
0.0
 11
15.1282936664044
 21
8.137657848151063
 31
0.0
  0
LINE
  5
57
330
1F
100
AcDbEntity
  8
Doc_ Finishes
  6
Continuous
100
AcDbLine
 10
15.1282936664044
 20
8.137657848151063
 30
0.0
 11
14.84039634146341
 21
7.984114378442171
 31
0.0
  0
LINE
  5
58
330
1F
100
AcDbEntity
  8
Doc_ Finishes
  6
Continuous
100
AcDbLine
 10
14.84039634146341
 20
7.984114378442171
 30
0.0
 11
14.37976593233674
 21
7.811376868607396
 31
0.0
  0
LINE
  5
59
330
1F
100
AcDbEntity
  8
Doc_ Finishes
  6
Continuous
100
AcDbLine
 10
14.37976593233674
 20
7.811376868607396
 30
0.0
 11
14.07267899291896
 21
7.523479543666405
 31
0.0
  0
LINE
  5
5A
330
1F
100
AcDbEntity
  8
Doc_ Finishes
  6
Continuous
100
AcDbLine
 10
14.07267899291896
 20
7.523479543666405
 30
0.0
 11
14.0151012981904
 21
7.216392604248622
 31
0.0
  0
LINE
  5
5B
330
1F
100
AcDbEntity
  8
Doc_ Finishes
  6
Continuous
100
AcDbLine
 10
14.0151012981904
 20
7.216392604248622
 30
0.0
 11
14.14945072777341
 21
6.890116050354051
 31
0.0
  0
LINE
  5
5C
330
1F
100
AcDbEntity
  8
Doc_ Finishes
  6
Continuous
100
AcDbLine
 10
14.14945072777341
 20
6.890116050354051
 30
0.0
 11
14.4373480527144
 21
6.563835070810386
 31
0.0
  0
LINE
  5
5D
330
1F
100
AcDbEntity
  8
Doc_ Finishes
  6
Continuous
100
AcDbLine
 10
14.4373480527144
 20
6.563835070810386
 30
0.0
 11
14.87878442171519
 21
6.659800845790715
 31
0.0
  0
LINE
  5
5E
330
1F
100
AcDbEntity
  8
Doc_ Finishes
  6
Continuous
100
AcDbLine
 10
14.87878442171519
 20
6.659800845790715
 30
0.0
 11
15.51215234067663
 21
7.062849134539732
 31
0.0
  0
LINE
  5
5F
330
1F
100
AcDbEntity
  8
Doc_ Finishes
  6
Continuous
100
AcDbLine
 10
15.51215234067663
 20
7.062849134539732
 30
0.0
 11
16.01116640440598
 21
7.389130114083398
 31
0.0
  0
LINE
  5
60
330
1F
100
AcDbEntity
  8
Doc_ Finishes
  6
Continuous
100
AcDbLine
 10
16.01116640440598
 20
7.389130114083398
 30
0.0
 11
16.33744738394964
 21
7.69621705350118
 31
0.0
  0
LINE
  5
61
330
1F
100
AcDbEntity
  8
Doc_ Finishes
  6
Continuous
100
AcDbLine
 10
16.33744738394964
 20
7.69621705350118
 30
0.0
 11
16.51018489378442
 21
7.907342643587726
 31
0.0
  0
LINE
  5
62
330
1F
100
AcDbEntity
  8
Doc_ Finishes
  6
Continuous
100
AcDbLine
 10
16.51018489378442
 20
7.907342643587726
 30
0.0
 11
17.0130404209284
 21
8.421709284028323
 31
0.0
  0
LINE
  5
63
330
1F
100
AcDbEntity
  8
Doc_ Finishes
  6
Continuous
100
AcDbLine
 10
17.0130404209284
 20
8.421709284028323
 30
0.0
 11
17.33547993705743
 21
8.65202448859166
 31
0.0
  0
LINE
  5
64
330
1F
100
AcDbEntity
  8
Doc_ Finishes
  6
Continuous
100
AcDbLine
 10
17.33547993705743
 20
8.65202448859166
 30
0.0
 11
17.75004819040126
 21
8.997499508261212
 31
0.0
  0
LINE
  5
65
330
1F
100
AcDbEntity
  8
Doc_ Finishes
  6
Continuous
100
AcDbLine
 10
17.75004819040126
 20
8.997499508261212
 30
0.0
 11
18.14158536585366
 21
9.204783634933122
 31
0.0
  0
LINE
  5
66
330
1F
100
AcDbEntity
  8
Doc_ Finishes
  6
Continuous
100
AcDbLine
 10
18.14158536585366
 20
9.204783634933122
 30
0.0
 11
19.24709923288749
 21
9.75753835562549
 31
0.0
  0
LINE
  5
67
330
1F
100
AcDbEntity
  8
Doc_ Finishes
  6
Continuous
100
AcDbLine
 10
19.24709923288749
 20
9.75753835562549
 30
0.0
 11
20.23745328481511
 21
10.47151947285602
 31
0.0
  0
LINE
  5
68
330
1F
100
AcDbEntity
  8
Doc_ Finishes
  6
Continuous
100
AcDbLine
 10
20.23745328481511
 20
10.47151947285602
 30
0.0
 11
21.41206038552321
 21
11.16246508654602
 31
0.0
  0
LINE
  5
69
330
1F
100
AcDbEntity
  8
Doc_ Finishes
  6
Continuous
100
AcDbLine
 10
21.41206038552321
 20
11.16246508654602
 30
0.0
 11
21.84965971675846
 21
11.64612657356412
 31
0.0
  0
LINE
  5
6A
330
1F
100
AcDbEntity
  8
Doc_ Finishes
  6
Continuous
100
AcDbLine
 10
21.84965971675846
 20
11.64612657356412
 30
0.0
 11
22.49454317466562
 21
12.06069482690795
 31
0.0
  0
LINE
  5
6B
330
1F
100
AcDbEntity
  8
Doc_ Finishes
  6
Continuous
100
AcDbLine
 10
22.49454317466562
 20
12.06069482690795
 30
0.0
 11
23.78431009047993
 21
12.98195564516129
 31
0.0
  0
LINE
  5
6C
330
1F
100
AcDbEntity
  8
Doc_ Finishes
  6
Continuous
100
AcDbLine
 10
23.78431009047993
 20
12.98195564516129
 30
0.0
 11
24.36009588906373
 21
13.25833300550747
 31
0.0
  0
LINE
  5
6D
330
1F
100
AcDbEntity
  8
Doc_ Finishes
  6
Continuous
100
AcDbLine
 10
24.36009588906373
 20
13.25833300550747
 30
0.0
 11
25.64986280487805
 21
14.24868705743509
 31
0.0
  0
LINE
  5
6E
330
1F
100
AcDbEntity
  8
Doc_ Finishes
  6
Continuous
100
AcDbLine
 10
25.64986280487805
 20
14.24868705743509
 30
0.0
 11
25.85714693154996
 21
14.64022423288749
 31
0.0
  0
LINE
  5
6F
330
1F
100
AcDbEntity
  8
Doc_ Finishes
  6
Continuous
100
AcDbLine
 10
25.85714693154996
 20
14.64022423288749
 30
0.0
 11
26.68628343823761
 21
15.2390455350118
 31
0.0
  0
LINE
  5
70
330
1F
100
AcDbEntity
  8
Doc_ Finishes
  6
Continuous
100
AcDbLine
 10
26.68628343823761
 20
15.2390455350118
 30
0.0
 11
27.28510031471282
 21
15.7227070220299
 31
0.0
  0
LINE
  5
71
330
1F
100
AcDbEntity
  8
Doc_ Finishes
  6
Continuous
100
AcDbLine
 10
27.28510031471282
 20
15.7227070220299
 30
0.0
 11
27.81482838316287
 21
16.1142441974823
 31
0.0
  0
LINE
  5
72
330
1F
100
AcDbEntity
  8
Doc_ Finishes
  6
Continuous
100
AcDbLine
 10
27.81482838316287
 20
16.1142441974823
 30
0.0
 11
28.27545879228953
 21
16.52880802517702
 31
0.0
  0
LINE
  5
73
330
1F
100
AcDbEntity
  8
Doc_ Finishes
  6
Continuous
100
AcDbLine
 10
28.27545879228953
 20
16.52880802517702
 30
0.0
 11
28.22939221085759
 21
16.78215873328088
 31
0.0
  0
LINE
  5
74
330
1F
100
AcDbEntity
  8
Doc_ Finishes
  6
Continuous
100
AcDbLine
 10
28.22939221085759
 20
16.78215873328088
 30
0.0
 11
28.09120574350905
 21
16.897314122738
 31
0.0
  0
LINE
  5
75
330
1F
100
AcDbEntity
  8
Doc_ Finishes
  6
Continuous
100
AcDbLine
 10
28.09120574350905
 20
16.897314122738
 30
0.0
 11
27.56147767505901
 21
16.897314122738
 31
0.0
  0
LINE
  5
76
330
1F
100
AcDbEntity
  8
Doc_ Finishes
  6
Continuous
100
AcDbLine
 10
27.56147767505901
 20
16.897314122738
 30
0.0
 11
27.41177566876475
 21
16.87044600708104
 31
0.0
  0
HATCH
  5
77
330
1F
100
AcDbEntity
  8
Doc_ Finishes
  6
Continuous
100
AcDbHatch
 10
0.0
 20
0.0
 30
0.0
210
0.0
220
0.0
230
1.0
  2
SOLID
 70
     1
 71
     0
 91
        1
 92
        3
 72
     0
 73
     1
 93
       39
 10
27.65360600299377
 20
13.12014334109181
 10
27.21600693931564
 20
12.77467039608275
 10
26.54809257896482
 20
12.24494521373555
 10
25.92624127794851
 20
11.85340920939199
 10
25.32742150659951
 20
11.32368402704478
 10
24.72860173525052
 20
11.04730567103754
 10
24.08371890456698
 20
10.56364354802488
 10
23.62308831122158
 20
10.33332825135219
 10
23.231552306878
 20
10.03391836567767
 10
22.81698477286715
 20
9.619350831666825
 10
22.40241723885631
 20
9.38903553499415
 10
21.91875511584363
 20
9.043562589985086
 10
21.66540828950367
 20
8.859310352646935
 10
21.25084075549282
 20
8.582931996639696
 10
20.09926427212933
 20
7.753796928618002
 10
19.75379132712029
 20
7.477418572610764
 10
19.2931607337749
 20
7.316197864939873
 10
19.22406614477309
 20
6.993756449598113
 10
19.3622553227767
 20
6.717378093590874
 10
19.63863367878394
 20
6.602220445254527
 10
20.00713815346026
 20
6.8325357419272
 10
20.26048497980021
 20
7.131945627601722
 10
20.55989486547472
 20
7.362260924274415
 10
21.31993534449462
 20
7.707733869283458
 10
21.84966052684182
 20
8.122301403294307
 10
22.88607936186895
 20
8.882341882314256
 10
23.20852077721072
 20
9.342972475659646
 10
24.01462431556515
 20
9.734508480003234
 10
24.5673810275796
 20
10.05694989534501
 10
25.46561068460312
 20
10.60970660735953
 10
25.88017821861399
 20
11.07033720070492
 10
26.31777728229212
 20
11.34671555671216
 10
26.70931328663569
 20
11.30065249737762
 10
27.21600693931562
 20
11.55399932371759
 10
28.0681735370046
 20
12.17585062473387
 10
28.41364648201364
 20
12.49829204007566
 10
28.39061495234636
 20
12.77467039608289
 10
28.22939424467547
 20
13.00498569275559
 10
28.04514200733732
 20
13.05104875209013
 97
        0
 75
     0
 76
     1
 98
        0
  0
LINE
  5
78
330
1F
100
AcDbEntity
  8
Doc_ Finishes
  6
Continuous
100
AcDbLine
 10
27.6536064122738
 20
13.12014211250983
 30
0.0
 11
27.21600708103855
 21
12.77467151848938
 31
0.0
  0
LINE
  5
79
330
1F
100
AcDbEntity
  8
Doc_ Finishes
  6
Continuous
100
AcDbLine
 10
27.21600708103855
 20
12.77467151848938
 30
0.0
 11
26.54809254523997
 21
12.24494345003934
 31
0.0
  0
LINE
  5
7A
330
1F
100
AcDbEntity
  8
Doc_ Finishes
  6
Continuous
100
AcDbLine
 10
26.54809254523997
 20
12.24494345003934
 30
0.0
 11
25.92624016522423
 21
11.85341070023603
 31
0.0
  0
LINE
  5
7B
330
1F
100
AcDbEntity
  8
Doc_ Finishes
  6
Continuous
100
AcDbLine
 10
25.92624016522423
 20
11.85341070023603
 30
0.0
 11
25.32742328874902
 21
11.32368263178599
 31
0.0
  0
LINE
  5
7C
330
1F
100
AcDbEntity
  8
Doc_ Finishes
  6
Continuous
100
AcDbLine
 10
25.32742328874902
 20
11.32368263178599
 30
0.0
 11
24.72860198662471
 21
11.04730527143981
 31
0.0
  0
LINE
  5
7D
330
1F
100
AcDbEntity
  8
Doc_ Finishes
  6
Continuous
100
AcDbLine
 10
24.72860198662471
 20
11.04730527143981
 30
0.0
 11
24.08371852871754
 21
10.56364378442171
 31
0.0
  0
LINE
  5
7E
330
1F
100
AcDbEntity
  8
Doc_ Finishes
  6
Continuous
100
AcDbLine
 10
24.08371852871754
 20
10.56364378442171
 30
0.0
 11
23.62308811959087
 21
10.33332857985838
 31
0.0
  0
LINE
  5
7F
330
1F
100
AcDbEntity
  8
Doc_ Finishes
  6
Continuous
100
AcDbLine
 10
23.62308811959087
 20
10.33332857985838
 30
0.0
 11
23.23155094413847
 21
10.03392014162077
 31
0.0
  0
LINE
  5
80
330
1F
100
AcDbEntity
  8
Doc_ Finishes
  6
Continuous
100
AcDbLine
 10
23.23155094413847
 20
10.03392014162077
 30
0.0
 11
22.81698269079465
 21
9.619351888276947
 31
0.0
  0
LINE
  5
81
330
1F
100
AcDbEntity
  8
Doc_ Finishes
  6
Continuous
100
AcDbLine
 10
22.81698269079465
 20
9.619351888276947
 30
0.0
 11
22.40241886309992
 21
9.389036683713611
 31
0.0
  0
LINE
  5
82
330
1F
100
AcDbEntity
  8
Doc_ Finishes
  6
Continuous
100
AcDbLine
 10
22.40241886309992
 20
9.389036683713611
 30
0.0
 11
21.91875295043273
 21
9.04356166404406
 31
0.0
  0
LINE
  5
83
330
1F
100
AcDbEntity
  8
Doc_ Finishes
  6
Continuous
100
AcDbLine
 10
21.91875295043273
 20
9.04356166404406
 30
0.0
 11
21.66540666797797
 21
8.859308615263572
 31
0.0
  0
LINE
  5
84
330
1F
100
AcDbEntity
  8
Doc_ Finishes
  6
Continuous
100
AcDbLine
 10
21.66540666797797
 20
8.859308615263572
 30
0.0
 11
21.25084284028324
 21
8.582931254917387
 31
0.0
  0
LINE
  5
85
330
1F
100
AcDbEntity
  8
Doc_ Finishes
  6
Continuous
100
AcDbLine
 10
21.25084284028324
 20
8.582931254917387
 30
0.0
 11
20.09926239181747
 21
7.75379474822974
 31
0.0
  0
LINE
  5
86
330
1F
100
AcDbEntity
  8
Doc_ Finishes
  6
Continuous
100
AcDbLine
 10
20.09926239181747
 20
7.75379474822974
 30
0.0
 11
19.75379179779701
 21
7.477417387883556
 31
0.0
  0
LINE
  5
87
330
1F
100
AcDbEntity
  8
Doc_ Finishes
  6
Continuous
100
AcDbLine
 10
19.75379179779701
 20
7.477417387883556
 30
0.0
 11
19.29316138867033
 21
7.316199842643588
 31
0.0
  0
LINE
  5
88
330
1F
100
AcDbEntity
  8
Doc_ Finishes
  6
Continuous
100
AcDbLine
 10
19.29316138867033
 20
7.316199842643588
 30
0.0
 11
19.22406815499606
 21
6.993755900865461
 31
0.0
  0
LINE
  5
89
330
1F
100
AcDbEntity
  8
Doc_ Finishes
  6
Continuous
100
AcDbLine
 10
19.22406815499606
 20
6.993755900865461
 30
0.0
 11
19.36225462234461
 21
6.717378540519276
 31
0.0
  0
LINE
  5
8A
330
1F
100
AcDbEntity
  8
Doc_ Finishes
  6
Continuous
100
AcDbLine
 10
19.36225462234461
 20
6.717378540519276
 30
0.0
 11
19.63863198269079
 21
6.602218725413059
 31
0.0
  0
LINE
  5
8B
330
1F
100
AcDbEntity
  8
Doc_ Finishes
  6
Continuous
100
AcDbLine
 10
19.63863198269079
 20
6.602218725413059
 30
0.0
 11
20.00713808025177
 21
6.832533929976396
 31
0.0
  0
LINE
  5
8C
330
1F
100
AcDbEntity
  8
Doc_ Finishes
  6
Continuous
100
AcDbLine
 10
20.00713808025177
 20
6.832533929976396
 30
0.0
 11
20.26048436270653
 21
7.1319467938631
 31
0.0
  0
LINE
  5
8D
330
1F
100
AcDbEntity
  8
Doc_ Finishes
  6
Continuous
100
AcDbLine
 10
20.26048436270653
 20
7.1319467938631
 30
0.0
 11
20.55989280094414
 21
7.362261998426435
 31
0.0
  0
LINE
  5
8E
330
1F
100
AcDbEntity
  8
Doc_ Finishes
  6
Continuous
100
AcDbLine
 10
20.55989280094414
 20
7.362261998426435
 30
0.0
 11
21.31993607395751
 21
7.707732592446892
 31
0.0
  0
LINE
  5
8F
330
1F
100
AcDbEntity
  8
Doc_ Finishes
  6
Continuous
100
AcDbLine
 10
21.31993607395751
 20
7.707732592446892
 30
0.0
 11
21.84965971675846
 21
8.122300845790717
 31
0.0
  0
LINE
  5
90
330
1F
100
AcDbEntity
  8
Doc_ Finishes
  6
Continuous
100
AcDbLine
 10
21.84965971675846
 20
8.122300845790717
 30
0.0
 11
22.88608035011802
 21
8.882339693154996
 31
0.0
  0
LINE
  5
91
330
1F
100
AcDbEntity
  8
Doc_ Finishes
  6
Continuous
100
AcDbLine
 10
22.88608035011802
 20
8.882339693154996
 30
0.0
 11
23.20851986624705
 21
9.342974527930762
 31
0.0
  0
LINE
  5
92
330
1F
100
AcDbEntity
  8
Doc_ Finishes
  6
Continuous
100
AcDbLine
 10
23.20851986624705
 20
9.342974527930762
 30
0.0
 11
24.01462529504327
 21
9.734507277734066
 31
0.0
  0
LINE
  5
93
330
1F
100
AcDbEntity
  8
Doc_ Finishes
  6
Continuous
100
AcDbLine
 10
24.01462529504327
 20
9.734507277734066
 30
0.0
 11
24.56738001573564
 21
10.05695121951219
 31
0.0
  0
LINE
  5
94
330
1F
100
AcDbEntity
  8
Doc_ Finishes
  6
Continuous
100
AcDbLine
 10
24.56738001573564
 20
10.05695121951219
 30
0.0
 11
25.46560975609756
 21
10.60970594020456
 31
0.0
  0
LINE
  5
95
330
1F
100
AcDbEntity
  8
Doc_ Finishes
  6
Continuous
100
AcDbLine
 10
25.46560975609756
 20
10.60970594020456
 30
0.0
 11
25.88017800944139
 21
11.07033634933124
 31
0.0
  0
LINE
  5
96
330
1F
100
AcDbEntity
  8
Doc_ Finishes
  6
Continuous
100
AcDbLine
 10
25.88017800944139
 20
11.07033634933124
 30
0.0
 11
26.31777734067663
 21
11.34671370967742
 31
0.0
  0
LINE
  5
97
330
1F
100
AcDbEntity
  8
Doc_ Finishes
  6
Continuous
100
AcDbLine
 10
26.31777734067663
 20
11.34671370967742
 30
0.0
 11
26.70931451612903
 21
11.30065155389457
 31
0.0
  0
LINE
  5
98
330
1F
100
AcDbEntity
  8
Doc_ Finishes
  6
Continuous
100
AcDbLine
 10
26.70931451612903
 20
11.30065155389457
 30
0.0
 11
27.21600708103855
 21
11.55399783634933
 31
0.0
  0
LINE
  5
99
330
1F
100
AcDbEntity
  8
Doc_ Finishes
  6
Continuous
100
AcDbLine
 10
27.21600708103855
 20
11.55399783634933
 30
0.0
 11
28.06817466561763
 21
12.17585021636507
 31
0.0
  0
LINE
  5
9A
330
1F
100
AcDbEntity
  8
Doc_ Finishes
  6
Continuous
100
AcDbLine
 10
28.06817466561763
 20
12.17585021636507
 30
0.0
 11
28.41364525963808
 21
12.49829415814319
 31
0.0
  0
LINE
  5
9B
330
1F
100
AcDbEntity
  8
Doc_ Finishes
  6
Continuous
100
AcDbLine
 10
28.41364525963808
 20
12.49829415814319
 30
0.0
 11
28.39061418174666
 21
12.77467151848938
 31
0.0
  0
LINE
  5
9C
330
1F
100
AcDbEntity
  8
Doc_ Finishes
  6
Continuous
100
AcDbLine
 10
28.39061418174666
 20
12.77467151848938
 30
0.0
 11
28.22939221085759
 21
13.00498672305271
 31
0.0
  0
LINE
  5
9D
330
1F
100
AcDbEntity
  8
Doc_ Finishes
  6
Continuous
100
AcDbLine
 10
28.22939221085759
 20
13.00498672305271
 30
0.0
 11
28.04514358772619
 21
13.05104887883556
 31
0.0
  0
LINE
  5
9E
330
1F
100
AcDbEntity
  8
Doc_ Finishes
  6
Continuous
100
AcDbLine
 10
28.04514358772619
 20
13.05104887883556
 30
0.0
 11
27.6536064122738
 21
13.12014211250983
 31
0.0
  0
HATCH
  5
9F
330
1F
100
AcDbEntity
  8
Doc_ Finishes
  6
Continuous
100
AcDbHatch
 10
0.0
 20
0.0
 30
0.0
210
0.0
220
0.0
230
1.0
  2
SOLID
 70
     1
 71
     0
 91
        1
 92
        3
 72
     0
 73
     1
 93
       47
 10
28.06817353700456
 20
15.74573772316067
 10
28.30309513961077
 20
15.62136746295728
 10
28.4412843176144
 20
15.4002647781515
 10
28.93876535842742
 20
15.17916209334572
 10
29.82317609765057
 20
14.40530269652538
 10
30.92868952167951
 20
13.74199464210799
 10
31.59199757609689
 20
13.3827027792986
 10
32.20002995931279
 20
13.07868658769064
 10
33.55428390374828
 20
12.08372450606458
 10
34.07940278016201
 20
11.69679480765445
 10
34.88090001258301
 20
11.08876242443854
 10
35.59948373820179
 20
10.50836787682334
 10
36.5668079842271
 20
9.817421986805197
 10
37.06428902504012
 20
9.458130123995785
 10
37.81051058625966
 20
8.933011247582023
 10
38.61200781868061
 20
8.407892371168286
 10
38.77783483228498
 20
8.186789686362482
 10
39.38586721550092
 20
7.744584316750918
 10
40.18736444792187
 20
6.915449248729224
 10
40.7953968311378
 20
6.44560604351692
 10
41.56925622795804
 20
6.169227687509681
 10
42.23256428237543
 20
6.086314180707507
 10
42.48130480278193
 20
6.30741686551329
 10
42.14965077557326
 20
6.611433057121246
 10
41.48634272115586
 20
6.998362755531397
 10
40.76775899553709
 20
7.357654618340788
 10
40.18736444792187
 20
8.048600508358874
 10
38.99893751709079
 20
8.822459905179112
 10
38.47381864067705
 20
9.319940945992132
 10
38.22507812027052
 20
9.734508480003
 10
37.17484036744301
 20
10.31490302761817
 10
36.73263499783144
 20
10.78474623283046
 10
36.2351539570184
 20
11.17167593124059
 10
35.48893239579888
 20
11.61388130085215
 10
34.85326217698223
 20
12.16663801286669
 10
34.35578113616919
 20
12.58120554687754
 10
33.69247308175183
 20
12.99577308088841
 10
33.22262987653953
 20
13.32742710809708
 10
32.7251488357265
 20
13.5761676285036
 10
31.93747052110588
 20
14.06443605744977
 10
31.43077686842594
 20
14.38687747279155
 10
30.92408321574601
 20
14.70931888813342
 10
30.62467333007151
 20
15.100854892477
 10
29.95675896972068
 20
15.67664313415887
 10
29.47309684670803
 20
15.9530214901661
 10
28.82821401602447
 20
16.36758902417695
 10
28.50577260068269
 20
16.22939984617334
 97
        0
 75
     0
 76
     1
 98
        0
  0
LINE
  5
A0
330
1F
100
AcDbEntity
  8
Doc_ Finishes
  6
Continuous
100
AcDbLine
 10
28.30309697088906
 20
15.62136850904799
 30
0.0
 11
28.06817466561763
 21
15.74573809992132
 31
0.0
  0
LINE
  5
A1
330
1F
100
AcDbEntity
  8
Doc_ Finishes
  6
Continuous
100
AcDbLine
 10
28.44128343823761
 20
15.40026308025177
 30
0.0
 11
28.30309697088906
 21
15.62136850904799
 31
0.0
  0
LINE
  5
A2
330
1F
100
AcDbEntity
  8
Doc_ Finishes
  6
Continuous
100
AcDbLine
 10
28.93876622738001
 20
15.17916207710464
 30
0.0
 11
28.44128343823761
 21
15.40026308025177
 31
0.0
  0
LINE
  5
A3
330
1F
100
AcDbEntity
  8
Doc_ Finishes
  6
Continuous
100
AcDbLine
 10
29.82317466561762
 20
14.40530192761605
 30
0.0
 11
28.93876622738001
 21
15.17916207710464
 31
0.0
  0
LINE
  5
A4
330
1F
100
AcDbEntity
  8
Doc_ Finishes
  6
Continuous
100
AcDbLine
 10
30.92868853265146
 20
13.74199449252557
 30
0.0
 11
29.82317466561762
 21
14.40530192761605
 31
0.0
  0
LINE
  5
A5
330
1F
100
AcDbEntity
  8
Doc_ Finishes
  6
Continuous
100
AcDbLine
 10
31.59199596774193
 20
13.3827025963808
 30
0.0
 11
30.92868853265146
 21
13.74199449252557
 31
0.0
  0
LINE
  5
A6
330
1F
100
AcDbEntity
  8
Doc_ Finishes
  6
Continuous
100
AcDbLine
 10
32.20003147128246
 20
13.07868705743509
 30
0.0
 11
31.59199596774193
 21
13.3827025963808
 31
0.0
  0
LINE
  5
A7
330
1F
100
AcDbEntity
  8
Doc_ Finishes
  6
Continuous
100
AcDbLine
 10
33.55428452006294
 20
12.08372590479937
 30
0.0
 11
32.20003147128246
 21
13.07868705743509
 31
0.0
  0
LINE
  5
A8
330
1F
100
AcDbEntity
  8
Doc_ Finishes
  6
Continuous
100
AcDbLine
 10
34.07940106215578
 20
11.69679583005508
 30
0.0
 11
33.55428452006294
 21
12.08372590479937
 31
0.0
  0
LINE
  5
A9
330
1F
100
AcDbEntity
  8
Doc_ Finishes
  6
Continuous
100
AcDbLine
 10
34.8808993902439
 20
11.08876032651456
 30
0.0
 11
34.07940106215578
 21
11.69679583005508
 31
0.0
  0
LINE
  5
AA
330
1F
100
AcDbEntity
  8
Doc_ Finishes
  6
Continuous
100
AcDbLine
 10
35.59948318253343
 20
10.50836742722266
 30
0.0
 11
34.8808993902439
 21
11.08876032651456
 31
0.0
  0
LINE
  5
AB
330
1F
100
AcDbEntity
  8
Doc_ Finishes
  6
Continuous
100
AcDbLine
 10
36.56680615656963
 20
9.817421813532652
 30
0.0
 11
35.59948318253343
 21
10.50836742722266
 31
0.0
  0
LINE
  5
AC
330
1F
100
AcDbEntity
  8
Doc_ Finishes
  6
Continuous
100
AcDbLine
 10
37.06428894571204
 20
9.458129917387884
 30
0.0
 11
36.56680615656963
 21
9.817421813532652
 31
0.0
  0
LINE
  5
AD
330
1F
100
AcDbEntity
  8
Doc_ Finishes
  6
Continuous
100
AcDbLine
 10
37.8105109166011
 20
8.933013375295044
 30
0.0
 11
37.06428894571204
 21
9.458129917387884
 31
0.0
  0
LINE
  5
AE
330
1F
100
AcDbEntity
  8
Doc_ Finishes
  6
Continuous
100
AcDbLine
 10
38.61200924468922
 20
8.407892407553108
 30
0.0
 11
37.8105109166011
 21
8.933013375295044
 31
0.0
  0
LINE
  5
AF
330
1F
100
AcDbEntity
  8
Doc_ Finishes
  6
Continuous
100
AcDbLine
 10
38.77783389063729
 20
8.18679140440598
 30
0.0
 11
38.61200924468922
 21
8.407892407553108
 31
0.0
  0
LINE
  5
B0
330
1F
100
AcDbEntity
  8
Doc_ Finishes
  6
Continuous
100
AcDbLine
 10
39.3858693941778
 20
7.744584972462627
 30
0.0
 11
38.77783389063729
 21
8.18679140440598
 31
0.0
  0
LINE
  5
B1
330
1F
100
AcDbEntity
  8
Doc_ Finishes
  6
Continuous
100
AcDbLine
 10
40.18736329661684
 20
6.915448465774981
 30
0.0
 11
39.3858693941778
 21
7.744584972462627
 31
0.0
  0
LINE
  5
B2
330
1F
100
AcDbEntity
  8
Doc_ Finishes
  6
Continuous
100
AcDbLine
 10
40.79539880015735
 20
6.4456038552321
 30
0.0
 11
40.18736329661684
 21
6.915448465774981
 31
0.0
  0
LINE
  5
B3
330
1F
100
AcDbEntity
  8
Doc_ Finishes
  6
Continuous
100
AcDbLine
 10
41.56925452399685
 20
6.169226494885916
 30
0.0
 11
40.79539880015735
 21
6.4456038552321
 31
0.0
  0
LINE
  5
B4
330
1F
100
AcDbEntity
  8
Doc_ Finishes
  6
Continuous
100
AcDbLine
 10
42.23256638473643
 20
6.086316384736428
 30
0.0
 11
41.56925452399685
 21
6.169226494885916
 31
0.0
  0
LINE
  5
B5
330
1F
100
AcDbEntity
  8
Doc_ Finishes
  6
Continuous
100
AcDbLine
 10
42.48130556648308
 20
6.307417387883556
 30
0.0
 11
42.23256638473643
 21
6.086316384736428
 31
0.0
  0
LINE
  5
B6
330
1F
100
AcDbEntity
  8
Doc_ Finishes
  6
Continuous
100
AcDbLine
 10
42.14965184893784
 20
6.611432926829268
 30
0.0
 11
42.48130556648308
 21
6.307417387883556
 31
0.0
  0
LINE
  5
B7
330
1F
100
AcDbEntity
  8
Doc_ Finishes
  6
Continuous
100
AcDbLine
 10
41.48634441384736
 20
6.998363001573564
 30
0.0
 11
42.14965184893784
 21
6.611432926829268
 31
0.0
  0
LINE
  5
B8
330
1F
100
AcDbEntity
  8
Doc_ Finishes
  6
Continuous
100
AcDbLine
 10
40.76776062155783
 20
7.357654897718332
 30
0.0
 11
41.48634441384736
 21
6.998363001573564
 31
0.0
  0
LINE
  5
B9
330
1F
100
AcDbEntity
  8
Doc_ Finishes
  6
Continuous
100
AcDbLine
 10
40.18736329661684
 20
8.048600511408338
 30
0.0
 11
40.76776062155783
 21
7.357654897718332
 31
0.0
  0
LINE
  5
BA
330
1F
100
AcDbEntity
  8
Doc_ Finishes
  6
Continuous
100
AcDbLine
 10
38.99893931943352
 20
8.822460660896931
 30
0.0
 11
40.18736329661684
 21
8.048600511408338
 31
0.0
  0
LINE
  5
BB
330
1F
100
AcDbEntity
  8
Doc_ Finishes
  6
Continuous
100
AcDbLine
 10
38.47381835169158
 20
9.319939024390242
 30
0.0
 11
38.99893931943352
 21
8.822460660896931
 31
0.0
  0
LINE
  5
BC
330
1F
100
AcDbEntity
  8
Doc_ Finishes
  6
Continuous
100
AcDbLine
 10
38.22507916994492
 20
9.734507277734066
 30
0.0
 11
38.47381835169158
 21
9.319939024390242
 31
0.0
  0
LINE
  5
BD
330
1F
100
AcDbEntity
  8
Doc_ Finishes
  6
Continuous
100
AcDbLine
 10
37.17484166011014
 20
10.31490460267506
 30
0.0
 11
38.22507916994492
 21
9.734507277734066
 31
0.0
  0
LINE
  5
BE
330
1F
100
AcDbEntity
  8
Doc_ Finishes
  6
Continuous
100
AcDbLine
 10
36.7326352281668
 20
10.78474478756884
 30
0.0
 11
37.17484166011014
 21
10.31490460267506
 31
0.0
  0
LINE
  5
BF
330
1F
100
AcDbEntity
  8
Doc_ Finishes
  6
Continuous
100
AcDbLine
 10
36.23515243902439
 20
11.17167486231314
 30
0.0
 11
36.7326352281668
 21
10.78474478756884
 31
0.0
  0
LINE
  5
C0
330
1F
100
AcDbEntity
  8
Doc_ Finishes
  6
Continuous
100
AcDbLine
 10
35.48893046813532
 20
11.61388129425649
 30
0.0
 11
36.23515243902439
 21
11.17167486231314
 31
0.0
  0
LINE
  5
C1
330
1F
100
AcDbEntity
  8
Doc_ Finishes
  6
Continuous
100
AcDbLine
 10
34.85326121164437
 20
12.16663601494886
 30
0.0
 11
35.48893046813532
 21
11.61388129425649
 31
0.0
  0
LINE
  5
C2
330
1F
100
AcDbEntity
  8
Doc_ Finishes
  6
Continuous
100
AcDbLine
 10
34.35578284815106
 20
12.58120426829268
 30
0.0
 11
34.85326121164437
 21
12.16663601494886
 31
0.0
  0
LINE
  5
C3
330
1F
100
AcDbEntity
  8
Doc_ Finishes
  6
Continuous
100
AcDbLine
 10
33.69247098741149
 20
12.99577252163651
 30
0.0
 11
34.35578284815106
 21
12.58120426829268
 31
0.0
  0
LINE
  5
C4
330
1F
100
AcDbEntity
  8
Doc_ Finishes
  6
Continuous
100
AcDbLine
 10
33.2226308025177
 20
13.32742623918175
 30
0.0
 11
33.69247098741149
 21
12.99577252163651
 31
0.0
  0
LINE
  5
C5
330
1F
100
AcDbEntity
  8
Doc_ Finishes
  6
Continuous
100
AcDbLine
 10
32.7251480133753
 20
13.5761654209284
 30
0.0
 11
33.2226308025177
 21
13.32742623918175
 31
0.0
  0
LINE
  5
C6
330
1F
100
AcDbEntity
  8
Doc_ Finishes
  6
Continuous
100
AcDbLine
 10
31.93747098741148
 20
14.0644340086546
 30
0.0
 11
32.7251480133753
 21
13.5761654209284
 31
0.0
  0
LINE
  5
C7
330
1F
100
AcDbEntity
  8
Doc_ Finishes
  6
Continuous
100
AcDbLine
 10
31.43077842250197
 20
14.38687795043273
 30
0.0
 11
31.93747098741148
 21
14.0644340086546
 31
0.0
  0
LINE
  5
C8
330
1F
100
AcDbEntity
  8
Doc_ Finishes
  6
Continuous
100
AcDbLine
 10
30.92408143194335
 20
14.70931746656176
 30
0.0
 11
31.43077842250197
 21
14.38687795043273
 31
0.0
  0
LINE
  5
C9
330
1F
100
AcDbEntity
  8
Doc_ Finishes
  6
Continuous
100
AcDbLine
 10
30.62467299370574
 20
15.10085464201416
 30
0.0
 11
30.92408143194335
 21
14.70931746656176
 31
0.0
  0
LINE
  5
CA
330
1F
100
AcDbEntity
  8
Doc_ Finishes
  6
Continuous
100
AcDbLine
 10
29.95675845790716
 20
15.67664486624705
 30
0.0
 11
30.62467299370574
 21
15.10085464201416
 31
0.0
  0
LINE
  5
CB
330
1F
100
AcDbEntity
  8
Doc_ Finishes
  6
Continuous
100
AcDbLine
 10
29.47309697088906
 20
15.95302222659323
 30
0.0
 11
29.95675845790716
 21
15.67664486624705
 31
0.0
  0
LINE
  5
CC
330
1F
100
AcDbEntity
  8
Doc_ Finishes
  6
Continuous
100
AcDbLine
 10
28.8282135129819
 20
16.36759047993706
 30
0.0
 11
29.47309697088906
 21
15.95302222659323
 31
0.0
  0
LINE
  5
CD
330
1F
100
AcDbEntity
  8
Doc_ Finishes
  6
Continuous
100
AcDbLine
 10
28.50577399685287
 20
16.22939958693942
 30
0.0
 11
28.8282135129819
 21
16.36759047993706
 31
0.0
  0
LINE
  5
CE
330
1F
100
AcDbEntity
  8
Doc_ Finishes
  6
Continuous
100
AcDbLine
 10
28.06817466561763
 20
15.74573809992132
 30
0.0
 11
28.50577399685287
 21
16.22939958693942
 31
0.0
  0
LINE
  5
CF
330
1F
100
AcDbEntity
  8
Doc_ Finishes
  6
Continuous
 62
   254
370
    18
100
AcDbLine
 10
97.43333792289535
 20
5.093360051140834
 30
0.0
 11
97.43333792289535
 21
20.69901750590086
 31
0.0
  0
LINE
  5
D0
330
1F
100
AcDbEntity
  8
Doc_ Finishes
  6
Continuous
 62
   254
370
    18
100
AcDbLine
 10
7.000000491738787
 20
20.69901750590086
 30
0.0
 11
290.2406840086546
 21
20.69901750590086
 31
0.0
  0
LINE
  5
D1
330
1F
100
AcDbEntity
  8
Doc_ Finishes
  6
Continuous
 62
   254
370
    18
100
AcDbLine
 10
290.2406840086546
 20
20.69901750590086
 30
0.0
 11
290.2406840086546
 21
5.000000983477577
 31
0.0
  0
LINE
  5
D2
330
1F
100
AcDbEntity
  8
Doc_ Finishes
  6
Continuous
 62
   254
370
    18
100
AcDbLine
 10
290.2406840086546
 20
5.000000983477577
 30
0.0
 11
7.000000491738787
 21
5.000000983477577
 31
0.0
  0
LINE
  5
D3
330
1F
100
AcDbEntity
  8
Doc_ Finishes
  6
Continuous
 62
   254
370
    18
100
AcDbLine
 10
7.000000491738787
 20
20.69901750590086
 30
0.0
 11
7.000000491738787
 21
5.000000983477577
 31
0.0
  0
LINE
  5
D4
330
1F
100
AcDbEntity
  8
Doc_ Finishes
  6
Continuous
 62
   254
370
    18
100
AcDbLine
 10
190.2919443351691
 20
5.093360051140834
 30
0.0
 11
190.2919443351691
 21
20.69901750590086
 31
0.0
  0
LINE
  5
D5
330
1F
100
AcDbEntity
  8
Doc_ Finishes
  6
Continuous
 62
   254
370
    18
100
AcDbLine
 10
190.2919443351691
 20
12.8961909913454
 30
0.0
 11
290.2406840086546
 21
12.8961909913454
 31
0.0
  0
MTEXT
  5
D7
330
1F
100
AcDbEntity
  8
0
  6
Continuous
100
AcDbMText
 10
210.3494767103412
 20
15.00228412282651
 30
0.0
 40
2.25
 41
0.0
 71
     7
 72
     1
  1
{R-TRSS-09}
  7
GENERATED_STYLE_1
 73
     1
 44
1.0
  0
MTEXT
  5
D8
330
1F
100
AcDbEntity
  8
0
  6
Continuous
100
AcDbMText
 10
210.3494767103412
 20
11.03300550383743
 30
0.0
 40
3.0
 41
0.0
 71
     1
 72
     1
  1
{APRON DETAIL - SIDE}
  7
GENERATED_STYLE_1
 73
     1
 44
1.0
  0
MTEXT
  5
DA
330
1F
100
AcDbEntity
  8
Doc_ Floor
  6
Continuous
100
AcDbMText
 10
29.78353726544612
 20
13.33283672870609
 30
0.0
 40
5.603347280334726
 41
0.0
 71
     1
 72
     1
  1
{The Roofing Store}
  7
GENERATED_STYLE_2
 73
     1
 44
1.0
  0
MTEXT
  5
DC
102
{ACAD_XDICTIONARY
360
1D2
102
}
330
1F
100
AcDbEntity
  8
0
  6
Continuous
100
AcDbMText
 10
102.7389238446655
 20
6.378784417288154
 30
0.0
 40
1.5
 41
0.0
 71
     7
 72
     1
  1
{P: HEAD OFFICE              09 277 2717\P    ALBANY             09 972 0060\P    KATIKAIT            07 549 5190\P    WELLINGTON              04 974 5792\P    CHRISTCHURCH          03 348 6528}
  7
GENERATED_STYLE_1
 73
     1
 44
1.062946161486498
  0
MTEXT
  5
DD
330
1F
100
AcDbEntity
  8
0
  6
Continuous
100
AcDbMText
 10
149.4184566143587
 20
9.199084231526154
 30
0.0
 40
1.5
 41
0.0
 71
     7
 72
     1
  1
{WEB: www.theroofingstore.co.nz}
  7
GENERATED_STYLE_1
 73
     1
 44
1.0
  0
MTEXT
  5
DE
330
1F
100
AcDbEntity
  8
0
  6
Continuous
100
AcDbMText
 10
149.4184566143587
 20
6.620946023411263
 30
0.0
 40
1.5
 41
0.0
 71
     7
 72
     1
  1
{Copyright \U+00A9 The Roofing Store 2013}
  7
GENERATED_STYLE_1
 73
     1
 44
1.0
  0
MTEXT
  5
DF
330
1F
100
AcDbEntity
  8
0
  6
Continuous
100
AcDbMText
 10
273.9546684065315
 20
15.01595245667184
 30
0.0
 40
2.25
 41
0.0
 71
     7
 72
     1
  1
{1:5}
  7
GENERATED_STYLE_1
 73
     1
 44
1.0
  0
MTEXT
  5
E0
330
1F
100
AcDbEntity
  8
0
  6
Continuous
100
AcDbMText
 10
264.8396605309016
 20
15.51746459162148
 30
0.0
 40
1.5
 41
0.0
 71
     7
 72
     1
  1
{SCALE:}
  7
GENERATED_STYLE_1
 73
     1
 44
1.0
  0
MTEXT
  5
E1
330
1F
100
AcDbEntity
  8
0
  6
Continuous
100
AcDbMText
 10
191.5066235617487
 20
15.48695559872207
 30
0.0
 40
1.5
 41
0.0
 71
     7
 72
     1
  1
{DETAIL NUMBER:}
  7
GENERATED_STYLE_1
 73
     1
 44
1.0
  0
MTEXT
  5
E2
330
1F
100
AcDbEntity
  8
0
  6
Continuous
100
AcDbMText
 10
191.5066235617487
 20
9.005462392315325
 30
0.0
 40
1.5
 41
0.0
 71
     7
 72
     1
  1
{TITLE:}
  7
GENERATED_STYLE_1
 73
     1
 44
1.0
  0
INSERT
  5
1A0
102
{ACAD_XDICTIONARY
360
1A1
102
}
330
1F
100
AcDbEntity
  8
0
  6
Continuous
100
AcDbBlockReference
  2
Drawing_1_2
 10
-1488.68793027213
 20
350.9956652514564
 30
0.0
  0
ENDSEC
  0
SECTION
  2
OBJECTS
  0
DICTIONARY
  5
C
330
0
100
AcDbDictionary
281
     1
  3
ACAD_GROUP
350
D
  3
ACAD_LAYOUT
350
1A
  3
ACAD_MATERIAL
350
3B
  3
ACAD_MLEADERSTYLE
350
1CD
  3
ACAD_MLINESTYLE
350
17
  3
ACAD_PLOTSETTINGS
350
19
  3
ACAD_PLOTSTYLENAME
350
E
  3
ACAD_SCALELIST
350
1A7
  3
ACAD_VISUALSTYLE
350
2A
  3
AcDbVariableDictionary
350
1CB
  3
WATERMARKS
350
1C9
  0
DICTIONARY
  5
1D4
330
19B
100
AcDbDictionary
280
     1
281
     1
  3
ACAD_MTEXT_RT
360
1D5
  0
DICTIONARY
  5
1D2
330
DC
100
AcDbDictionary
280
     1
281
     1
  3
ACAD_MTEXT_RT
360
1D3
  0
DICTIONARY
  5
1A1
330
1A0
100
AcDbDictionary
280
     1
281
     1
  3
ACAD_FILTER
360
1A2
  0
DICTIONARY
  5
D
102
{ACAD_REACTORS
330
C
102
}
330
C
100
AcDbDictionary
281
     1
  0
DICTIONARY
  5
1A
102
{ACAD_REACTORS
330
C
102
}
330
C
100
AcDbDictionary
281
     1
  3
Layout1
350
1E
  3
Model
350
22
  0
DICTIONARY
  5
3B
102
{ACAD_REACTORS
330
C
102
}
330
C
100
AcDbDictionary
281
     1
  3
ByBlock
350
3D
  3
ByLayer
350
3C
  3
Global
350
3E
  0
DICTIONARY
  5
1CD
102
{ACAD_REACTORS
330
C
102
}
330
C
100
AcDbDictionary
281
     1
  0
DICTIONARY
  5
17
102
{ACAD_REACTORS
330
C
102
}
330
C
100
AcDbDictionary
281
     1
  3
Standard
350
18
  0
DICTIONARY
  5
19
102
{ACAD_REACTORS
330
C
102
}
330
C
100
AcDbDictionary
281
     1
  0
ACDBDICTIONARYWDFLT
  5
E
102
{ACAD_REACTORS
330
C
102
}
330
C
100
AcDbDictionary
281
     1
  3
Normal
350
F
100
AcDbDictionaryWithDefault
340
F
  0
DICTIONARY
  5
1A7
102
{ACAD_REACTORS
330
C
102
}
330
C
100
AcDbDictionary
281
     1
  3
A0
350
1A8
  3
A1
350
1A9
  3
A2
350
1AA
  3
A3
350
1AB
  3
A4
350
1AC
  3
A5
350
1AD
  3
A6
350
1AE
  3
A7
350
1AF
  3
A8
350
1B0
  3
A9
350
1B1
  3
B0
350
1B2
  3
B1
350
1B3
  3
B2
350
1B4
  3
B3
350
1B5
  3
B4
350
1B6
  3
B5
350
1B7
  3
B6
350
1B8
  3
B7
350
1B9
  3
B8
350
1BA
  3
B9
350
1BB
  3
C0
350
1BC
  3
C1
350
1BD
  3
C2
350
1BE
  3
C3
350
1BF
  3
C4
350
1C0
  3
C5
350
1C1
  3
C6
350
1C2
  3
C7
350
1C3
  3
C8
350
1C4
  3
C9
350
1C5
  3
D0
350
1C6
  3
D1
350
1C7
  3
D2
350
1C8
  0
DICTIONARY
  5
2A
102
{ACAD_REACTORS
330
C
102
}
330
C
100
AcDbDictionary
281
     1
  3
2dWireframe
350
2F
  3
3D Hidden
350
31
  3
3dWireframe
350
30
  3
Basic
350
32
  3
Brighten
350
36
  3
ColorChange
350
3A
  3
Conceptual
350
34
  3
Dim
350
35
  3
Facepattern
350
39
  3
Flat
350
2B
  3
FlatWithEdges
350
2C
  3
Gouraud
350
2D
  3
GouraudWithEdges
350
2E
  3
Linepattern
350
38
  3
Realistic
350
33
  3
Thicken
350
37
  0
DICTIONARY
  5
1CB
102
{ACAD_REACTORS
330
C
102
}
330
C
100
AcDbDictionary
281
     1
  3
CANNOSCALE
350
1CF
  3
DIMASSOC
350
1D0
  3
HIDETEXT
350
1D1
  3
XCLIPFRAME
350
1CE
  0
DICTIONARY
  5
1C9
102
{ACAD_REACTORS
330
C
102
}
330
C
100
AcDbDictionary
281
     1
  3
AC_WATERMARK
350
1CA
  0
XRECORD
  5
1D5
102
{ACAD_REACTORS
330
1D4
102
}
330
1D4
100
AcDbXrecord
280
     1
 40
326192.0
  1
{TRS SEAM\P\pt37.7468;MIN. ROOF PITCH 5° FOR ANGLE SEAM\P\pt37.7468;MIN. ROOF PITCH 3° FOR DOUBLE STANDING SEAM}
  0
XRECORD
  5
1D3
102
{ACAD_REACTORS
330
1D2
102
}
330
1D2
100
AcDbXrecord
280
     1
 40
956118.0
  1
{P: HEAD OFFICE ^I^I09 277 2717\P    ALBANY ^I^I09 972 0060\P    KATIKAIT^I^I07 549 5190\P    WELLINGTON^I^I04 974 5792\P    CHRISTCHURCH^I^I03 348 6528}
  0
DICTIONARY
  5
1A2
102
{ACAD_REACTORS
330
1A1
102
}
330
1A1
100
AcDbDictionary
280
     1
281
     1
  3
SPATIAL
360
1A3
  0
LAYOUT
  5
1E
102
{ACAD_REACTORS
330
1A
102
}
330
1A
100
AcDbPlotSettings
  1

  2
none_device
  4

  6

 40
0.0
 41
0.0
 42
0.0
 43
0.0
 44
0.0
 45
0.0
 46
0.0
 47
0.0
 48
0.0
 49
0.0
140
0.0
141
0.0
142
1.0
143
1.0
 70
   688
 72
     0
 73
     0
 74
     5
  7

 75
    16
147
1.0
148
0.0
149
0.0
100
AcDbLayout
  1
Layout1
 70
     1
 71
     1
 10
0.0
 20
0.0
 11
12.0
 21
9.0
 12
0.0
 22
0.0
 32
0.0
 14
1.000000000000000E+20
 24
1.000000000000000E+20
 34
1.000000000000000E+20
 15
-1.000000000000000E+20
 25
-1.000000000000000E+20
 35
-1.000000000000000E+20
146
0.0
 13
0.0
 23
0.0
 33
0.0
 16
1.0
 26
0.0
 36
0.0
 17
0.0
 27
1.0
 37
0.0
 76
     0
330
1B
  0
LAYOUT
  5
22
102
{ACAD_REACTORS
330
1A
102
}
330
1A
100
AcDbPlotSettings
  1

  2
none_device
  4

  6

 40
0.0
 41
0.0
 42
0.0
 43
0.0
 44
0.0
 45
0.0
 46
0.0
 47
0.0
 48
0.0
 49
0.0
140
0.0
141
0.0
142
1.0
143
1.0
 70
  1712
 72
     0
 73
     0
 74
     0
  7

 75
     0
147
1.0
148
0.0
149
0.0
100
AcDbLayout
  1
Model
 70
     1
 71
     0
 10
0.0
 20
0.0
 11
12.0
 21
9.0
 12
0.0
 22
0.0
 32
0.0
 14
1.000000000000000E+20
 24
1.000000000000000E+20
 34
1.000000000000000E+20
 15
-1.000000000000000E+20
 25
-1.000000000000000E+20
 35
-1.000000000000000E+20
146
0.0
 13
0.0
 23
0.0
 33
0.0
 16
1.0
 26
0.0
 36
0.0
 17
0.0
 27
1.0
 37
0.0
 76
     0
330
1F
331
29
  0
MATERIAL
  5
3D
102
{ACAD_REACTORS
330
3B
102
}
102
{ACAD_XDICTIONARY
360
1F8
102
}
330
3B
100
AcDbMaterial
  1
ByBlock
  0
MATERIAL
  5
3C
102
{ACAD_REACTORS
330
3B
102
}
102
{ACAD_XDICTIONARY
360
1F6
102
}
330
3B
100
AcDbMaterial
  1
ByLayer
  0
MATERIAL
  5
3E
102
{ACAD_REACTORS
330
3B
102
}
102
{ACAD_XDICTIONARY
360
1FA
102
}
330
3B
100
AcDbMaterial
  1
Global
  0
MLINESTYLE
  5
18
102
{ACAD_REACTORS
330
17
102
}
330
17
100
AcDbMlineStyle
  2
Standard
 70
     0
  3

 62
   256
 51
90.0
 52
90.0
 71
     2
 49
0.5
 62
   256
  6
BYLAYER
 49
-0.5
 62
   256
  6
BYLAYER
  0
ACDBPLACEHOLDER
  5
F
102
{ACAD_REACTORS
330
E
102
}
330
E
  0
SCALE
  5
1A8
102
{ACAD_REACTORS
330
1A7
102
}
330
1A7
100
AcDbScale
 70
     0
300
1:1
140
1.0
141
1.0
290
     1
  0
SCALE
  5
1A9
102
{ACAD_REACTORS
330
1A7
102
}
330
1A7
100
AcDbScale
 70
     0
300
1:2
140
1.0
141
2.0
290
     0
  0
SCALE
  5
1AA
102
{ACAD_REACTORS
330
1A7
102
}
330
1A7
100
AcDbScale
 70
     0
300
1:4
140
1.0
141
4.0
290
     0
  0
SCALE
  5
1AB
102
{ACAD_REACTORS
330
1A7
102
}
330
1A7
100
AcDbScale
 70
     0
300
1:5
140
1.0
141
5.0
290
     0
  0
SCALE
  5
1AC
102
{ACAD_REACTORS
330
1A7
102
}
330
1A7
100
AcDbScale
 70
     0
300
1:8
140
1.0
141
8.0
290
     0
  0
SCALE
  5
1AD
102
{ACAD_REACTORS
330
1A7
102
}
330
1A7
100
AcDbScale
 70
     0
300
1:10
140
1.0
141
10.0
290
     0
  0
SCALE
  5
1AE
102
{ACAD_REACTORS
330
1A7
102
}
330
1A7
100
AcDbScale
 70
     0
300
1:16
140
1.0
141
16.0
290
     0
  0
SCALE
  5
1AF
102
{ACAD_REACTORS
330
1A7
102
}
330
1A7
100
AcDbScale
 70
     0
300
1:20
140
1.0
141
20.0
290
     0
  0
SCALE
  5
1B0
102
{ACAD_REACTORS
330
1A7
102
}
330
1A7
100
AcDbScale
 70
     0
300
1:30
140
1.0
141
30.0
290
     0
  0
SCALE
  5
1B1
102
{ACAD_REACTORS
330
1A7
102
}
330
1A7
100
AcDbScale
 70
     0
300
1:40
140
1.0
141
40.0
290
     0
  0
SCALE
  5
1B2
102
{ACAD_REACTORS
330
1A7
102
}
330
1A7
100
AcDbScale
 70
     0
300
1:50
140
1.0
141
50.0
290
     0
  0
SCALE
  5
1B3
102
{ACAD_REACTORS
330
1A7
102
}
330
1A7
100
AcDbScale
 70
     0
300
1:100
140
1.0
141
100.0
290
     0
  0
SCALE
  5
1B4
102
{ACAD_REACTORS
330
1A7
102
}
330
1A7
100
AcDbScale
 70
     0
300
2:1
140
2.0
141
1.0
290
     0
  0
SCALE
  5
1B5
102
{ACAD_REACTORS
330
1A7
102
}
330
1A7
100
AcDbScale
 70
     0
300
4:1
140
4.0
141
1.0
290
     0
  0
SCALE
  5
1B6
102
{ACAD_REACTORS
330
1A7
102
}
330
1A7
100
AcDbScale
 70
     0
300
8:1
140
8.0
141
1.0
290
     0
  0
SCALE
  5
1B7
102
{ACAD_REACTORS
330
1A7
102
}
330
1A7
100
AcDbScale
 70
     0
300
10:1
140
10.0
141
1.0
290
     0
  0
SCALE
  5
1B8
102
{ACAD_REACTORS
330
1A7
102
}
330
1A7
100
AcDbScale
 70
     0
300
100:1
140
100.0
141
1.0
290
     0
  0
SCALE
  5
1B9
102
{ACAD_REACTORS
330
1A7
102
}
330
1A7
100
AcDbScale
 70
     0
300
1/128" = 1'-0"
140
0.0078125
141
12.0
290
     0
  0
SCALE
  5
1BA
102
{ACAD_REACTORS
330
1A7
102
}
330
1A7
100
AcDbScale
 70
     0
300
1/64" = 1'-0"
140
0.015625
141
12.0
290
     0
  0
SCALE
  5
1BB
102
{ACAD_REACTORS
330
1A7
102
}
330
1A7
100
AcDbScale
 70
     0
300
1/32" = 1'-0"
140
0.03125
141
12.0
290
     0
  0
SCALE
  5
1BC
102
{ACAD_REACTORS
330
1A7
102
}
330
1A7
100
AcDbScale
 70
     0
300
1/16" = 1'-0"
140
0.0625
141
12.0
290
     0
  0
SCALE
  5
1BD
102
{ACAD_REACTORS
330
1A7
102
}
330
1A7
100
AcDbScale
 70
     0
300
3/32" = 1'-0"
140
0.09375
141
12.0
290
     0
  0
SCALE
  5
1BE
102
{ACAD_REACTORS
330
1A7
102
}
330
1A7
100
AcDbScale
 70
     0
300
1/8" = 1'-0"
140
0.125
141
12.0
290
     0
  0
SCALE
  5
1BF
102
{ACAD_REACTORS
330
1A7
102
}
330
1A7
100
AcDbScale
 70
     0
300
3/16" = 1'-0"
140
0.1875
141
12.0
290
     0
  0
SCALE
  5
1C0
102
{ACAD_REACTORS
330
1A7
102
}
330
1A7
100
AcDbScale
 70
     0
300
1/4" = 1'-0"
140
0.25
141
12.0
290
     0
  0
SCALE
  5
1C1
102
{ACAD_REACTORS
330
1A7
102
}
330
1A7
100
AcDbScale
 70
     0
300
3/8" = 1'-0"
140
0.375
141
12.0
290
     0
  0
SCALE
  5
1C2
102
{ACAD_REACTORS
330
1A7
102
}
330
1A7
100
AcDbScale
 70
     0
300
1/2" = 1'-0"
140
0.5
141
12.0
290
     0
  0
SCALE
  5
1C3
102
{ACAD_REACTORS
330
1A7
102
}
330
1A7
100
AcDbScale
 70
     0
300
3/4" = 1'-0"
140
0.75
141
12.0
290
     0
  0
SCALE
  5
1C4
102
{ACAD_REACTORS
330
1A7
102
}
330
1A7
100
AcDbScale
 70
     0
300
1" = 1'-0"
140
1.0
141
12.0
290
     0
  0
SCALE
  5
1C5
102
{ACAD_REACTORS
330
1A7
102
}
330
1A7
100
AcDbScale
 70
     0
300
1-1/2" = 1'-0"
140
1.5
141
12.0
290
     0
  0
SCALE
  5
1C6
102
{ACAD_REACTORS
330
1A7
102
}
330
1A7
100
AcDbScale
 70
     0
300
3" = 1'-0"
140
3.0
141
12.0
290
     0
  0
SCALE
  5
1C7
102
{ACAD_REACTORS
330
1A7
102
}
330
1A7
100
AcDbScale
 70
     0
300
6" = 1'-0"
140
6.0
141
12.0
290
     0
  0
SCALE
  5
1C8
102
{ACAD_REACTORS
330
1A7
102
}
330
1A7
100
AcDbScale
 70
     0
300
1'-0" = 1'-0"
140
12.0
141
12.0
290
     0
  0
VISUALSTYLE
  5
2F
102
{ACAD_REACTORS
330
2A
102
}
102
{ACAD_XDICTIONARY
360
1DE
102
}
330
2A
100
AcDbVisualStyle
  2
2dWireframe
 70
     4
 71
     0
 72
     2
 73
     0
 90
        0
 40
-0.6
 41
-30.0
 62
     5
 63
     7
 74
     1
 91
        4
 64
     7
 65
   257
 75
     1
175
     1
 42
1.0
 92
        0
 66
   257
 43
1.0
 76
     1
 77
     6
 78
     2
 67
     7
 79
     5
170
     0
171
     0
290
     0
174
     0
 93
        1
 44
0.0
173
     0
291
     0
 45
0.0
1001
ACAD
1000
AcDbSavedByObjectVersion
1070
     0
  0
VISUALSTYLE
  5
31
102
{ACAD_REACTORS
330
2A
102
}
102
{ACAD_XDICTIONARY
360
1E2
102
}
330
2A
100
AcDbVisualStyle
  2
3D Hidden
 70
     6
 71
     1
 72
     2
 73
     2
 90
        0
 40
-0.6
 41
-30.0
 62
     5
 63
     7
 74
     2
 91
        2
 64
     7
 65
   257
 75
     2
175
     1
 42
40.0
 92
        0
 66
   257
 43
1.0
 76
     1
 77
     6
 78
     2
 67
     7
 79
     3
170
     0
171
     0
290
     0
174
     0
 93
        1
 44
0.0
173
     0
291
     0
 45
0.0
1001
ACAD
1000
AcDbSavedByObjectVersion
1070
     0
  0
VISUALSTYLE
  5
30
102
{ACAD_REACTORS
330
2A
102
}
102
{ACAD_XDICTIONARY
360
1E0
102
}
330
2A
100
AcDbVisualStyle
  2
3dWireframe
 70
     5
 71
     0
 72
     2
 73
     0
 90
        0
 40
-0.6
 41
-30.0
 62
     5
 63
     7
 74
     1
 91
        4
 64
     7
 65
   257
 75
     1
175
     1
 42
1.0
 92
        0
 66
   257
 43
1.0
 76
     1
 77
     6
 78
     2
 67
     7
 79
     5
170
     0
171
     0
290
     0
174
     0
 93
        1
 44
0.0
173
     0
291
     0
 45
0.0
1001
ACAD
1000
AcDbSavedByObjectVersion
1070
     0
  0
VISUALSTYLE
  5
32
102
{ACAD_REACTORS
330
2A
102
}
102
{ACAD_XDICTIONARY
360
1E4
102
}
330
2A
100
AcDbVisualStyle
  2
Basic
 70
     7
 71
     1
 72
     0
 73
     1
 90
        0
 40
-0.6
 41
-30.0
 62
     5
 63
     7
 74
     0
 91
        4
 64
     7
 65
   257
 75
     1
175
     1
 42
1.0
 92
        8
 66
     7
 43
1.0
 76
     1
 77
     6
 78
     2
 67
     7
 79
     5
170
     0
171
     0
290
     0
174
     0
 93
        1
 44
0.0
173
     0
291
     1
 45
0.0
1001
ACAD
1000
AcDbSavedByObjectVersion
1070
     0
  0
VISUALSTYLE
  5
36
102
{ACAD_REACTORS
330
2A
102
}
102
{ACAD_XDICTIONARY
360
1EC
102
}
330
2A
100
AcDbVisualStyle
  2
Brighten
 70
    12
 71
     2
 72
     2
 73
     0
 90
        0
 40
-0.6
 41
-30.0
 62
     5
 63
     7
 74
     1
 91
        4
 64
     7
 65
   257
 75
     1
175
     1
 42
1.0
 92
        8
 66
     7
 43
1.0
 76
     1
 77
     6
 78
     2
 67
     7
 79
     5
170
     0
171
     0
290
     0
174
     0
 93
        1
 44
50.0
173
     0
291
     1
 45
0.0
1001
ACAD
1000
AcDbSavedByObjectVersion
1070
     0
  0
VISUALSTYLE
  5
3A
102
{ACAD_REACTORS
330
2A
102
}
102
{ACAD_XDICTIONARY
360
1F4
102
}
330
2A
100
AcDbVisualStyle
  2
ColorChange
 70
    16
 71
     2
 72
     2
 73
     3
 90
        0
 40
-0.6
 41
-30.0
 62
     5
 63
     8
 74
     1
 91
        4
 64
     7
 65
   257
 75
     1
175
     1
 42
1.0
 92
        8
 66
     8
 43
1.0
 76
     1
 77
     6
 78
     2
 67
     7
 79
     5
170
     0
171
     0
290
     0
174
     0
 93
        1
 44
0.0
173
     0
291
     1
 45
0.0
1001
ACAD
1000
AcDbSavedByObjectVersion
1070
     0
  0
VISUALSTYLE
  5
34
102
{ACAD_REACTORS
330
2A
102
}
102
{ACAD_XDICTIONARY
360
1E8
102
}
330
2A
100
AcDbVisualStyle
  2
Conceptual
 70
     9
 71
     3
 72
     2
 73
     0
 90
        0
 40
-0.6
 41
-30.0
 62
     5
 63
     7
 74
     2
 91
        2
 64
     7
 65
   257
 75
     1
175
     1
 42
40.0
 92
        8
 66
     7
 43
1.0
 76
     1
 77
     6
 78
     2
 67
     7
 79
     3
170
     0
171
     0
290
     0
174
     0
 93
        1
 44
0.0
173
     0
291
     0
 45
0.0
1001
ACAD
1000
AcDbSavedByObjectVersion
1070
     0
  0
VISUALSTYLE
  5
35
102
{ACAD_REACTORS
330
2A
102
}
102
{ACAD_XDICTIONARY
360
1EA
102
}
330
2A
100
AcDbVisualStyle
  2
Dim
 70
    11
 71
     2
 72
     2
 73
     0
 90
        0
 40
-0.6
 41
-30.0
 62
     5
 63
     7
 74
     1
 91
        4
 64
     7
 65
   257
 75
     1
175
     1
 42
1.0
 92
        8
 66
     7
 43
1.0
 76
     1
 77
     6
 78
     2
 67
     7
 79
     5
170
     0
171
     0
290
     0
174
     0
 93
        1
 44
-50.0
173
     0
291
     1
 45
0.0
1001
ACAD
1000
AcDbSavedByObjectVersion
1070
     0
  0
VISUALSTYLE
  5
39
102
{ACAD_REACTORS
330
2A
102
}
102
{ACAD_XDICTIONARY
360
1F2
102
}
330
2A
100
AcDbVisualStyle
  2
Facepattern
 70
    15
 71
     2
 72
     2
 73
     0
 90
        0
 40
-0.6
 41
-30.0
 62
     5
 63
     7
 74
     1
 91
        4
 64
     7
 65
   257
 75
     1
175
     1
 42
1.0
 92
        8
 66
     7
 43
1.0
 76
     1
 77
     6
 78
     2
 67
     7
 79
     5
170
     0
171
     0
290
     0
174
     0
 93
        1
 44
0.0
173
     0
291
     1
 45
0.0
1001
ACAD
1000
AcDbSavedByObjectVersion
1070
     0
  0
VISUALSTYLE
  5
2B
102
{ACAD_REACTORS
330
2A
102
}
102
{ACAD_XDICTIONARY
360
1D6
102
}
330
2A
100
AcDbVisualStyle
  2
Flat
 70
     0
 71
     2
 72
     1
 73
     1
 90
        2
 40
-0.6
 41
30.0
 62
     5
 63
     7
 74
     0
 91
        4
 64
     7
 65
   257
 75
     1
175
     1
 42
1.0
 92
        8
 66
     7
 43
1.0
 76
     1
 77
     6
 78
     2
 67
     7
 79
     5
170
     0
171
     0
290
     0
174
     0
 93
       13
 44
0.0
173
     0
291
     1
 45
0.0
1001
ACAD
1000
AcDbSavedByObjectVersion
1070
     0
  0
VISUALSTYLE
  5
2C
102
{ACAD_REACTORS
330
2A
102
}
102
{ACAD_XDICTIONARY
360
1D8
102
}
330
2A
100
AcDbVisualStyle
  2
FlatWithEdges
 70
     1
 71
     2
 72
     1
 73
     1
 90
        2
 40
-0.6
 41
30.0
 62
     5
 63
     7
 74
     1
 91
        4
 64
     7
 65
   257
 75
     1
175
     1
 42
1.0
 92
        0
 66
   257
 43
1.0
 76
     1
 77
     6
 78
     2
 67
     7
 79
     5
170
     0
171
     0
290
     0
174
     0
 93
       13
 44
0.0
173
     0
291
     1
 45
0.0
1001
ACAD
1000
AcDbSavedByObjectVersion
1070
     0
  0
VISUALSTYLE
  5
2D
102
{ACAD_REACTORS
330
2A
102
}
102
{ACAD_XDICTIONARY
360
1DA
102
}
330
2A
100
AcDbVisualStyle
  2
Gouraud
 70
     2
 71
     2
 72
     2
 73
     1
 90
        2
 40
-0.6
 41
30.0
 62
     5
 63
     7
 74
     0
 91
        4
 64
     7
 65
   257
 75
     1
175
     1
 42
1.0
 92
        0
 66
     7
 43
1.0
 76
     1
 77
     6
 78
     2
 67
     7
 79
     5
170
     0
171
     0
290
     0
174
     0
 93
       13
 44
0.0
173
     0
291
     1
 45
0.0
1001
ACAD
1000
AcDbSavedByObjectVersion
1070
     0
  0
VISUALSTYLE
  5
2E
102
{ACAD_REACTORS
330
2A
102
}
102
{ACAD_XDICTIONARY
360
1DC
102
}
330
2A
100
AcDbVisualStyle
  2
GouraudWithEdges
 70
     3
 71
     2
 72
     2
 73
     1
 90
        2
 40
-0.6
 41
30.0
 62
     5
 63
     7
 74
     1
 91
        4
 64
     7
 65
   257
 75
     1
175
     1
 42
1.0
 92
        0
 66
   257
 43
1.0
 76
     1
 77
     6
 78
     2
 67
     7
 79
     5
170
     0
171
     0
290
     0
174
     0
 93
       13
 44
0.0
173
     0
291
     1
 45
0.0
1001
ACAD
1000
AcDbSavedByObjectVersion
1070
     0
  0
VISUALSTYLE
  5
38
102
{ACAD_REACTORS
330
2A
102
}
102
{ACAD_XDICTIONARY
360
1F0
102
}
330
2A
100
AcDbVisualStyle
  2
Linepattern
 70
    14
 71
     2
 72
     2
 73
     0
 90
        0
 40
-0.6
 41
-30.0
 62
     5
 63
     7
 74
     1
 91
        4
 64
     7
 65
   257
 75
     7
175
     7
 42
1.0
 92
        8
 66
     7
 43
1.0
 76
     1
 77
     6
 78
     2
 67
     7
 79
     5
170
     0
171
     0
290
     0
174
     0
 93
        1
 44
0.0
173
     0
291
     1
 45
0.0
1001
ACAD
1000
AcDbSavedByObjectVersion
1070
     0
  0
VISUALSTYLE
  5
33
102
{ACAD_REACTORS
330
2A
102
}
102
{ACAD_XDICTIONARY
360
1E6
102
}
330
2A
100
AcDbVisualStyle
  2
Realistic
 70
     8
 71
     2
 72
     2
 73
     0
 90
        0
 40
-0.6
 41
-30.0
 62
     5
 63
     7
 74
     1
 91
        0
 64
     7
 65
   257
 75
     1
175
     1
 42
1.0
 92
        8
 66
     8
 43
1.0
 76
     1
 77
     6
 78
     2
 67
     7
 79
     5
170
     0
171
     0
290
     0
174
     0
 93
       13
 44
0.0
173
     0
291
     0
 45
0.0
1001
ACAD
1000
AcDbSavedByObjectVersion
1070
     0
  0
VISUALSTYLE
  5
37
102
{ACAD_REACTORS
330
2A
102
}
102
{ACAD_XDICTIONARY
360
1EE
102
}
330
2A
100
AcDbVisualStyle
  2
Thicken
 70
    13
 71
     2
 72
     2
 73
     0
 90
        0
 40
-0.6
 41
-30.0
 62
     5
 63
     7
 74
     1
 91
        4
 64
     7
 65
   257
 75
     1
175
     1
 42
1.0
 92
       12
 66
     7
 43
1.0
 76
     1
 77
     6
 78
     2
 67
     7
 79
     5
170
     0
171
     0
290
     0
174
     0
 93
        1
 44
0.0
173
     0
291
     1
 45
0.0
1001
ACAD
1000
AcDbSavedByObjectVersion
1070
     0
  0
DICTIONARYVAR
  5
1CF
102
{ACAD_REACTORS
330
1CB
102
}
330
1CB
100
DictionaryVariables
280
     0
  1
1:1
  0
DICTIONARYVAR
  5
1D0
102
{ACAD_REACTORS
330
1CB
102
}
330
1CB
100
DictionaryVariables
280
     0
  1
2
  0
DICTIONARYVAR
  5
1D1
102
{ACAD_REACTORS
330
1CB
102
}
330
1CB
100
DictionaryVariables
280
     0
  1
1
  0
DICTIONARYVAR
  5
1CE
102
{ACAD_REACTORS
330
1CB
102
}
330
1CB
100
DictionaryVariables
280
     0
  1
0
  0
XRECORD
  5
1CA
102
{ACAD_REACTORS
330
1C9
102
}
330
1C9
100
AcDbXrecord
280
     1
1000
This DWG file was created in ArchiCAD(TM)®
  0
SPATIAL_FILTER
  5
1A3
102
{ACAD_REACTORS
330
1A2
102
}
330
1A2
100
AcDbFilter
100
AcDbSpatialFilter
 70
     4
 10
28.46927262926087
 20
23.56187964509124
 10
246.2123859504618
 20
23.56187964509124
 10
246.2123859504618
 20
198.9052447763431
 10
28.46927262926087
 20
198.9052447763431
210
0.0
220
0.0
230
1.0
 11
0.0
 21
0.0
 31
0.0
 71
     1
 72
     0
 73
     0
 40
1.0
 40
0.0
 40
0.0
 40
0.0
 40
0.0
 40
1.0
 40
0.0
 40
0.0
 40
0.0
 40
0.0
 40
1.0
 40
0.0
 40
1.0
 40
0.0
 40
0.0
 40
0.0
 40
0.0
 40
1.0
 40
0.0
 40
0.0
 40
0.0
 40
0.0
 40
1.0
 40
0.0
  0
DICTIONARY
  5
1F8
330
3D
100
AcDbDictionary
280
     1
281
     1
  3
ACAD_XREC_ROUNDTRIP
360
1F9
  0
DICTIONARY
  5
1F6
330
3C
100
AcDbDictionary
280
     1
281
     1
  3
ACAD_XREC_ROUNDTRIP
360
1F7
  0
DICTIONARY
  5
1FA
330
3E
100
AcDbDictionary
280
     1
281
     1
  3
ACAD_XREC_ROUNDTRIP
360
1FB
  0
DICTIONARY
  5
1DE
330
2F
100
AcDbDictionary
280
     1
281
     1
  3
ACAD_XREC_ROUNDTRIP
360
1DF
  0
DICTIONARY
  5
1E2
330
31
100
AcDbDictionary
280
     1
281
     1
  3
ACAD_XREC_ROUNDTRIP
360
1E3
  0
DICTIONARY
  5
1E0
330
30
100
AcDbDictionary
280
     1
281
     1
  3
ACAD_XREC_ROUNDTRIP
360
1E1
  0
DICTIONARY
  5
1E4
330
32
100
AcDbDictionary
280
     1
281
     1
  3
ACAD_XREC_ROUNDTRIP
360
1E5
  0
DICTIONARY
  5
1EC
330
36
100
AcDbDictionary
280
     1
281
     1
  3
ACAD_XREC_ROUNDTRIP
360
1ED
  0
DICTIONARY
  5
1F4
330
3A
100
AcDbDictionary
280
     1
281
     1
  3
ACAD_XREC_ROUNDTRIP
360
1F5
  0
DICTIONARY
  5
1E8
330
34
100
AcDbDictionary
280
     1
281
     1
  3
ACAD_XREC_ROUNDTRIP
360
1E9
  0
DICTIONARY
  5
1EA
330
35
100
AcDbDictionary
280
     1
281
     1
  3
ACAD_XREC_ROUNDTRIP
360
1EB
  0
DICTIONARY
  5
1F2
330
39
100
AcDbDictionary
280
     1
281
     1
  3
ACAD_XREC_ROUNDTRIP
360
1F3
  0
DICTIONARY
  5
1D6
330
2B
100
AcDbDictionary
280
     1
281
     1
  3
ACAD_XREC_ROUNDTRIP
360
1D7
  0
DICTIONARY
  5
1D8
330
2C
100
AcDbDictionary
280
     1
281
     1
  3
ACAD_XREC_ROUNDTRIP
360
1D9
  0
DICTIONARY
  5
1DA
330
2D
100
AcDbDictionary
280
     1
281
     1
  3
ACAD_XREC_ROUNDTRIP
360
1DB
  0
DICTIONARY
  5
1DC
330
2E
100
AcDbDictionary
280
     1
281
     1
  3
ACAD_XREC_ROUNDTRIP
360
1DD
  0
DICTIONARY
  5
1F0
330
38
100
AcDbDictionary
280
     1
281
     1
  3
ACAD_XREC_ROUNDTRIP
360
1F1
  0
DICTIONARY
  5
1E6
330
33
100
AcDbDictionary
280
     1
281
     1
  3
ACAD_XREC_ROUNDTRIP
360
1E7
  0
DICTIONARY
  5
1EE
330
37
100
AcDbDictionary
280
     1
281
     1
  3
ACAD_XREC_ROUNDTRIP
360
1EF
  0
XRECORD
  5
1F9
102
{ACAD_REACTORS
330
1F8
102
}
330
1F8
100
AcDbXrecord
280
     1
102
MATERIAL
148
0.0
149
0.0
149
0.0
 93
        0
 94
      127
282
     0
 72
     1
 77
     1
171
     1
175
     1
179
     1
273
     0
  0
XRECORD
  5
1F7
102
{ACAD_REACTORS
330
1F6
102
}
330
1F6
100
AcDbXrecord
280
     1
102
MATERIAL
148
0.0
149
0.0
149
0.0
 93
        0
 94
      127
282
     0
 72
     1
 77
     1
171
     1
175
     1
179
     1
273
     0
  0
XRECORD
  5
1FB
102
{ACAD_REACTORS
330
1FA
102
}
330
1FA
100
AcDbXrecord
280
     1
102
MATERIAL
148
0.0
149
0.0
149
0.0
 93
        0
 94
      127
282
     0
 72
     1
 77
     1
171
     1
175
     1
179
     1
273
     0
  0
XRECORD
  5
1DF
102
{ACAD_REACTORS
330
1DE
102
}
330
1DE
100
AcDbXrecord
280
     1
102
RTVSPropertyOp0
 70
     1
102
RTVSPropertyOp1
 70
     1
102
RTVSPropertyOp2
 70
     1
102
RTVSPropertyOp3
 70
     1
102
RTVSPropertyOp4
 70
     1
102
RTVSPropertyOp5
 70
     1
102
RTVSPropertyOp6
 70
     1
102
RTVSPropertyOp7
 70
     1
102
RTVSPropertyOp8
 70
     1
102
RTVSPropertyOp9
 70
     1
102
RTVSPropertyOp10
 70
     1
102
RTVSPropertyOp11
 70
     1
102
RTVSPropertyOp12
 70
     1
102
RTVSPropertyOp13
 70
     1
102
RTVSPropertyOp14
 70
     1
102
RTVSPropertyOp15
 70
     1
102
RTVSPropertyOp16
 70
     1
102
RTVSPropertyOp17
 70
     1
102
RTVSPropertyOp18
 70
     1
102
RTVSPropertyOp19
 70
     1
102
RTVSPropertyOp20
 70
     1
102
RTVSPropertyOp21
 70
     1
102
RTVSPropertyOp22
 70
     1
102
RTVSPropertyOp23
 70
     1
102
RTVSPropertyOp24
 70
     1
102
RTVSPropertyOp25
 70
     1
102
RTVSPropertyOp26
 70
     1
102
RTVSPropertyOp27
 70
     1
102
RTVSPropertyOp28
 70
     1
102
RTVSPropertyOp29
 70
     1
102
RTVSPropertyOp30
 70
     1
102
RTVSPropertyOp31
 70
     1
102
RTVSPropertyOp32
 70
     1
  0
XRECORD
  5
1E3
102
{ACAD_REACTORS
330
1E2
102
}
330
1E2
100
AcDbXrecord
280
     1
102
RTVSPropertyOp0
 70
     1
102
RTVSPropertyOp1
 70
     1
102
RTVSPropertyOp2
 70
     1
102
RTVSPropertyOp3
 70
     1
102
RTVSPropertyOp4
 70
     1
102
RTVSPropertyOp5
 70
     1
102
RTVSPropertyOp6
 70
     1
102
RTVSPropertyOp7
 70
     1
102
RTVSPropertyOp8
 70
     1
102
RTVSPropertyOp9
 70
     1
102
RTVSPropertyOp10
 70
     1
102
RTVSPropertyOp11
 70
     1
102
RTVSPropertyOp12
 70
     1
102
RTVSPropertyOp13
 70
     1
102
RTVSPropertyOp14
 70
     1
102
RTVSPropertyOp15
 70
     1
102
RTVSPropertyOp16
 70
     1
102
RTVSPropertyOp17
 70
     1
102
RTVSPropertyOp18
 70
     1
102
RTVSPropertyOp19
 70
     1
102
RTVSPropertyOp20
 70
     1
102
RTVSPropertyOp21
 70
     1
102
RTVSPropertyOp22
 70
     1
102
RTVSPropertyOp23
 70
     1
102
RTVSPropertyOp24
 70
     1
102
RTVSPropertyOp25
 70
     1
102
RTVSPropertyOp26
 70
     1
102
RTVSPropertyOp27
 70
     1
102
RTVSPropertyOp28
 70
     1
102
RTVSPropertyOp29
 70
     1
102
RTVSPropertyOp30
 70
     1
102
RTVSPropertyOp31
 70
     1
102
RTVSPropertyOp32
 70
     1
  0
XRECORD
  5
1E1
102
{ACAD_REACTORS
330
1E0
102
}
330
1E0
100
AcDbXrecord
280
     1
102
RTVSPropertyOp0
 70
     1
102
RTVSPropertyOp1
 70
     1
102
RTVSPropertyOp2
 70
     1
102
RTVSPropertyOp3
 70
     1
102
RTVSPropertyOp4
 70
     1
102
RTVSPropertyOp5
 70
     1
102
RTVSPropertyOp6
 70
     1
102
RTVSPropertyOp7
 70
     1
102
RTVSPropertyOp8
 70
     1
102
RTVSPropertyOp9
 70
     1
102
RTVSPropertyOp10
 70
     1
102
RTVSPropertyOp11
 70
     1
102
RTVSPropertyOp12
 70
     1
102
RTVSPropertyOp13
 70
     1
102
RTVSPropertyOp14
 70
     1
102
RTVSPropertyOp15
 70
     1
102
RTVSPropertyOp16
 70
     1
102
RTVSPropertyOp17
 70
     1
102
RTVSPropertyOp18
 70
     1
102
RTVSPropertyOp19
 70
     1
102
RTVSPropertyOp20
 70
     1
102
RTVSPropertyOp21
 70
     1
102
RTVSPropertyOp22
 70
     1
102
RTVSPropertyOp23
 70
     1
102
RTVSPropertyOp24
 70
     1
102
RTVSPropertyOp25
 70
     1
102
RTVSPropertyOp26
 70
     1
102
RTVSPropertyOp27
 70
     1
102
RTVSPropertyOp28
 70
     1
102
RTVSPropertyOp29
 70
     1
102
RTVSPropertyOp30
 70
     1
102
RTVSPropertyOp31
 70
     1
102
RTVSPropertyOp32
 70
     1
  0
XRECORD
  5
1E5
102
{ACAD_REACTORS
330
1E4
102
}
330
1E4
100
AcDbXrecord
280
     1
102
RTVSPropertyOp0
 70
     1
102
RTVSPropertyOp1
 70
     1
102
RTVSPropertyOp2
 70
     1
102
RTVSPropertyOp3
 70
     1
102
RTVSPropertyOp4
 70
     1
102
RTVSPropertyOp5
 70
     1
102
RTVSPropertyOp6
 70
     1
102
RTVSPropertyOp7
 70
     1
102
RTVSPropertyOp8
 70
     1
102
RTVSPropertyOp9
 70
     1
102
RTVSPropertyOp10
 70
     1
102
RTVSPropertyOp11
 70
     1
102
RTVSPropertyOp12
 70
     1
102
RTVSPropertyOp13
 70
     1
102
RTVSPropertyOp14
 70
     1
102
RTVSPropertyOp15
 70
     1
102
RTVSPropertyOp16
 70
     1
102
RTVSPropertyOp17
 70
     1
102
RTVSPropertyOp18
 70
     1
102
RTVSPropertyOp19
 70
     1
102
RTVSPropertyOp20
 70
     1
102
RTVSPropertyOp21
 70
     1
102
RTVSPropertyOp22
 70
     1
102
RTVSPropertyOp23
 70
     1
102
RTVSPropertyOp24
 70
     1
102
RTVSPropertyOp25
 70
     1
102
RTVSPropertyOp26
 70
     1
102
RTVSPropertyOp27
 70
     1
102
RTVSPropertyOp28
 70
     1
102
RTVSPropertyOp29
 70
     1
102
RTVSPropertyOp30
 70
     1
102
RTVSPropertyOp31
 70
     1
102
RTVSPropertyOp32
 70
     1
  0
XRECORD
  5
1ED
102
{ACAD_REACTORS
330
1EC
102
}
330
1EC
100
AcDbXrecord
280
     1
102
RTVSPropertyOp0
 70
     1
102
RTVSPropertyOp1
 70
     1
102
RTVSPropertyOp2
 70
     1
102
RTVSPropertyOp3
 70
     1
102
RTVSPropertyOp4
 70
     1
102
RTVSPropertyOp5
 70
     1
102
RTVSPropertyOp6
 70
     1
102
RTVSPropertyOp7
 70
     1
102
RTVSPropertyOp8
 70
     1
102
RTVSPropertyOp9
 70
     1
102
RTVSPropertyOp10
 70
     1
102
RTVSPropertyOp11
 70
     1
102
RTVSPropertyOp12
 70
     1
102
RTVSPropertyOp13
 70
     1
102
RTVSPropertyOp14
 70
     1
102
RTVSPropertyOp15
 70
     1
102
RTVSPropertyOp16
 70
     1
102
RTVSPropertyOp17
 70
     1
102
RTVSPropertyOp18
 70
     1
102
RTVSPropertyOp19
 70
     1
102
RTVSPropertyOp20
 70
     1
102
RTVSPropertyOp21
 70
     1
102
RTVSPropertyOp22
 70
     1
102
RTVSPropertyOp23
 70
     1
102
RTVSPropertyOp24
 70
     1
102
RTVSPropertyOp25
 70
     1
102
RTVSPropertyOp26
 70
     1
102
RTVSPropertyOp27
 70
     1
102
RTVSPropertyOp28
 70
     1
102
RTVSPropertyOp29
 70
     1
102
RTVSPropertyOp30
 70
     1
102
RTVSPropertyOp31
 70
     1
102
RTVSPropertyOp32
 70
     1
  0
XRECORD
  5
1F5
102
{ACAD_REACTORS
330
1F4
102
}
330
1F4
100
AcDbXrecord
280
     1
102
RTVSPropertyOp0
 70
     1
102
RTVSPropertyOp1
 70
     1
102
RTVSPropertyOp2
 70
     1
102
RTVSPropertyOp3
 70
     1
102
RTVSPropertyOp4
 70
     1
102
RTVSPropertyOp5
 70
     1
102
RTVSPropertyOp6
 70
     1
102
RTVSPropertyOp7
 70
     1
102
RTVSPropertyOp8
 70
     1
102
RTVSPropertyOp9
 70
     1
102
RTVSPropertyOp10
 70
     1
102
RTVSPropertyOp11
 70
     1
102
RTVSPropertyOp12
 70
     1
102
RTVSPropertyOp13
 70
     1
102
RTVSPropertyOp14
 70
     1
102
RTVSPropertyOp15
 70
     1
102
RTVSPropertyOp16
 70
     1
102
RTVSPropertyOp17
 70
     1
102
RTVSPropertyOp18
 70
     1
102
RTVSPropertyOp19
 70
     1
102
RTVSPropertyOp20
 70
     1
102
RTVSPropertyOp21
 70
     1
102
RTVSPropertyOp22
 70
     1
102
RTVSPropertyOp23
 70
     1
102
RTVSPropertyOp24
 70
     1
102
RTVSPropertyOp25
 70
     1
102
RTVSPropertyOp26
 70
     1
102
RTVSPropertyOp27
 70
     1
102
RTVSPropertyOp28
 70
     1
102
RTVSPropertyOp29
 70
     1
102
RTVSPropertyOp30
 70
     1
102
RTVSPropertyOp31
 70
     1
102
RTVSPropertyOp32
 70
     1
  0
XRECORD
  5
1E9
102
{ACAD_REACTORS
330
1E8
102
}
330
1E8
100
AcDbXrecord
280
     1
102
RTVSPropertyOp0
 70
     1
102
RTVSPropertyOp1
 70
     1
102
RTVSPropertyOp2
 70
     1
102
RTVSPropertyOp3
 70
     1
102
RTVSPropertyOp4
 70
     1
102
RTVSPropertyOp5
 70
     1
102
RTVSPropertyOp6
 70
     1
102
RTVSPropertyOp7
 70
     1
102
RTVSPropertyOp8
 70
     1
102
RTVSPropertyOp9
 70
     1
102
RTVSPropertyOp10
 70
     1
102
RTVSPropertyOp11
 70
     1
102
RTVSPropertyOp12
 70
     1
102
RTVSPropertyOp13
 70
     1
102
RTVSPropertyOp14
 70
     1
102
RTVSPropertyOp15
 70
     1
102
RTVSPropertyOp16
 70
     1
102
RTVSPropertyOp17
 70
     1
102
RTVSPropertyOp18
 70
     1
102
RTVSPropertyOp19
 70
     1
102
RTVSPropertyOp20
 70
     1
102
RTVSPropertyOp21
 70
     1
102
RTVSPropertyOp22
 70
     1
102
RTVSPropertyOp23
 70
     1
102
RTVSPropertyOp24
 70
     1
102
RTVSPropertyOp25
 70
     1
102
RTVSPropertyOp26
 70
     1
102
RTVSPropertyOp27
 70
     1
102
RTVSPropertyOp28
 70
     1
102
RTVSPropertyOp29
 70
     1
102
RTVSPropertyOp30
 70
     1
102
RTVSPropertyOp31
 70
     1
102
RTVSPropertyOp32
 70
     1
  0
XRECORD
  5
1EB
102
{ACAD_REACTORS
330
1EA
102
}
330
1EA
100
AcDbXrecord
280
     1
102
RTVSPropertyOp0
 70
     1
102
RTVSPropertyOp1
 70
     1
102
RTVSPropertyOp2
 70
     1
102
RTVSPropertyOp3
 70
     1
102
RTVSPropertyOp4
 70
     1
102
RTVSPropertyOp5
 70
     1
102
RTVSPropertyOp6
 70
     1
102
RTVSPropertyOp7
 70
     1
102
RTVSPropertyOp8
 70
     1
102
RTVSPropertyOp9
 70
     1
102
RTVSPropertyOp10
 70
     1
102
RTVSPropertyOp11
 70
     1
102
RTVSPropertyOp12
 70
     1
102
RTVSPropertyOp13
 70
     1
102
RTVSPropertyOp14
 70
     1
102
RTVSPropertyOp15
 70
     1
102
RTVSPropertyOp16
 70
     1
102
RTVSPropertyOp17
 70
     1
102
RTVSPropertyOp18
 70
     1
102
RTVSPropertyOp19
 70
     1
102
RTVSPropertyOp20
 70
     1
102
RTVSPropertyOp21
 70
     1
102
RTVSPropertyOp22
 70
     1
102
RTVSPropertyOp23
 70
     1
102
RTVSPropertyOp24
 70
     1
102
RTVSPropertyOp25
 70
     1
102
RTVSPropertyOp26
 70
     1
102
RTVSPropertyOp27
 70
     1
102
RTVSPropertyOp28
 70
     1
102
RTVSPropertyOp29
 70
     1
102
RTVSPropertyOp30
 70
     1
102
RTVSPropertyOp31
 70
     1
102
RTVSPropertyOp32
 70
     1
  0
XRECORD
  5
1F3
102
{ACAD_REACTORS
330
1F2
102
}
330
1F2
100
AcDbXrecord
280
     1
102
RTVSPropertyOp0
 70
     1
102
RTVSPropertyOp1
 70
     1
102
RTVSPropertyOp2
 70
     1
102
RTVSPropertyOp3
 70
     1
102
RTVSPropertyOp4
 70
     1
102
RTVSPropertyOp5
 70
     1
102
RTVSPropertyOp6
 70
     1
102
RTVSPropertyOp7
 70
     1
102
RTVSPropertyOp8
 70
     1
102
RTVSPropertyOp9
 70
     1
102
RTVSPropertyOp10
 70
     1
102
RTVSPropertyOp11
 70
     1
102
RTVSPropertyOp12
 70
     1
102
RTVSPropertyOp13
 70
     1
102
RTVSPropertyOp14
 70
     1
102
RTVSPropertyOp15
 70
     1
102
RTVSPropertyOp16
 70
     1
102
RTVSPropertyOp17
 70
     1
102
RTVSPropertyOp18
 70
     1
102
RTVSPropertyOp19
 70
     1
102
RTVSPropertyOp20
 70
     1
102
RTVSPropertyOp21
 70
     1
102
RTVSPropertyOp22
 70
     1
102
RTVSPropertyOp23
 70
     1
102
RTVSPropertyOp24
 70
     1
102
RTVSPropertyOp25
 70
     1
102
RTVSPropertyOp26
 70
     1
102
RTVSPropertyOp27
 70
     1
102
RTVSPropertyOp28
 70
     1
102
RTVSPropertyOp29
 70
     1
102
RTVSPropertyOp30
 70
     1
102
RTVSPropertyOp31
 70
     1
102
RTVSPropertyOp32
 70
     1
  0
XRECORD
  5
1D7
102
{ACAD_REACTORS
330
1D6
102
}
330
1D6
100
AcDbXrecord
280
     1
102
RTVSPropertyOp0
 70
     1
102
RTVSPropertyOp1
 70
     1
102
RTVSPropertyOp2
 70
     1
102
RTVSPropertyOp3
 70
     1
102
RTVSPropertyOp4
 70
     1
102
RTVSPropertyOp5
 70
     1
102
RTVSPropertyOp6
 70
     1
102
RTVSPropertyOp7
 70
     1
102
RTVSPropertyOp8
 70
     1
102
RTVSPropertyOp9
 70
     1
102
RTVSPropertyOp10
 70
     1
102
RTVSPropertyOp11
 70
     1
102
RTVSPropertyOp12
 70
     1
102
RTVSPropertyOp13
 70
     1
102
RTVSPropertyOp14
 70
     1
102
RTVSPropertyOp15
 70
     1
102
RTVSPropertyOp16
 70
     1
102
RTVSPropertyOp17
 70
     1
102
RTVSPropertyOp18
 70
     1
102
RTVSPropertyOp19
 70
     1
102
RTVSPropertyOp20
 70
     1
102
RTVSPropertyOp21
 70
     1
102
RTVSPropertyOp22
 70
     1
102
RTVSPropertyOp23
 70
     1
102
RTVSPropertyOp24
 70
     1
102
RTVSPropertyOp25
 70
     1
102
RTVSPropertyOp26
 70
     1
102
RTVSPropertyOp27
 70
     1
102
RTVSPropertyOp28
 70
     1
102
RTVSPropertyOp29
 70
     1
102
RTVSPropertyOp30
 70
     1
102
RTVSPropertyOp31
 70
     1
102
RTVSPropertyOp32
 70
     1
  0
XRECORD
  5
1D9
102
{ACAD_REACTORS
330
1D8
102
}
330
1D8
100
AcDbXrecord
280
     1
102
RTVSPropertyOp0
 70
     1
102
RTVSPropertyOp1
 70
     1
102
RTVSPropertyOp2
 70
     1
102
RTVSPropertyOp3
 70
     1
102
RTVSPropertyOp4
 70
     1
102
RTVSPropertyOp5
 70
     1
102
RTVSPropertyOp6
 70
     1
102
RTVSPropertyOp7
 70
     1
102
RTVSPropertyOp8
 70
     1
102
RTVSPropertyOp9
 70
     1
102
RTVSPropertyOp10
 70
     1
102
RTVSPropertyOp11
 70
     1
102
RTVSPropertyOp12
 70
     1
102
RTVSPropertyOp13
 70
     1
102
RTVSPropertyOp14
 70
     1
102
RTVSPropertyOp15
 70
     1
102
RTVSPropertyOp16
 70
     1
102
RTVSPropertyOp17
 70
     1
102
RTVSPropertyOp18
 70
     1
102
RTVSPropertyOp19
 70
     1
102
RTVSPropertyOp20
 70
     1
102
RTVSPropertyOp21
 70
     1
102
RTVSPropertyOp22
 70
     1
102
RTVSPropertyOp23
 70
     1
102
RTVSPropertyOp24
 70
     1
102
RTVSPropertyOp25
 70
     1
102
RTVSPropertyOp26
 70
     1
102
RTVSPropertyOp27
 70
     1
102
RTVSPropertyOp28
 70
     1
102
RTVSPropertyOp29
 70
     1
102
RTVSPropertyOp30
 70
     1
102
RTVSPropertyOp31
 70
     1
102
RTVSPropertyOp32
 70
     1
  0
XRECORD
  5
1DB
102
{ACAD_REACTORS
330
1DA
102
}
330
1DA
100
AcDbXrecord
280
     1
102
RTVSPropertyOp0
 70
     1
102
RTVSPropertyOp1
 70
     1
102
RTVSPropertyOp2
 70
     1
102
RTVSPropertyOp3
 70
     1
102
RTVSPropertyOp4
 70
     1
102
RTVSPropertyOp5
 70
     1
102
RTVSPropertyOp6
 70
     1
102
RTVSPropertyOp7
 70
     1
102
RTVSPropertyOp8
 70
     1
102
RTVSPropertyOp9
 70
     1
102
RTVSPropertyOp10
 70
     1
102
RTVSPropertyOp11
 70
     1
102
RTVSPropertyOp12
 70
     1
102
RTVSPropertyOp13
 70
     1
102
RTVSPropertyOp14
 70
     1
102
RTVSPropertyOp15
 70
     1
102
RTVSPropertyOp16
 70
     1
102
RTVSPropertyOp17
 70
     1
102
RTVSPropertyOp18
 70
     1
102
RTVSPropertyOp19
 70
     1
102
RTVSPropertyOp20
 70
     1
102
RTVSPropertyOp21
 70
     1
102
RTVSPropertyOp22
 70
     1
102
RTVSPropertyOp23
 70
     1
102
RTVSPropertyOp24
 70
     1
102
RTVSPropertyOp25
 70
     1
102
RTVSPropertyOp26
 70
     1
102
RTVSPropertyOp27
 70
     1
102
RTVSPropertyOp28
 70
     1
102
RTVSPropertyOp29
 70
     1
102
RTVSPropertyOp30
 70
     1
102
RTVSPropertyOp31
 70
     1
102
RTVSPropertyOp32
 70
     1
  0
XRECORD
  5
1DD
102
{ACAD_REACTORS
330
1DC
102
}
330
1DC
100
AcDbXrecord
280
     1
102
RTVSPropertyOp0
 70
     1
102
RTVSPropertyOp1
 70
     1
102
RTVSPropertyOp2
 70
     1
102
RTVSPropertyOp3
 70
     1
102
RTVSPropertyOp4
 70
     1
102
RTVSPropertyOp5
 70
     1
102
RTVSPropertyOp6
 70
     1
102
RTVSPropertyOp7
 70
     1
102
RTVSPropertyOp8
 70
     1
102
RTVSPropertyOp9
 70
     1
102
RTVSPropertyOp10
 70
     1
102
RTVSPropertyOp11
 70
     1
102
RTVSPropertyOp12
 70
     1
102
RTVSPropertyOp13
 70
     1
102
RTVSPropertyOp14
 70
     1
102
RTVSPropertyOp15
 70
     1
102
RTVSPropertyOp16
 70
     1
102
RTVSPropertyOp17
 70
     1
102
RTVSPropertyOp18
 70
     1
102
RTVSPropertyOp19
 70
     1
102
RTVSPropertyOp20
 70
     1
102
RTVSPropertyOp21
 70
     1
102
RTVSPropertyOp22
 70
     1
102
RTVSPropertyOp23
 70
     1
102
RTVSPropertyOp24
 70
     1
102
RTVSPropertyOp25
 70
     1
102
RTVSPropertyOp26
 70
     1
102
RTVSPropertyOp27
 70
     1
102
RTVSPropertyOp28
 70
     1
102
RTVSPropertyOp29
 70
     1
102
RTVSPropertyOp30
 70
     1
102
RTVSPropertyOp31
 70
     1
102
RTVSPropertyOp32
 70
     1
  0
XRECORD
  5
1F1
102
{ACAD_REACTORS
330
1F0
102
}
330
1F0
100
AcDbXrecord
280
     1
102
RTVSPropertyOp0
 70
     1
102
RTVSPropertyOp1
 70
     1
102
RTVSPropertyOp2
 70
     1
102
RTVSPropertyOp3
 70
     1
102
RTVSPropertyOp4
 70
     1
102
RTVSPropertyOp5
 70
     1
102
RTVSPropertyOp6
 70
     1
102
RTVSPropertyOp7
 70
     1
102
RTVSPropertyOp8
 70
     1
102
RTVSPropertyOp9
 70
     1
102
RTVSPropertyOp10
 70
     1
102
RTVSPropertyOp11
 70
     1
102
RTVSPropertyOp12
 70
     1
102
RTVSPropertyOp13
 70
     1
102
RTVSPropertyOp14
 70
     1
102
RTVSPropertyOp15
 70
     1
102
RTVSPropertyOp16
 70
     1
102
RTVSPropertyOp17
 70
     1
102
RTVSPropertyOp18
 70
     1
102
RTVSPropertyOp19
 70
     1
102
RTVSPropertyOp20
 70
     1
102
RTVSPropertyOp21
 70
     1
102
RTVSPropertyOp22
 70
     1
102
RTVSPropertyOp23
 70
     1
102
RTVSPropertyOp24
 70
     1
102
RTVSPropertyOp25
 70
     1
102
RTVSPropertyOp26
 70
     1
102
RTVSPropertyOp27
 70
     1
102
RTVSPropertyOp28
 70
     1
102
RTVSPropertyOp29
 70
     1
102
RTVSPropertyOp30
 70
     1
102
RTVSPropertyOp31
 70
     1
102
RTVSPropertyOp32
 70
     1
  0
XRECORD
  5
1E7
102
{ACAD_REACTORS
330
1E6
102
}
330
1E6
100
AcDbXrecord
280
     1
102
RTVSPropertyOp0
 70
     1
102
RTVSPropertyOp1
 70
     1
102
RTVSPropertyOp2
 70
     1
102
RTVSPropertyOp3
 70
     1
102
RTVSPropertyOp4
 70
     1
102
RTVSPropertyOp5
 70
     1
102
RTVSPropertyOp6
 70
     1
102
RTVSPropertyOp7
 70
     1
102
RTVSPropertyOp8
 70
     1
102
RTVSPropertyOp9
 70
     1
102
RTVSPropertyOp10
 70
     1
102
RTVSPropertyOp11
 70
     1
102
RTVSPropertyOp12
 70
     1
102
RTVSPropertyOp13
 70
     1
102
RTVSPropertyOp14
 70
     1
102
RTVSPropertyOp15
 70
     1
102
RTVSPropertyOp16
 70
     1
102
RTVSPropertyOp17
 70
     1
102
RTVSPropertyOp18
 70
     1
102
RTVSPropertyOp19
 70
     1
102
RTVSPropertyOp20
 70
     1
102
RTVSPropertyOp21
 70
     1
102
RTVSPropertyOp22
 70
     1
102
RTVSPropertyOp23
 70
     1
102
RTVSPropertyOp24
 70
     1
102
RTVSPropertyOp25
 70
     1
102
RTVSPropertyOp26
 70
     1
102
RTVSPropertyOp27
 70
     1
102
RTVSPropertyOp28
 70
     1
102
RTVSPropertyOp29
 70
     1
102
RTVSPropertyOp30
 70
     1
102
RTVSPropertyOp31
 70
     1
102
RTVSPropertyOp32
 70
     1
  0
XRECORD
  5
1EF
102
{ACAD_REACTORS
330
1EE
102
}
330
1EE
100
AcDbXrecord
280
     1
102
RTVSPropertyOp0
 70
     1
102
RTVSPropertyOp1
 70
     1
102
RTVSPropertyOp2
 70
     1
102
RTVSPropertyOp3
 70
     1
102
RTVSPropertyOp4
 70
     1
102
RTVSPropertyOp5
 70
     1
102
RTVSPropertyOp6
 70
     1
102
RTVSPropertyOp7
 70
     1
102
RTVSPropertyOp8
 70
     1
102
RTVSPropertyOp9
 70
     1
102
RTVSPropertyOp10
 70
     1
102
RTVSPropertyOp11
 70
     1
102
RTVSPropertyOp12
 70
     1
102
RTVSPropertyOp13
 70
     1
102
RTVSPropertyOp14
 70
     1
102
RTVSPropertyOp15
 70
     1
102
RTVSPropertyOp16
 70
     1
102
RTVSPropertyOp17
 70
     1
102
RTVSPropertyOp18
 70
     1
102
RTVSPropertyOp19
 70
     1
102
RTVSPropertyOp20
 70
     1
102
RTVSPropertyOp21
 70
     1
102
RTVSPropertyOp22
 70
     1
102
RTVSPropertyOp23
 70
     1
102
RTVSPropertyOp24
 70
     1
102
RTVSPropertyOp25
 70
     1
102
RTVSPropertyOp26
 70
     1
102
RTVSPropertyOp27
 70
     1
102
RTVSPropertyOp28
 70
     1
102
RTVSPropertyOp29
 70
     1
102
RTVSPropertyOp30
 70
     1
102
RTVSPropertyOp31
 70
     1
102
RTVSPropertyOp32
 70
     1
  0
ENDSEC
  0
EOF
