  0
SECTION
  2
HEADER
  9
$ACADVER
  1
AC1015
  9
$ACADMAINTVER
 70
     6
  9
$DWGCODEPAGE
  3
ANSI_949
  9
$INSBASE
 10
0.0
 20
0.0
 30
0.0
  9
$EXTMIN
 10
1.000000000000000E+20
 20
1.000000000000000E+20
 30
1.000000000000000E+20
  9
$EXTMAX
 10
-1.000000000000000E+20
 20
-1.000000000000000E+20
 30
-1.000000000000000E+20
  9
$LIMMIN
 10
0.0
 20
0.0
  9
$LIMMAX
 10
12.0
 20
9.0
  9
$ORTHOMODE
 70
     0
  9
$REGENMODE
 70
     1
  9
$FILLMODE
 70
     1
  9
$QTEXTMODE
 70
     0
  9
$MIRRTEXT
 70
     1
  9
$LTSCALE
 40
1.0
  9
$ATTMODE
 70
     1
  9
$TEXTSIZE
 40
0.2
  9
$TRACEWID
 40
0.05
  9
$TEXTSTYLE
  7
Standard
  9
$CLAYER
  8
0
  9
$CELTYPE
  6
ByLayer
  9
$CECOLOR
 62
   256
  9
$CELTSCALE
 40
1.0
  9
$DISPSILH
 70
     0
  9
$DIMSCALE
 40
1.0
  9
$DIMASZ
 40
0.18
  9
$DIMEXO
 40
0.0625
  9
$DIMDLI
 40
0.38
  9
$DIMRND
 40
0.0
  9
$DIMDLE
 40
0.0
  9
$DIMEXE
 40
0.18
  9
$DIMTP
 40
0.0
  9
$DIMTM
 40
0.0
  9
$DIMTXT
 40
0.18
  9
$DIMCEN
 40
0.09
  9
$DIMTSZ
 40
0.0
  9
$DIMTOL
 70
     0
  9
$DIMLIM
 70
     0
  9
$DIMTIH
 70
     1
  9
$DIMTOH
 70
     1
  9
$DIMSE1
 70
     0
  9
$DIMSE2
 70
     0
  9
$DIMTAD
 70
     0
  9
$DIMZIN
 70
     0
  9
$DIMBLK
  1

  9
$DIMASO
 70
     1
  9
$DIMSHO
 70
     1
  9
$DIMPOST
  1

  9
$DIMAPOST
  1

  9
$DIMALT
 70
     0
  9
$DIMALTD
 70
     2
  9
$DIMALTF
 40
25.4
  9
$DIMLFAC
 40
1.0
  9
$DIMTOFL
 70
     0
  9
$DIMTVP
 40
0.0
  9
$DIMTIX
 70
     0
  9
$DIMSOXD
 70
     0
  9
$DIMSAH
 70
     0
  9
$DIMBLK1
  1

  9
$DIMBLK2
  1

  9
$DIMSTYLE
  2
Standard
  9
$DIMCLRD
 70
     0
  9
$DIMCLRE
 70
     0
  9
$DIMCLRT
 70
     0
  9
$DIMTFAC
 40
1.0
  9
$DIMGAP
 40
0.09
  9
$DIMJUST
 70
     0
  9
$DIMSD1
 70
     0
  9
$DIMSD2
 70
     0
  9
$DIMTOLJ
 70
     1
  9
$DIMTZIN
 70
     0
  9
$DIMALTZ
 70
     0
  9
$DIMALTTZ
 70
     0
  9
$DIMUPT
 70
     0
  9
$DIMDEC
 70
     4
  9
$DIMTDEC
 70
     4
  9
$DIMALTU
 70
     2
  9
$DIMALTTD
 70
     2
  9
$DIMTXSTY
  7
Standard
  9
$DIMAUNIT
 70
     0
  9
$DIMADEC
 70
     0
  9
$DIMALTRND
 40
0.0
  9
$DIMAZIN
 70
     0
  9
$DIMDSEP
 70
    46
  9
$DIMATFIT
 70
     3
  9
$DIMFRAC
 70
     0
  9
$DIMLDRBLK
  1

  9
$DIMLUNIT
 70
     2
  9
$DIMLWD
 70
    -2
  9
$DIMLWE
 70
    -2
  9
$DIMTMOVE
 70
     0
  9
$LUNITS
 70
     2
  9
$LUPREC
 70
     4
  9
$SKETCHINC
 40
0.1
  9
$FILLETRAD
 40
0.5
  9
$AUNITS
 70
     0
  9
$AUPREC
 70
     0
  9
$MENU
  1
.
  9
$ELEVATION
 40
0.0
  9
$PELEVATION
 40
0.0
  9
$THICKNESS
 40
0.0
  9
$LIMCHECK
 70
     0
  9
$CHAMFERA
 40
0.5
  9
$CHAMFERB
 40
0.5
  9
$CHAMFERC
 40
1.0
  9
$CHAMFERD
 40
0.0
  9
$SKPOLY
 70
     0
  9
$TDCREATE
 40
2456522.590907188
  9
$TDUCREATE
 40
2456522.090907188
  9
$TDUPDATE
 40
2456522.590933414
  9
$TDUUPDATE
 40
2456522.090933414
  9
$TDINDWG
 40
0.0000000116
  9
$TDUSRTIMER
 40
0.0000000116
  9
$USRTIMER
 70
     1
  9
$ANGBASE
 50
0.0
  9
$ANGDIR
 70
     0
  9
$PDMODE
 70
     0
  9
$PDSIZE
 40
0.0
  9
$PLINEWID
 40
0.0
  9
$SPLFRAME
 70
     0
  9
$SPLINETYPE
 70
     6
  9
$SPLINESEGS
 70
     8
  9
$HANDSEED
  5
461
  9
$SURFTAB1
 70
     6
  9
$SURFTAB2
 70
     6
  9
$SURFTYPE
 70
     6
  9
$SURFU
 70
     6
  9
$SURFV
 70
     6
  9
$UCSBASE
  2

  9
$UCSNAME
  2

  9
$UCSORG
 10
0.0
 20
0.0
 30
0.0
  9
$UCSXDIR
 10
1.0
 20
0.0
 30
0.0
  9
$UCSYDIR
 10
0.0
 20
1.0
 30
0.0
  9
$UCSORTHOREF
  2

  9
$UCSORTHOVIEW
 70
     0
  9
$UCSORGTOP
 10
0.0
 20
0.0
 30
0.0
  9
$UCSORGBOTTOM
 10
0.0
 20
0.0
 30
0.0
  9
$UCSORGLEFT
 10
0.0
 20
0.0
 30
0.0
  9
$UCSORGRIGHT
 10
0.0
 20
0.0
 30
0.0
  9
$UCSORGFRONT
 10
0.0
 20
0.0
 30
0.0
  9
$UCSORGBACK
 10
0.0
 20
0.0
 30
0.0
  9
$PUCSBASE
  2

  9
$PUCSNAME
  2

  9
$PUCSORG
 10
0.0
 20
0.0
 30
0.0
  9
$PUCSXDIR
 10
1.0
 20
0.0
 30
0.0
  9
$PUCSYDIR
 10
0.0
 20
1.0
 30
0.0
  9
$PUCSORTHOREF
  2

  9
$PUCSORTHOVIEW
 70
     0
  9
$PUCSORGTOP
 10
0.0
 20
0.0
 30
0.0
  9
$PUCSORGBOTTOM
 10
0.0
 20
0.0
 30
0.0
  9
$PUCSORGLEFT
 10
0.0
 20
0.0
 30
0.0
  9
$PUCSORGRIGHT
 10
0.0
 20
0.0
 30
0.0
  9
$PUCSORGFRONT
 10
0.0
 20
0.0
 30
0.0
  9
$PUCSORGBACK
 10
0.0
 20
0.0
 30
0.0
  9
$USERI1
 70
     0
  9
$USERI2
 70
     0
  9
$USERI3
 70
     0
  9
$USERI4
 70
     0
  9
$USERI5
 70
     0
  9
$USERR1
 40
0.0
  9
$USERR2
 40
0.0
  9
$USERR3
 40
0.0
  9
$USERR4
 40
0.0
  9
$USERR5
 40
0.0
  9
$WORLDVIEW
 70
     1
  9
$SHADEDGE
 70
     3
  9
$SHADEDIF
 70
    70
  9
$TILEMODE
 70
     1
  9
$MAXACTVP
 70
    64
  9
$PINSBASE
 10
0.0
 20
0.0
 30
0.0
  9
$PLIMCHECK
 70
     0
  9
$PEXTMIN
 10
1.000000000000000E+20
 20
1.000000000000000E+20
 30
1.000000000000000E+20
  9
$PEXTMAX
 10
-1.000000000000000E+20
 20
-1.000000000000000E+20
 30
-1.000000000000000E+20
  9
$PLIMMIN
 10
0.0
 20
0.0
  9
$PLIMMAX
 10
12.0
 20
9.0
  9
$UNITMODE
 70
     0
  9
$VISRETAIN
 70
     1
  9
$PLINEGEN
 70
     0
  9
$PSLTSCALE
 70
     1
  9
$TREEDEPTH
 70
  3020
  9
$CMLSTYLE
  2
Standard
  9
$CMLJUST
 70
     0
  9
$CMLSCALE
 40
1.0
  9
$PROXYGRAPHICS
 70
     1
  9
$MEASUREMENT
 70
     0
  9
$CELWEIGHT
370
    -1
  9
$ENDCAPS
280
     0
  9
$JOINSTYLE
280
     0
  9
$LWDISPLAY
290
     1
  9
$INSUNITS
 70
     4
  9
$HYPERLINKBASE
  1

  9
$STYLESHEET
  1

  9
$XEDIT
290
     1
  9
$CEPSNTYPE
380
     0
  9
$PSTYLEMODE
290
     1
  9
$FINGERPRINTGUID
  2
{03A5F1B5-23A0-45B2-825F-7216F54AA667}
  9
$VERSIONGUID
  2
{FAEB1C32-E019-11D5-929B-00C0DF256EC4}
  9
$EXTNAMES
290
     1
  9
$PSVPSCALE
 40
0.0
  9
$OLESTARTUP
290
     0
  0
ENDSEC
  0
SECTION
  2
CLASSES
  0
CLASS
  1
ACDBDICTIONARYWDFLT
  2
AcDbDictionaryWithDefault
  3
ObjectDBX Classes
 90
        0
280
     0
281
     0
  0
CLASS
  1
VISUALSTYLE
  2
AcDbVisualStyle
  3
ObjectDBX Classes
 90
     4095
280
     0
281
     0
  0
CLASS
  1
MATERIAL
  2
AcDbMaterial
  3
ObjectDBX Classes
 90
     1153
280
     0
281
     0
  0
CLASS
  1
WIPEOUT
  2
AcDbWipeout
  3
WipeOut|AutoCAD Express Tool|expresstools@autodesk.com
 90
      127
280
     0
281
     1
  0
CLASS
  1
SPATIAL_FILTER
  2
AcDbSpatialFilter
  3
ObjectDBX Classes
 90
        0
280
     0
281
     0
  0
CLASS
  1
SCALE
  2
AcDbScale
  3
ObjectDBX Classes
 90
     1153
280
     0
281
     0
  0
CLASS
  1
DICTIONARYVAR
  2
AcDbDictionaryVar
  3
ObjectDBX Classes
 90
        0
280
     0
281
     0
  0
CLASS
  1
ACDBPLACEHOLDER
  2
AcDbPlaceHolder
  3
ObjectDBX Classes
 90
        0
280
     0
281
     0
  0
CLASS
  1
LAYOUT
  2
AcDbLayout
  3
ObjectDBX Classes
 90
        0
280
     0
281
     0
  0
ENDSEC
  0
SECTION
  2
TABLES
  0
TABLE
  2
VPORT
  5
8
330
0
100
AcDbSymbolTable
 70
     1
  0
VPORT
  5
29
330
8
100
AcDbSymbolTableRecord
100
AcDbViewportTableRecord
  2
*Active
 70
     0
 10
0.0
 20
0.0
 11
1.0
 21
1.0
 12
147.6203410971233
 22
97.99069963352558
 13
0.0
 23
0.0
 14
0.5
 24
0.5
 15
0.5
 25
0.5
 16
0.0
 26
0.0
 36
1.0
 17
0.0
 27
0.0
 37
0.0
 40
199.3914661037507
 41
1.459167261391891
 42
50.0
 43
0.0
 44
0.0
 50
0.0
 51
0.0
 71
     0
 72
   100
 73
     1
 74
     3
 75
     0
 76
     0
 77
     0
 78
     0
281
     0
 65
     1
110
0.0
120
0.0
130
0.0
111
1.0
121
0.0
131
0.0
112
0.0
122
1.0
132
0.0
 79
     0
146
0.0
  0
ENDTAB
  0
TABLE
  2
LTYPE
  5
5
330
0
100
AcDbSymbolTable
 70
     3
  0
LTYPE
  5
14
330
5
100
AcDbSymbolTableRecord
100
AcDbLinetypeTableRecord
  2
ByBlock
 70
     0
  3

 72
    65
 73
     0
 40
0.0
  0
LTYPE
  5
15
330
5
100
AcDbSymbolTableRecord
100
AcDbLinetypeTableRecord
  2
ByLayer
 70
     0
  3

 72
    65
 73
     0
 40
0.0
  0
LTYPE
  5
16
330
5
100
AcDbSymbolTableRecord
100
AcDbLinetypeTableRecord
  2
Continuous
 70
     0
  3
Solid line
 72
    65
 73
     0
 40
0.0
  0
LTYPE
  5
3C9
330
5
100
AcDbSymbolTableRecord
100
AcDbLinetypeTableRecord
  2
Dashed
 70
     0
  3
- - - - - 
 72
    65
 73
     2
 40
5.644444465637207
 49
2.822222232818604
 74
     0
 49
-2.822222232818603
 74
     0
  0
LTYPE
  5
3DA
330
5
100
AcDbSymbolTableRecord
100
AcDbLinetypeTableRecord
  2
Wipeout_Contour
 70
     0
  3
- - - - - 
 72
    65
 73
     2
 40
1000.0
 49
0.0
 74
     0
 49
-1000.0
 74
     0
  0
ENDTAB
  0
TABLE
  2
LAYER
  5
2
330
0
100
AcDbSymbolTable
 70
     3
  0
LAYER
  5
10
330
2
100
AcDbSymbolTableRecord
100
AcDbLayerTableRecord
  2
0
 70
     0
 62
     7
  6
Continuous
370
    -3
390
F
  0
LAYER
  5
40
330
2
100
AcDbSymbolTableRecord
100
AcDbLayerTableRecord
  2
Doc_ Finishes
 70
     0
 62
     7
  6
Continuous
370
    -3
390
F
  0
LAYER
  5
DB
330
2
100
AcDbSymbolTableRecord
100
AcDbLayerTableRecord
  2
Doc_ Floor
 70
     0
 62
     7
  6
Continuous
370
    -3
390
F
  0
ENDTAB
  0
TABLE
  2
STYLE
  5
3
330
0
100
AcDbSymbolTable
 70
     3
  0
STYLE
  5
11
330
3
100
AcDbSymbolTableRecord
100
AcDbTextStyleTableRecord
  2
Standard
 70
     0
 40
0.0
 41
1.0
 50
0.0
 71
     0
 42
0.2
  3
txt
  4

  0
STYLE
  5
D6
330
3
100
AcDbSymbolTableRecord
100
AcDbTextStyleTableRecord
  2
GENERATED_STYLE_1
 70
     0
 40
0.0
 41
1.0
 50
0.0
 71
     0
 42
0.2
  3

  4

1001
ACAD
1000
Century Gothic
1071
       34
  0
STYLE
  5
D9
330
3
100
AcDbSymbolTableRecord
100
AcDbTextStyleTableRecord
  2
GENERATED_STYLE_2
 70
     0
 40
0.0
 41
1.0
 50
0.0
 71
     0
 42
0.2
  3

  4

1001
ACAD
1000
DilleniaUPC
1071
 33554450
  0
ENDTAB
  0
TABLE
  2
VIEW
  5
6
330
0
100
AcDbSymbolTable
 70
     0
  0
ENDTAB
  0
TABLE
  2
UCS
  5
7
330
0
100
AcDbSymbolTable
 70
     0
  0
ENDTAB
  0
TABLE
  2
APPID
  5
9
330
0
100
AcDbSymbolTable
 70
     1
  0
APPID
  5
12
330
9
100
AcDbSymbolTableRecord
100
AcDbRegAppTableRecord
  2
ACAD
 70
     0
  0
ENDTAB
  0
TABLE
  2
DIMSTYLE
  5
A
330
0
100
AcDbSymbolTable
 70
     1
100
AcDbDimStyleTable
  0
DIMSTYLE
105
27
330
A
100
AcDbSymbolTableRecord
100
AcDbDimStyleTableRecord
  2
Standard
 70
     0
178
     0
340
11
  0
ENDTAB
  0
TABLE
  2
BLOCK_RECORD
  5
1
330
0
100
AcDbSymbolTable
 70
     3
  0
BLOCK_RECORD
  5
1F
330
1
100
AcDbSymbolTableRecord
100
AcDbBlockTableRecord
  2
*Model_Space
340
22
  0
BLOCK_RECORD
  5
1B
330
1
100
AcDbSymbolTableRecord
100
AcDbBlockTableRecord
  2
*Paper_Space
340
1E
  0
BLOCK_RECORD
  5
E3
330
1
100
AcDbSymbolTableRecord
100
AcDbBlockTableRecord
  2
Drawing_1_2
340
0
102
{BLKREFS
331
405
102
}
  0
BLOCK_RECORD
  5
409
330
1
100
AcDbSymbolTableRecord
100
AcDbBlockTableRecord
  2
R-TRSS-02 TYPICAL ROOF LAYOUT -_STORY_MARKER
340
0
  0
ENDTAB
  0
ENDSEC
  0
SECTION
  2
BLOCKS
  0
BLOCK
  5
20
330
1F
100
AcDbEntity
  8
0
100
AcDbBlockBegin
  2
*Model_Space
 70
     0
 10
0.0
 20
0.0
 30
0.0
  3
*Model_Space
  1

  0
ENDBLK
  5
21
330
1F
100
AcDbEntity
  8
0
100
AcDbBlockEnd
  0
BLOCK
  5
1C
330
1B
100
AcDbEntity
 67
     1
  8
0
100
AcDbBlockBegin
  2
*Paper_Space
 70
     0
 10
0.0
 20
0.0
 30
0.0
  3
*Paper_Space
  1

  0
ENDBLK
  5
1D
330
1B
100
AcDbEntity
 67
     1
  8
0
100
AcDbBlockEnd
  0
BLOCK
  5
E4
330
E3
100
AcDbEntity
  8
0
100
AcDbBlockBegin
  2
Drawing_1_2
 70
     0
 10
-638.383264183377
 20
293.9742688676208
 30
0.0
  3
Drawing_1_2
  1

  0
HATCH
  5
E6
330
E3
100
AcDbEntity
  8
0
  6
Continuous
 62
   255
370
     0
100
AcDbHatch
 10
0.0
 20
0.0
 30
0.0
210
0.0
220
0.0
230
1.0
  2
SOLID
 70
     1
 71
     0
 91
        1
 92
        3
 72
     0
 73
     1
 93
        4
 10
51.41825492195207
 20
120.9308614082602
 10
54.54392211995685
 20
103.2043218540404
 10
63.40719189706667
 20
104.7671554530428
 10
60.281524699062
 20
122.4936950072625
 97
        0
 75
     0
 76
     1
 98
        0
  0
LINE
  5
E7
330
E3
100
AcDbEntity
  8
0
  6
Continuous
100
AcDbLine
 10
54.54392284628655
 20
103.2043225785474
 30
0.0
 11
60.28152314584038
 21
122.4936930752779
 31
0.0
  0
LINE
  5
E8
330
E3
100
AcDbEntity
  8
0
  6
Continuous
100
AcDbLine
 10
51.41825320196321
 20
120.9308624663017
 30
0.0
 11
63.40719279016371
 21
104.767157400709
 31
0.0
  0
LINE
  5
E9
330
E3
100
AcDbEntity
  8
0
  6
Continuous
100
AcDbLine
 10
51.41825320196321
 20
120.9308624663017
 30
0.0
 11
54.54392284628655
 21
103.2043225785474
 31
0.0
  0
LINE
  5
EA
330
E3
100
AcDbEntity
  8
0
  6
Continuous
100
AcDbLine
 10
54.54392284628655
 20
103.2043225785474
 30
0.0
 11
63.40719279016371
 21
104.767157400709
 31
0.0
  0
LINE
  5
EB
330
E3
100
AcDbEntity
  8
0
  6
Continuous
100
AcDbLine
 10
63.40719279016371
 20
104.767157400709
 30
0.0
 11
60.28152314584038
 21
122.4936930752779
 31
0.0
  0
LINE
  5
EC
330
E3
100
AcDbEntity
  8
0
  6
Continuous
100
AcDbLine
 10
60.28152314584038
 20
122.4936930752779
 30
0.0
 11
51.41825320196321
 21
120.9308624663017
 31
0.0
  0
HATCH
  5
ED
330
E3
100
AcDbEntity
  8
0
  6
Continuous
 62
   255
370
     0
100
AcDbHatch
 10
0.0
 20
0.0
 30
0.0
210
0.0
220
0.0
230
1.0
  2
SOLID
 70
     1
 71
     0
 91
        1
 92
        3
 72
     0
 73
     1
 93
        4
 10
228.6836504641496
 20
152.1875333883077
 10
231.8093176621544
 20
134.4609938340879
 10
240.6725874392642
 20
136.0238274330903
 10
237.5469202412594
 20
153.75036698731
 97
        0
 75
     0
 76
     1
 98
        0
  0
LINE
  5
EE
330
E3
100
AcDbEntity
  8
0
  6
Continuous
100
AcDbLine
 10
231.8093175106444
 20
134.4609937426676
 30
0.0
 11
237.5469220233838
 21
153.7503684525836
 31
0.0
  0
LINE
  5
EF
330
E3
100
AcDbEntity
  8
0
  6
Continuous
100
AcDbLine
 10
228.6836520795066
 20
152.1875336304219
 30
0.0
 11
240.6725874545216
 21
136.0238285648292
 31
0.0
  0
LINE
  5
F0
330
E3
100
AcDbEntity
  8
0
  6
Continuous
100
AcDbLine
 10
228.6836520795066
 20
152.1875336304219
 30
0.0
 11
231.8093175106444
 21
134.4609937426676
 31
0.0
  0
LINE
  5
F1
330
E3
100
AcDbEntity
  8
0
  6
Continuous
100
AcDbLine
 10
231.8093175106444
 20
134.4609937426676
 30
0.0
 11
240.6725874545216
 21
136.0238285648292
 31
0.0
  0
LINE
  5
F2
330
E3
100
AcDbEntity
  8
0
  6
Continuous
100
AcDbLine
 10
240.6725874545216
 20
136.0238285648292
 30
0.0
 11
237.5469220233838
 21
153.7503684525836
 31
0.0
  0
LINE
  5
F3
330
E3
100
AcDbEntity
  8
0
  6
Continuous
100
AcDbLine
 10
237.5469220233838
 20
153.7503684525836
 30
0.0
 11
228.6836520795066
 21
152.1875336304219
 31
0.0
  0
HATCH
  5
F4
330
E3
100
AcDbEntity
  8
0
  6
Continuous
 62
   255
370
     0
100
AcDbHatch
 10
0.0
 20
0.0
 30
0.0
210
0.0
220
0.0
230
1.0
  2
SOLID
 70
     1
 71
     0
 91
        1
 92
        3
 72
     0
 73
     1
 93
        5
 10
4.999999860259679
 20
92.51425667491345
 10
4.999999860259679
 20
84.51848067116526
 10
10.23127218581231
 20
54.85045902203939
 10
287.741826049909
 20
103.783055506126
 10
287.741826049909
 20
142.3692680013853
 97
        0
 75
     0
 76
     1
 98
        0
  0
LINE
  5
F5
330
E3
100
AcDbEntity
  8
0
  6
Continuous
100
AcDbLine
 10
10.2312743238482
 20
54.85045848475574
 30
0.0
 11
287.7418263997194
 21
103.7830525259939
 31
0.0
  0
LINE
  5
F6
330
E3
100
AcDbEntity
  8
0
  6
Continuous
100
AcDbLine
 10
287.7418221045973
 20
142.3692671828286
 30
0.0
 11
4.999997872340384
 21
92.51425572049199
 31
0.0
  0
LINE
  5
F7
330
E3
100
AcDbEntity
  8
0
  6
Continuous
100
AcDbLine
 10
5.000001336460553
 20
84.51847110031765
 30
0.0
 11
10.23127266350001
 21
54.85045625006404
 31
0.0
  0
HATCH
  5
F8
330
E3
100
AcDbEntity
  8
0
  6
Continuous
 62
   255
370
     0
100
AcDbHatch
 10
0.0
 20
0.0
 30
0.0
210
0.0
220
0.0
230
1.0
  2
SOLID
 70
     1
 71
     0
 91
        1
 92
        3
 72
     0
 73
     1
 93
        4
 10
287.7418234728348
 20
141.517067395871
 10
4.999998185591933
 20
91.66205399969367
 10
4.999998185591933
 20
89.63120062062427
 10
287.7418234728348
 20
139.4862140168016
 97
        0
 75
     0
 76
     1
 98
        0
  0
HATCH
  5
F9
330
E3
100
AcDbEntity
  8
0
  6
Continuous
100
AcDbHatch
 10
0.0
 20
0.0
 30
0.0
210
0.0
220
0.0
230
1.0
  2
Plaster_0002
 70
     0
 71
     0
 91
        1
 92
        3
 72
     0
 73
     1
 93
        4
 10
287.7418234728348
 20
141.517067395871
 10
4.999998185591933
 20
91.66205399969367
 10
4.999998185591933
 20
89.63120062062427
 10
287.7418234728348
 20
139.4862140168016
 97
        0
 75
     0
 76
     2
 52
0.0
 41
1.0
 77
     0
 78
     2
 53
0.0
 43
-638.383264183377
 44
293.9742688676208
 45
0.0
 46
1.732050807568877
 79
     2
 49
0.0
 49
-1.0
 53
0.0
 43
-637.883264183377
 44
294.8402942558616
 45
0.0
 46
1.732050807568877
 79
     2
 49
0.0
 49
-1.0
 98
        0
  0
LINE
  5
FA
330
E3
100
AcDbEntity
  8
0
  6
Continuous
100
AcDbLine
 10
5.000000575420587
 20
89.63120531927055
 30
0.0
 11
287.7418248076775
 21
139.4862167816071
 31
0.0
  0
LINE
  5
FB
330
E3
100
AcDbEntity
  8
0
  6
Continuous
100
AcDbLine
 10
287.7418224287976
 20
141.5170707165215
 30
0.0
 11
4.999998196540549
 21
91.66205476915277
 31
0.0
  0
LINE
  5
FC
330
E3
100
AcDbEntity
  8
0
  6
Continuous
 62
   251
370
    35
100
AcDbLine
 10
63.40719279016371
 20
104.767157400709
 30
0.0
 11
64.88187091858623
 21
105.521877961767
 31
0.0
  0
LINE
  5
FD
330
E3
100
AcDbEntity
  8
0
  6
Continuous
 62
   251
370
    35
100
AcDbLine
 10
64.88187091858623
 20
105.521877961767
 30
0.0
 11
65.86982500344523
 21
106.9328148065162
 31
0.0
  0
LINE
  5
FE
330
E3
100
AcDbEntity
  8
0
  6
Continuous
 62
   251
370
    35
100
AcDbLine
 10
65.86982500344523
 20
106.9328148065162
 30
0.0
 11
66.07465744368211
 21
108.5766944652659
 31
0.0
  0
LINE
  5
FF
330
E3
100
AcDbEntity
  8
0
  6
Continuous
 62
   251
370
    35
100
AcDbLine
 10
66.07465744368211
 20
108.5766944652659
 30
0.0
 11
64.88243127225986
 21
110.4284232050819
 31
0.0
  0
LINE
  5
100
330
E3
100
AcDbEntity
  8
0
  6
Continuous
 62
   251
370
    35
100
AcDbLine
 10
64.88243127225986
 20
110.4284232050819
 30
0.0
 11
62.91302826097876
 21
112.4794229802536
 31
0.0
  0
LINE
  5
101
330
E3
100
AcDbEntity
  8
0
  6
Continuous
 62
   251
370
    35
100
AcDbLine
 10
62.91302826097876
 20
112.4794229802536
 30
0.0
 11
61.72080208955651
 21
114.3311517200697
 31
0.0
  0
LINE
  5
102
330
E3
100
AcDbEntity
  8
0
  6
Continuous
 62
   251
370
    35
100
AcDbLine
 10
61.72080208955651
 20
114.3311517200697
 30
0.0
 11
61.9256345297934
 21
115.9750313788193
 31
0.0
  0
LINE
  5
103
330
E3
100
AcDbEntity
  8
0
  6
Continuous
 62
   251
370
    35
100
AcDbLine
 10
61.9256345297934
 20
115.9750313788193
 30
0.0
 11
62.9135886146524
 21
117.385972436754
 31
0.0
  0
LINE
  5
104
330
E3
100
AcDbEntity
  8
0
  6
Continuous
 62
   251
370
    35
100
AcDbLine
 10
62.9135886146524
 20
117.385972436754
 30
0.0
 11
64.38826674307491
 21
118.140692997812
 31
0.0
  0
LINE
  5
105
330
E3
100
AcDbEntity
  8
0
  6
Continuous
 62
   251
370
    35
100
AcDbLine
 10
69.88419872142447
 20
105.9092255985619
 30
0.0
 11
68.24031906267483
 21
106.1140622519844
 31
0.0
  0
LINE
  5
106
330
E3
100
AcDbEntity
  8
0
  6
Continuous
 62
   251
370
    35
100
AcDbLine
 10
68.24031906267483
 20
106.1140622519844
 30
0.0
 11
66.8293780047401
 21
107.1020121236578
 31
0.0
  0
LINE
  5
107
330
E3
100
AcDbEntity
  8
0
  6
Continuous
 62
   251
370
    35
100
AcDbLine
 10
66.8293780047401
 20
107.1020121236578
 30
0.0
 11
66.07465744368211
 21
108.5766944652659
 31
0.0
  0
LINE
  5
108
330
E3
100
AcDbEntity
  8
0
  6
Continuous
 62
   251
370
    35
100
AcDbLine
 10
66.07465744368211
 20
108.5766944652659
 30
0.0
 11
66.56165534430419
 21
110.7245174567834
 31
0.0
  0
LINE
  5
109
330
E3
100
AcDbEntity
  8
0
  6
Continuous
 62
   251
370
    35
100
AcDbLine
 10
66.56165534430419
 20
110.7245174567834
 30
0.0
 11
67.71081012019519
 21
113.3254011395906
 31
0.0
  0
LINE
  5
10A
330
E3
100
AcDbEntity
  8
0
  6
Continuous
 62
   251
370
    35
100
AcDbLine
 10
67.71081012019519
 20
113.3254011395906
 30
0.0
 11
68.19780380763173
 21
115.4732241311081
 31
0.0
  0
LINE
  5
10B
330
E3
100
AcDbEntity
  8
0
  6
Continuous
 62
   251
370
    35
100
AcDbLine
 10
68.19780380763173
 20
115.4732241311081
 30
0.0
 11
67.44308324657375
 21
116.9479064727161
 31
0.0
  0
LINE
  5
10C
330
E3
100
AcDbEntity
  8
0
  6
Continuous
 62
   251
370
    35
100
AcDbLine
 10
67.44308324657375
 20
116.9479064727161
 30
0.0
 11
66.03214640182453
 21
117.9358563443896
 31
0.0
  0
LINE
  5
10D
330
E3
100
AcDbEntity
  8
0
  6
Continuous
 62
   251
370
    35
100
AcDbLine
 10
66.03214640182453
 20
117.9358563443896
 30
0.0
 11
64.38826674307491
 21
118.140692997812
 31
0.0
  0
LINE
  5
10E
330
E3
100
AcDbEntity
  8
0
  6
Continuous
 62
   251
370
    35
100
AcDbLine
 10
69.88419872142447
 20
105.9092255985619
 30
0.0
 11
71.35887684984698
 21
106.6639461596199
 31
0.0
  0
LINE
  5
10F
330
E3
100
AcDbEntity
  8
0
  6
Continuous
 62
   251
370
    35
100
AcDbLine
 10
71.35887684984698
 20
106.6639461596199
 30
0.0
 11
72.34682672152046
 21
108.0748872175547
 31
0.0
  0
LINE
  5
110
330
E3
100
AcDbEntity
  8
0
  6
Continuous
 62
   251
370
    35
100
AcDbLine
 10
72.34682672152046
 20
108.0748872175547
 30
0.0
 11
72.55166337494288
 21
109.7187626631188
 31
0.0
  0
LINE
  5
111
330
E3
100
AcDbEntity
  8
0
  6
Continuous
 62
   251
370
    35
100
AcDbLine
 10
72.55166337494288
 20
109.7187626631188
 30
0.0
 11
71.35943720352061
 21
111.5704956161204
 31
0.0
  0
LINE
  5
112
330
E3
100
AcDbEntity
  8
0
  6
Continuous
 62
   251
370
    35
100
AcDbLine
 10
71.35943720352061
 20
111.5704956161204
 30
0.0
 11
69.3900341922395
 21
113.621495391292
 31
0.0
  0
LINE
  5
113
330
E3
100
AcDbEntity
  8
0
  6
Continuous
 62
   251
370
    35
100
AcDbLine
 10
69.3900341922395
 20
113.621495391292
 30
0.0
 11
68.19780380763173
 21
115.4732241311081
 31
0.0
  0
LINE
  5
114
330
E3
100
AcDbEntity
  8
0
  6
Continuous
 62
   251
370
    35
100
AcDbLine
 10
68.19780380763173
 20
115.4732241311081
 30
0.0
 11
68.40264046105415
 21
117.1170995766722
 31
0.0
  0
LINE
  5
115
330
E3
100
AcDbEntity
  8
0
  6
Continuous
 62
   251
370
    35
100
AcDbLine
 10
68.40264046105415
 20
117.1170995766722
 30
0.0
 11
69.39059033272763
 21
118.528040634607
 31
0.0
  0
LINE
  5
116
330
E3
100
AcDbEntity
  8
0
  6
Continuous
 62
   251
370
    35
100
AcDbLine
 10
69.39059033272763
 20
118.528040634607
 30
0.0
 11
70.86527267433566
 21
119.2827611956649
 31
0.0
  0
LINE
  5
117
330
E3
100
AcDbEntity
  8
0
  6
Continuous
 62
   251
370
    35
100
AcDbLine
 10
76.3612004394997
 20
107.0512980096004
 30
0.0
 11
74.71732499393559
 21
107.2561304498373
 31
0.0
  0
LINE
  5
118
330
E3
100
AcDbEntity
  8
0
  6
Continuous
 62
   251
370
    35
100
AcDbLine
 10
74.71732499393559
 20
107.2561304498373
 30
0.0
 11
73.30638393600084
 21
108.2440845346963
 31
0.0
  0
LINE
  5
119
330
E3
100
AcDbEntity
  8
0
  6
Continuous
 62
   251
370
    35
100
AcDbLine
 10
73.30638393600084
 20
108.2440845346963
 30
0.0
 11
72.55166337494288
 21
109.7187626631188
 31
0.0
  0
LINE
  5
11A
330
E3
100
AcDbEntity
  8
0
  6
Continuous
 62
   251
370
    35
100
AcDbLine
 10
72.55166337494288
 20
109.7187626631188
 30
0.0
 11
73.03866127556492
 21
111.8665856546363
 31
0.0
  0
LINE
  5
11B
330
E3
100
AcDbEntity
  8
0
  6
Continuous
 62
   251
370
    35
100
AcDbLine
 10
73.03866127556492
 20
111.8665856546363
 30
0.0
 11
74.18781183827042
 21
114.467473550629
 31
0.0
  0
LINE
  5
11C
330
E3
100
AcDbEntity
  8
0
  6
Continuous
 62
   251
370
    35
100
AcDbLine
 10
74.18781183827042
 20
114.467473550629
 30
0.0
 11
74.67480973889248
 21
116.6152965421465
 31
0.0
  0
LINE
  5
11D
330
E3
100
AcDbEntity
  8
0
  6
Continuous
 62
   251
370
    35
100
AcDbLine
 10
74.67480973889248
 20
116.6152965421465
 30
0.0
 11
73.9200891778345
 21
118.089974670569
 31
0.0
  0
LINE
  5
11E
330
E3
100
AcDbEntity
  8
0
  6
Continuous
 62
   251
370
    35
100
AcDbLine
 10
73.9200891778345
 20
118.089974670569
 30
0.0
 11
72.50914811989976
 21
119.077928755428
 31
0.0
  0
LINE
  5
11F
330
E3
100
AcDbEntity
  8
0
  6
Continuous
 62
   251
370
    35
100
AcDbLine
 10
72.50914811989976
 20
119.077928755428
 30
0.0
 11
70.86527267433566
 21
119.2827611956649
 31
0.0
  0
LINE
  5
120
330
E3
100
AcDbEntity
  8
0
  6
Continuous
 62
   251
370
    35
100
AcDbLine
 10
76.3612004394997
 20
107.0512980096004
 30
0.0
 11
77.83588278110771
 21
107.8060185706583
 31
0.0
  0
LINE
  5
121
330
E3
100
AcDbEntity
  8
0
  6
Continuous
 62
   251
370
    35
100
AcDbLine
 10
77.83588278110771
 20
107.8060185706583
 30
0.0
 11
78.8238326527812
 21
109.2169596285931
 31
0.0
  0
LINE
  5
122
330
E3
100
AcDbEntity
  8
0
  6
Continuous
 62
   251
370
    35
100
AcDbLine
 10
78.8238326527812
 20
109.2169596285931
 30
0.0
 11
79.02866930620361
 21
110.8608350741572
 31
0.0
  0
LINE
  5
123
330
E3
100
AcDbEntity
  8
0
  6
Continuous
 62
   251
370
    35
100
AcDbLine
 10
79.02866930620361
 20
110.8608350741572
 30
0.0
 11
77.83644313478136
 21
112.7125638139733
 31
0.0
  0
LINE
  5
124
330
E3
100
AcDbEntity
  8
0
  6
Continuous
 62
   251
370
    35
100
AcDbLine
 10
77.83644313478136
 20
112.7125638139733
 30
0.0
 11
75.86703591031474
 21
114.763563589145
 31
0.0
  0
LINE
  5
125
330
E3
100
AcDbEntity
  8
0
  6
Continuous
 62
   251
370
    35
100
AcDbLine
 10
75.86703591031474
 20
114.763563589145
 30
0.0
 11
74.67480973889248
 21
116.6152965421465
 31
0.0
  0
LINE
  5
126
330
E3
100
AcDbEntity
  8
0
  6
Continuous
 62
   251
370
    35
100
AcDbLine
 10
74.67480973889248
 20
116.6152965421465
 30
0.0
 11
74.8796463923149
 21
118.2591719877106
 31
0.0
  0
LINE
  5
127
330
E3
100
AcDbEntity
  8
0
  6
Continuous
 62
   251
370
    35
100
AcDbLine
 10
74.8796463923149
 20
118.2591719877106
 30
0.0
 11
75.86759626398839
 21
119.6701130456454
 31
0.0
  0
LINE
  5
128
330
E3
100
AcDbEntity
  8
0
  6
Continuous
 62
   251
370
    35
100
AcDbLine
 10
75.86759626398839
 20
119.6701130456454
 30
0.0
 11
77.34227860559639
 21
120.4248336067034
 31
0.0
  0
LINE
  5
129
330
E3
100
AcDbEntity
  8
0
  6
Continuous
 62
   251
370
    35
100
AcDbLine
 10
82.83820637076043
 20
108.1933662074533
 30
0.0
 11
81.19433092519631
 21
108.3982028608757
 31
0.0
  0
LINE
  5
12A
330
E3
100
AcDbEntity
  8
0
  6
Continuous
 62
   251
370
    35
100
AcDbLine
 10
81.19433092519631
 20
108.3982028608757
 30
0.0
 11
79.78338986726158
 21
109.3861527325492
 31
0.0
  0
LINE
  5
12B
330
E3
100
AcDbEntity
  8
0
  6
Continuous
 62
   251
370
    35
100
AcDbLine
 10
79.78338986726158
 20
109.3861527325492
 30
0.0
 11
79.02866930620361
 21
110.8608350741572
 31
0.0
  0
LINE
  5
12C
330
E3
100
AcDbEntity
  8
0
  6
Continuous
 62
   251
370
    35
100
AcDbLine
 10
79.02866930620361
 20
110.8608350741572
 30
0.0
 11
79.51566720682567
 21
113.0086580656747
 31
0.0
  0
LINE
  5
12D
330
E3
100
AcDbEntity
  8
0
  6
Continuous
 62
   251
370
    35
100
AcDbLine
 10
79.51566720682567
 20
113.0086580656747
 30
0.0
 11
80.66481776953117
 21
115.609541748482
 31
0.0
  0
LINE
  5
12E
330
E3
100
AcDbEntity
  8
0
  6
Continuous
 62
   251
370
    35
100
AcDbLine
 10
80.66481776953117
 20
115.609541748482
 30
0.0
 11
81.15181567015323
 21
117.7573647399994
 31
0.0
  0
LINE
  5
12F
330
E3
100
AcDbEntity
  8
0
  6
Continuous
 62
   251
370
    35
100
AcDbLine
 10
81.15181567015323
 20
117.7573647399994
 30
0.0
 11
80.39709510909523
 21
119.2320470816075
 31
0.0
  0
LINE
  5
130
330
E3
100
AcDbEntity
  8
0
  6
Continuous
 62
   251
370
    35
100
AcDbLine
 10
80.39709510909523
 20
119.2320470816075
 30
0.0
 11
78.9861540511605
 21
120.219996953281
 31
0.0
  0
LINE
  5
131
330
E3
100
AcDbEntity
  8
0
  6
Continuous
 62
   251
370
    35
100
AcDbLine
 10
78.9861540511605
 20
120.219996953281
 30
0.0
 11
77.34227860559639
 21
120.4248336067034
 31
0.0
  0
LINE
  5
132
330
E3
100
AcDbEntity
  8
0
  6
Continuous
 62
   251
370
    35
100
AcDbLine
 10
82.83820637076043
 20
108.1933662074533
 30
0.0
 11
84.31288871236846
 21
108.9480867685113
 31
0.0
  0
LINE
  5
133
330
E3
100
AcDbEntity
  8
0
  6
Continuous
 62
   251
370
    35
100
AcDbLine
 10
84.31288871236846
 20
108.9480867685113
 30
0.0
 11
85.30083858404193
 21
110.359027826446
 31
0.0
  0
LINE
  5
134
330
E3
100
AcDbEntity
  8
0
  6
Continuous
 62
   251
370
    35
100
AcDbLine
 10
85.30083858404193
 20
110.359027826446
 30
0.0
 11
85.50567523746435
 21
112.0029032720101
 31
0.0
  0
LINE
  5
135
330
E3
100
AcDbEntity
  8
0
  6
Continuous
 62
   251
370
    35
100
AcDbLine
 10
85.50567523746435
 20
112.0029032720101
 30
0.0
 11
84.3134490660421
 21
113.8546362250117
 31
0.0
  0
LINE
  5
136
330
E3
100
AcDbEntity
  8
0
  6
Continuous
 62
   251
370
    35
100
AcDbLine
 10
84.3134490660421
 20
113.8546362250117
 30
0.0
 11
82.34404184157547
 21
115.9056360001834
 31
0.0
  0
LINE
  5
137
330
E3
100
AcDbEntity
  8
0
  6
Continuous
 62
   251
370
    35
100
AcDbLine
 10
82.34404184157547
 20
115.9056360001834
 30
0.0
 11
81.15181567015323
 21
117.7573647399994
 31
0.0
  0
LINE
  5
138
330
E3
100
AcDbEntity
  8
0
  6
Continuous
 62
   251
370
    35
100
AcDbLine
 10
81.15181567015323
 20
117.7573647399994
 30
0.0
 11
81.35665232357564
 21
119.4012443987491
 31
0.0
  0
LINE
  5
139
330
E3
100
AcDbEntity
  8
0
  6
Continuous
 62
   251
370
    35
100
AcDbLine
 10
81.35665232357564
 20
119.4012443987491
 30
0.0
 11
82.34460219524911
 21
120.8121812434983
 31
0.0
  0
LINE
  5
13A
330
E3
100
AcDbEntity
  8
0
  6
Continuous
 62
   251
370
    35
100
AcDbLine
 10
82.34460219524911
 20
120.8121812434983
 30
0.0
 11
83.81928453685713
 21
121.5669018045563
 31
0.0
  0
LINE
  5
13B
330
E3
100
AcDbEntity
  8
0
  6
Continuous
 62
   251
370
    35
100
AcDbLine
 10
89.31521230202118
 20
109.3354386184917
 30
0.0
 11
87.67133264327155
 21
109.5402752719141
 31
0.0
  0
LINE
  5
13C
330
E3
100
AcDbEntity
  8
0
  6
Continuous
 62
   251
370
    35
100
AcDbLine
 10
87.67133264327155
 20
109.5402752719141
 30
0.0
 11
86.26039579852234
 21
110.5282251435876
 31
0.0
  0
LINE
  5
13D
330
E3
100
AcDbEntity
  8
0
  6
Continuous
 62
   251
370
    35
100
AcDbLine
 10
86.26039579852234
 20
110.5282251435876
 30
0.0
 11
85.50567523746435
 21
112.0029032720101
 31
0.0
  0
LINE
  5
13E
330
E3
100
AcDbEntity
  8
0
  6
Continuous
 62
   251
370
    35
100
AcDbLine
 10
85.50567523746435
 20
112.0029032720101
 30
0.0
 11
85.99266892490088
 21
114.1507304767131
 31
0.0
  0
LINE
  5
13F
330
E3
100
AcDbEntity
  8
0
  6
Continuous
 62
   251
370
    35
100
AcDbLine
 10
85.99266892490088
 20
114.1507304767131
 30
0.0
 11
87.1418237007919
 21
116.7516141595204
 31
0.0
  0
LINE
  5
140
330
E3
100
AcDbEntity
  8
0
  6
Continuous
 62
   251
370
    35
100
AcDbLine
 10
87.1418237007919
 20
116.7516141595204
 30
0.0
 11
87.62882160141396
 21
118.8994371510379
 31
0.0
  0
LINE
  5
141
330
E3
100
AcDbEntity
  8
0
  6
Continuous
 62
   251
370
    35
100
AcDbLine
 10
87.62882160141396
 20
118.8994371510379
 30
0.0
 11
86.87410104035598
 21
120.3741194926459
 31
0.0
  0
LINE
  5
142
330
E3
100
AcDbEntity
  8
0
  6
Continuous
 62
   251
370
    35
100
AcDbLine
 10
86.87410104035598
 20
120.3741194926459
 30
0.0
 11
85.46315998242125
 21
121.3620693643194
 31
0.0
  0
LINE
  5
143
330
E3
100
AcDbEntity
  8
0
  6
Continuous
 62
   251
370
    35
100
AcDbLine
 10
85.46315998242125
 20
121.3620693643194
 30
0.0
 11
83.81928453685713
 21
121.5669018045563
 31
0.0
  0
LINE
  5
144
330
E3
100
AcDbEntity
  8
0
  6
Continuous
 62
   251
370
    35
100
AcDbLine
 10
89.31521230202118
 20
109.3354386184917
 30
0.0
 11
90.78989043044368
 21
110.0901591795497
 31
0.0
  0
LINE
  5
145
330
E3
100
AcDbEntity
  8
0
  6
Continuous
 62
   251
370
    35
100
AcDbLine
 10
90.78989043044368
 20
110.0901591795497
 30
0.0
 11
91.77784451530269
 21
111.5011002374845
 31
0.0
  0
LINE
  5
146
330
E3
100
AcDbEntity
  8
0
  6
Continuous
 62
   251
370
    35
100
AcDbLine
 10
91.77784451530269
 20
111.5011002374845
 30
0.0
 11
91.98267695553956
 21
113.1449756830486
 31
0.0
  0
LINE
  5
147
330
E3
100
AcDbEntity
  8
0
  6
Continuous
 62
   251
370
    35
100
AcDbLine
 10
91.98267695553956
 20
113.1449756830486
 30
0.0
 11
90.79045078411733
 21
114.9967086360501
 31
0.0
  0
LINE
  5
148
330
E3
100
AcDbEntity
  8
0
  6
Continuous
 62
   251
370
    35
100
AcDbLine
 10
90.79045078411733
 20
114.9967086360501
 30
0.0
 11
88.82104777283621
 21
117.0477041980363
 31
0.0
  0
LINE
  5
149
330
E3
100
AcDbEntity
  8
0
  6
Continuous
 62
   251
370
    35
100
AcDbLine
 10
88.82104777283621
 20
117.0477041980363
 30
0.0
 11
87.62882160141396
 21
118.8994371510379
 31
0.0
  0
LINE
  5
14A
330
E3
100
AcDbEntity
  8
0
  6
Continuous
 62
   251
370
    35
100
AcDbLine
 10
87.62882160141396
 20
118.8994371510379
 30
0.0
 11
87.83365404165086
 21
120.543312596602
 31
0.0
  0
LINE
  5
14B
330
E3
100
AcDbEntity
  8
0
  6
Continuous
 62
   251
370
    35
100
AcDbLine
 10
87.83365404165086
 20
120.543312596602
 30
0.0
 11
88.82160812650986
 21
121.9542536545367
 31
0.0
  0
LINE
  5
14C
330
E3
100
AcDbEntity
  8
0
  6
Continuous
 62
   251
370
    35
100
AcDbLine
 10
88.82160812650986
 20
121.9542536545367
 30
0.0
 11
90.29628625493237
 21
122.7089742155947
 31
0.0
  0
LINE
  5
14D
330
E3
100
AcDbEntity
  8
0
  6
Continuous
 62
   251
370
    35
100
AcDbLine
 10
95.7922140200964
 20
110.4775110295302
 30
0.0
 11
94.14833857453229
 21
110.682343469767
 31
0.0
  0
LINE
  5
14E
330
E3
100
AcDbEntity
  8
0
  6
Continuous
 62
   251
370
    35
100
AcDbLine
 10
94.14833857453229
 20
110.682343469767
 30
0.0
 11
92.73739751659755
 21
111.6702933414405
 31
0.0
  0
LINE
  5
14F
330
E3
100
AcDbEntity
  8
0
  6
Continuous
 62
   251
370
    35
100
AcDbLine
 10
92.73739751659755
 20
111.6702933414405
 30
0.0
 11
91.98267695553956
 21
113.1449756830486
 31
0.0
  0
LINE
  5
150
330
E3
100
AcDbEntity
  8
0
  6
Continuous
 62
   251
370
    35
100
AcDbLine
 10
91.98267695553956
 20
113.1449756830486
 30
0.0
 11
92.46967485616165
 21
115.292798674566
 31
0.0
  0
LINE
  5
151
330
E3
100
AcDbEntity
  8
0
  6
Continuous
 62
   251
370
    35
100
AcDbLine
 10
92.46967485616165
 20
115.292798674566
 30
0.0
 11
93.61882963205265
 21
117.8936823573733
 31
0.0
  0
LINE
  5
152
330
E3
100
AcDbEntity
  8
0
  6
Continuous
 62
   251
370
    35
100
AcDbLine
 10
93.61882963205265
 20
117.8936823573733
 30
0.0
 11
94.10582331948919
 21
120.0415053488908
 31
0.0
  0
LINE
  5
153
330
E3
100
AcDbEntity
  8
0
  6
Continuous
 62
   251
370
    35
100
AcDbLine
 10
94.10582331948919
 20
120.0415053488908
 30
0.0
 11
93.35110275843121
 21
121.5161876904988
 31
0.0
  0
LINE
  5
154
330
E3
100
AcDbEntity
  8
0
  6
Continuous
 62
   251
370
    35
100
AcDbLine
 10
93.35110275843121
 20
121.5161876904988
 30
0.0
 11
91.940165913682
 21
122.5041375621723
 31
0.0
  0
LINE
  5
155
330
E3
100
AcDbEntity
  8
0
  6
Continuous
 62
   251
370
    35
100
AcDbLine
 10
91.940165913682
 20
122.5041375621723
 30
0.0
 11
90.29628625493237
 21
122.7089742155947
 31
0.0
  0
LINE
  5
156
330
E3
100
AcDbEntity
  8
0
  6
Continuous
 62
   251
370
    35
100
AcDbLine
 10
95.7922140200964
 20
110.4775110295302
 30
0.0
 11
97.26689636170444
 21
111.2322315905881
 31
0.0
  0
LINE
  5
157
330
E3
100
AcDbEntity
  8
0
  6
Continuous
 62
   251
370
    35
100
AcDbLine
 10
97.26689636170444
 20
111.2322315905881
 30
0.0
 11
98.2548462333779
 21
112.6431684353374
 31
0.0
  0
LINE
  5
158
330
E3
100
AcDbEntity
  8
0
  6
Continuous
 62
   251
370
    35
100
AcDbLine
 10
98.2548462333779
 20
112.6431684353374
 30
0.0
 11
98.45968288680032
 21
114.287048094087
 31
0.0
  0
LINE
  5
159
330
E3
100
AcDbEntity
  8
0
  6
Continuous
 62
   251
370
    35
100
AcDbLine
 10
98.45968288680032
 20
114.287048094087
 30
0.0
 11
97.26745671537807
 21
116.138776833903
 31
0.0
  0
LINE
  5
15A
330
E3
100
AcDbEntity
  8
0
  6
Continuous
 62
   251
370
    35
100
AcDbLine
 10
97.26745671537807
 20
116.138776833903
 30
0.0
 11
95.29804949091144
 21
118.1897766090747
 31
0.0
  0
LINE
  5
15B
330
E3
100
AcDbEntity
  8
0
  6
Continuous
 62
   251
370
    35
100
AcDbLine
 10
95.29804949091144
 20
118.1897766090747
 30
0.0
 11
94.10582331948919
 21
120.0415053488908
 31
0.0
  0
LINE
  5
15C
330
E3
100
AcDbEntity
  8
0
  6
Continuous
 62
   251
370
    35
100
AcDbLine
 10
94.10582331948919
 20
120.0415053488908
 30
0.0
 11
94.31065997291161
 21
121.6853850076404
 31
0.0
  0
LINE
  5
15D
330
E3
100
AcDbEntity
  8
0
  6
Continuous
 62
   251
370
    35
100
AcDbLine
 10
94.31065997291161
 20
121.6853850076404
 30
0.0
 11
95.29860984458509
 21
123.0963260655752
 31
0.0
  0
LINE
  5
15E
330
E3
100
AcDbEntity
  8
0
  6
Continuous
 62
   251
370
    35
100
AcDbLine
 10
95.29860984458509
 20
123.0963260655752
 30
0.0
 11
96.7732921861931
 21
123.8510466266331
 31
0.0
  0
LINE
  5
15F
330
E3
100
AcDbEntity
  8
0
  6
Continuous
 62
   251
370
    35
100
AcDbLine
 10
102.2692199513571
 20
111.6195792273831
 30
0.0
 11
100.625344505793
 21
111.8244158808055
 31
0.0
  0
LINE
  5
160
330
E3
100
AcDbEntity
  8
0
  6
Continuous
 62
   251
370
    35
100
AcDbLine
 10
100.625344505793
 20
111.8244158808055
 30
0.0
 11
99.21440344785829
 21
112.812365752479
 31
0.0
  0
LINE
  5
161
330
E3
100
AcDbEntity
  8
0
  6
Continuous
 62
   251
370
    35
100
AcDbLine
 10
99.21440344785829
 20
112.812365752479
 30
0.0
 11
98.45968288680032
 21
114.287048094087
 31
0.0
  0
LINE
  5
162
330
E3
100
AcDbEntity
  8
0
  6
Continuous
 62
   251
370
    35
100
AcDbLine
 10
98.45968288680032
 20
114.287048094087
 30
0.0
 11
98.94668078742237
 21
116.4348710856045
 31
0.0
  0
LINE
  5
163
330
E3
100
AcDbEntity
  8
0
  6
Continuous
 62
   251
370
    35
100
AcDbLine
 10
98.94668078742237
 20
116.4348710856045
 30
0.0
 11
100.0958313501279
 21
119.0357547684117
 31
0.0
  0
LINE
  5
164
330
E3
100
AcDbEntity
  8
0
  6
Continuous
 62
   251
370
    35
100
AcDbLine
 10
100.0958313501279
 20
119.0357547684117
 30
0.0
 11
100.5828292507499
 21
121.1835777599292
 31
0.0
  0
LINE
  5
165
330
E3
100
AcDbEntity
  8
0
  6
Continuous
 62
   251
370
    35
100
AcDbLine
 10
100.5828292507499
 20
121.1835777599292
 30
0.0
 11
99.82810868969196
 21
122.6582601015372
 31
0.0
  0
LINE
  5
166
330
E3
100
AcDbEntity
  8
0
  6
Continuous
 62
   251
370
    35
100
AcDbLine
 10
99.82810868969196
 20
122.6582601015372
 30
0.0
 11
98.41716763175721
 21
123.6462099732107
 31
0.0
  0
LINE
  5
167
330
E3
100
AcDbEntity
  8
0
  6
Continuous
 62
   251
370
    35
100
AcDbLine
 10
98.41716763175721
 20
123.6462099732107
 30
0.0
 11
96.7732921861931
 21
123.8510466266331
 31
0.0
  0
LINE
  5
168
330
E3
100
AcDbEntity
  8
0
  6
Continuous
 62
   251
370
    35
100
AcDbLine
 10
102.2692199513571
 20
111.6195792273831
 30
0.0
 11
103.7439022929652
 21
112.374299788441
 31
0.0
  0
LINE
  5
169
330
E3
100
AcDbEntity
  8
0
  6
Continuous
 62
   251
370
    35
100
AcDbLine
 10
103.7439022929652
 20
112.374299788441
 30
0.0
 11
104.7318521646387
 21
113.7852408463758
 31
0.0
  0
LINE
  5
16A
330
E3
100
AcDbEntity
  8
0
  6
Continuous
 62
   251
370
    35
100
AcDbLine
 10
104.7318521646387
 20
113.7852408463758
 30
0.0
 11
104.9366888180611
 21
115.4291162919399
 31
0.0
  0
LINE
  5
16B
330
E3
100
AcDbEntity
  8
0
  6
Continuous
 62
   251
370
    35
100
AcDbLine
 10
104.9366888180611
 20
115.4291162919399
 30
0.0
 11
103.7444626466388
 21
117.2808492449415
 31
0.0
  0
LINE
  5
16C
330
E3
100
AcDbEntity
  8
0
  6
Continuous
 62
   251
370
    35
100
AcDbLine
 10
103.7444626466388
 20
117.2808492449415
 30
0.0
 11
101.7750554221722
 21
119.3318490201132
 31
0.0
  0
LINE
  5
16D
330
E3
100
AcDbEntity
  8
0
  6
Continuous
 62
   251
370
    35
100
AcDbLine
 10
101.7750554221722
 20
119.3318490201132
 30
0.0
 11
100.5828292507499
 21
121.1835777599292
 31
0.0
  0
LINE
  5
16E
330
E3
100
AcDbEntity
  8
0
  6
Continuous
 62
   251
370
    35
100
AcDbLine
 10
100.5828292507499
 20
121.1835777599292
 30
0.0
 11
100.7876659041723
 21
122.8274532054933
 31
0.0
  0
LINE
  5
16F
330
E3
100
AcDbEntity
  8
0
  6
Continuous
 62
   251
370
    35
100
AcDbLine
 10
100.7876659041723
 20
122.8274532054933
 30
0.0
 11
101.7756157758458
 21
124.2383942634281
 31
0.0
  0
LINE
  5
170
330
E3
100
AcDbEntity
  8
0
  6
Continuous
 62
   251
370
    35
100
AcDbLine
 10
101.7756157758458
 20
124.2383942634281
 30
0.0
 11
103.2502981174538
 21
124.9931148244861
 31
0.0
  0
LINE
  5
171
330
E3
100
AcDbEntity
  8
0
  6
Continuous
 62
   251
370
    35
100
AcDbLine
 10
108.7462258826179
 20
112.7616516384215
 30
0.0
 11
107.1023504370538
 21
112.9664840786584
 31
0.0
  0
LINE
  5
172
330
E3
100
AcDbEntity
  8
0
  6
Continuous
 62
   251
370
    35
100
AcDbLine
 10
107.1023504370538
 20
112.9664840786584
 30
0.0
 11
105.691409379119
 21
113.9544381635174
 31
0.0
  0
LINE
  5
173
330
E3
100
AcDbEntity
  8
0
  6
Continuous
 62
   251
370
    35
100
AcDbLine
 10
105.691409379119
 20
113.9544381635174
 30
0.0
 11
104.9366888180611
 21
115.4291162919399
 31
0.0
  0
LINE
  5
174
330
E3
100
AcDbEntity
  8
0
  6
Continuous
 62
   251
370
    35
100
AcDbLine
 10
104.9366888180611
 20
115.4291162919399
 30
0.0
 11
105.4236867186831
 21
117.5769392834574
 31
0.0
  0
LINE
  5
175
330
E3
100
AcDbEntity
  8
0
  6
Continuous
 62
   251
370
    35
100
AcDbLine
 10
105.4236867186831
 20
117.5769392834574
 30
0.0
 11
106.5728372813886
 21
120.1778271794502
 31
0.0
  0
LINE
  5
176
330
E3
100
AcDbEntity
  8
0
  6
Continuous
 62
   251
370
    35
100
AcDbLine
 10
106.5728372813886
 20
120.1778271794502
 30
0.0
 11
107.0598351820107
 21
122.3256501709677
 31
0.0
  0
LINE
  5
177
330
E3
100
AcDbEntity
  8
0
  6
Continuous
 62
   251
370
    35
100
AcDbLine
 10
107.0598351820107
 20
122.3256501709677
 30
0.0
 11
106.3051146209527
 21
123.8003282993902
 31
0.0
  0
LINE
  5
178
330
E3
100
AcDbEntity
  8
0
  6
Continuous
 62
   251
370
    35
100
AcDbLine
 10
106.3051146209527
 20
123.8003282993902
 30
0.0
 11
104.894173563018
 21
124.7882823842492
 31
0.0
  0
LINE
  5
179
330
E3
100
AcDbEntity
  8
0
  6
Continuous
 62
   251
370
    35
100
AcDbLine
 10
104.894173563018
 20
124.7882823842492
 30
0.0
 11
103.2502981174538
 21
124.9931148244861
 31
0.0
  0
LINE
  5
17A
330
E3
100
AcDbEntity
  8
0
  6
Continuous
 62
   251
370
    35
100
AcDbLine
 10
108.7462258826179
 20
112.7616516384215
 30
0.0
 11
110.2209082242259
 21
113.5163721994795
 31
0.0
  0
LINE
  5
17B
330
E3
100
AcDbEntity
  8
0
  6
Continuous
 62
   251
370
    35
100
AcDbLine
 10
110.2209082242259
 20
113.5163721994795
 30
0.0
 11
111.2088580958994
 21
114.9273132574142
 31
0.0
  0
LINE
  5
17C
330
E3
100
AcDbEntity
  8
0
  6
Continuous
 62
   251
370
    35
100
AcDbLine
 10
111.2088580958994
 20
114.9273132574142
 30
0.0
 11
111.4136947493218
 21
116.5711887029783
 31
0.0
  0
LINE
  5
17D
330
E3
100
AcDbEntity
  8
0
  6
Continuous
 62
   251
370
    35
100
AcDbLine
 10
111.4136947493218
 20
116.5711887029783
 30
0.0
 11
110.221464364714
 21
118.4229174427944
 31
0.0
  0
LINE
  5
17E
330
E3
100
AcDbEntity
  8
0
  6
Continuous
 62
   251
370
    35
100
AcDbLine
 10
110.221464364714
 20
118.4229174427944
 30
0.0
 11
108.2520613534329
 21
120.4739172179661
 31
0.0
  0
LINE
  5
17F
330
E3
100
AcDbEntity
  8
0
  6
Continuous
 62
   251
370
    35
100
AcDbLine
 10
108.2520613534329
 20
120.4739172179661
 30
0.0
 11
107.0598351820107
 21
122.3256501709677
 31
0.0
  0
LINE
  5
180
330
E3
100
AcDbEntity
  8
0
  6
Continuous
 62
   251
370
    35
100
AcDbLine
 10
107.0598351820107
 20
122.3256501709677
 30
0.0
 11
107.2646718354331
 21
123.9695256165318
 31
0.0
  0
LINE
  5
181
330
E3
100
AcDbEntity
  8
0
  6
Continuous
 62
   251
370
    35
100
AcDbLine
 10
107.2646718354331
 20
123.9695256165318
 30
0.0
 11
108.2526217071066
 21
125.3804666744665
 31
0.0
  0
LINE
  5
182
330
E3
100
AcDbEntity
  8
0
  6
Continuous
 62
   251
370
    35
100
AcDbLine
 10
108.2526217071066
 20
125.3804666744665
 30
0.0
 11
109.7272998355291
 21
126.1351872355245
 31
0.0
  0
LINE
  5
183
330
E3
100
AcDbEntity
  8
0
  6
Continuous
 62
   251
370
    35
100
AcDbLine
 10
115.2232318138786
 20
113.9037198362744
 30
0.0
 11
113.579352155129
 21
114.1085564896968
 31
0.0
  0
LINE
  5
184
330
E3
100
AcDbEntity
  8
0
  6
Continuous
 62
   251
370
    35
100
AcDbLine
 10
113.579352155129
 20
114.1085564896968
 30
0.0
 11
112.1684153103798
 21
115.0965063613703
 31
0.0
  0
LINE
  5
185
330
E3
100
AcDbEntity
  8
0
  6
Continuous
 62
   251
370
    35
100
AcDbLine
 10
112.1684153103798
 20
115.0965063613703
 30
0.0
 11
111.4136947493218
 21
116.5711887029783
 31
0.0
  0
LINE
  5
186
330
E3
100
AcDbEntity
  8
0
  6
Continuous
 62
   251
370
    35
100
AcDbLine
 10
111.4136947493218
 20
116.5711887029783
 30
0.0
 11
111.9006884367583
 21
118.7190116944958
 31
0.0
  0
LINE
  5
187
330
E3
100
AcDbEntity
  8
0
  6
Continuous
 62
   251
370
    35
100
AcDbLine
 10
111.9006884367583
 20
118.7190116944958
 30
0.0
 11
113.0498432126493
 21
121.3198953773031
 31
0.0
  0
LINE
  5
188
330
E3
100
AcDbEntity
  8
0
  6
Continuous
 62
   251
370
    35
100
AcDbLine
 10
113.0498432126493
 20
121.3198953773031
 30
0.0
 11
113.5368411132714
 21
123.4677183688206
 31
0.0
  0
LINE
  5
189
330
E3
100
AcDbEntity
  8
0
  6
Continuous
 62
   251
370
    35
100
AcDbLine
 10
113.5368411132714
 20
123.4677183688206
 30
0.0
 11
112.7821205522134
 21
124.9424007104286
 31
0.0
  0
LINE
  5
18A
330
E3
100
AcDbEntity
  8
0
  6
Continuous
 62
   251
370
    35
100
AcDbLine
 10
112.7821205522134
 20
124.9424007104286
 30
0.0
 11
111.3711794942787
 21
125.9303505821021
 31
0.0
  0
LINE
  5
18B
330
E3
100
AcDbEntity
  8
0
  6
Continuous
 62
   251
370
    35
100
AcDbLine
 10
111.3711794942787
 20
125.9303505821021
 30
0.0
 11
109.7272998355291
 21
126.1351872355245
 31
0.0
  0
LINE
  5
18C
330
E3
100
AcDbEntity
  8
0
  6
Continuous
 62
   251
370
    35
100
AcDbLine
 10
115.2232318138786
 20
113.9037198362744
 30
0.0
 11
116.6979099423011
 21
114.6584403973324
 31
0.0
  0
LINE
  5
18D
330
E3
100
AcDbEntity
  8
0
  6
Continuous
 62
   251
370
    35
100
AcDbLine
 10
116.6979099423011
 20
114.6584403973324
 30
0.0
 11
117.6858640271601
 21
116.0693814552671
 31
0.0
  0
LINE
  5
18E
330
E3
100
AcDbEntity
  8
0
  6
Continuous
 62
   251
370
    35
100
AcDbLine
 10
117.6858640271601
 20
116.0693814552671
 30
0.0
 11
117.890696467397
 21
117.7132569008313
 31
0.0
  0
LINE
  5
18F
330
E3
100
AcDbEntity
  8
0
  6
Continuous
 62
   251
370
    35
100
AcDbLine
 10
117.890696467397
 20
117.7132569008313
 30
0.0
 11
116.6984702959748
 21
119.5649898538328
 31
0.0
  0
LINE
  5
190
330
E3
100
AcDbEntity
  8
0
  6
Continuous
 62
   251
370
    35
100
AcDbLine
 10
116.6984702959748
 20
119.5649898538328
 30
0.0
 11
114.7290672846937
 21
121.6159896290045
 31
0.0
  0
LINE
  5
191
330
E3
100
AcDbEntity
  8
0
  6
Continuous
 62
   251
370
    35
100
AcDbLine
 10
114.7290672846937
 20
121.6159896290045
 30
0.0
 11
113.5368411132714
 21
123.4677183688206
 31
0.0
  0
LINE
  5
192
330
E3
100
AcDbEntity
  8
0
  6
Continuous
 62
   251
370
    35
100
AcDbLine
 10
113.5368411132714
 20
123.4677183688206
 30
0.0
 11
113.7416735535083
 21
125.1115980275702
 31
0.0
  0
LINE
  5
193
330
E3
100
AcDbEntity
  8
0
  6
Continuous
 62
   251
370
    35
100
AcDbLine
 10
113.7416735535083
 20
125.1115980275702
 30
0.0
 11
114.7296276383673
 21
126.5225348723194
 31
0.0
  0
LINE
  5
194
330
E3
100
AcDbEntity
  8
0
  6
Continuous
 62
   251
370
    35
100
AcDbLine
 10
114.7296276383673
 20
126.5225348723194
 30
0.0
 11
116.2043057667898
 21
127.2772554333774
 31
0.0
  0
LINE
  5
195
330
E3
100
AcDbEntity
  8
0
  6
Continuous
 62
   251
370
    35
100
AcDbLine
 10
121.7002335319538
 20
115.0457922473129
 30
0.0
 11
120.0563580863897
 21
115.2506289007353
 31
0.0
  0
LINE
  5
196
330
E3
100
AcDbEntity
  8
0
  6
Continuous
 62
   251
370
    35
100
AcDbLine
 10
120.0563580863897
 20
115.2506289007353
 30
0.0
 11
118.645417028455
 21
116.2385787724087
 31
0.0
  0
LINE
  5
197
330
E3
100
AcDbEntity
  8
0
  6
Continuous
 62
   251
370
    35
100
AcDbLine
 10
118.645417028455
 20
116.2385787724087
 30
0.0
 11
117.890696467397
 21
117.7132569008313
 31
0.0
  0
LINE
  5
198
330
E3
100
AcDbEntity
  8
0
  6
Continuous
 62
   251
370
    35
100
AcDbLine
 10
117.890696467397
 20
117.7132569008313
 30
0.0
 11
118.3776943680191
 21
119.8610841055343
 31
0.0
  0
LINE
  5
199
330
E3
100
AcDbEntity
  8
0
  6
Continuous
 62
   251
370
    35
100
AcDbLine
 10
118.3776943680191
 20
119.8610841055343
 30
0.0
 11
119.5268491439101
 21
122.4619677883415
 31
0.0
  0
LINE
  5
19A
330
E3
100
AcDbEntity
  8
0
  6
Continuous
 62
   251
370
    35
100
AcDbLine
 10
119.5268491439101
 20
122.4619677883415
 30
0.0
 11
120.0138428313467
 21
124.609790779859
 31
0.0
  0
LINE
  5
19B
330
E3
100
AcDbEntity
  8
0
  6
Continuous
 62
   251
370
    35
100
AcDbLine
 10
120.0138428313467
 20
124.609790779859
 30
0.0
 11
119.2591222702887
 21
126.084473121467
 31
0.0
  0
LINE
  5
19C
330
E3
100
AcDbEntity
  8
0
  6
Continuous
 62
   251
370
    35
100
AcDbLine
 10
119.2591222702887
 20
126.084473121467
 30
0.0
 11
117.8481854255394
 21
127.0724229931405
 31
0.0
  0
LINE
  5
19D
330
E3
100
AcDbEntity
  8
0
  6
Continuous
 62
   251
370
    35
100
AcDbLine
 10
117.8481854255394
 20
127.0724229931405
 30
0.0
 11
116.2043057667898
 21
127.2772554333774
 31
0.0
  0
LINE
  5
19E
330
E3
100
AcDbEntity
  8
0
  6
Continuous
 62
   251
370
    35
100
AcDbLine
 10
121.7002335319538
 20
115.0457922473129
 30
0.0
 11
123.1749158735619
 21
115.8005128083708
 31
0.0
  0
LINE
  5
19F
330
E3
100
AcDbEntity
  8
0
  6
Continuous
 62
   251
370
    35
100
AcDbLine
 10
123.1749158735619
 20
115.8005128083708
 30
0.0
 11
124.1628657452354
 21
117.2114538663056
 31
0.0
  0
LINE
  5
1A0
330
E3
100
AcDbEntity
  8
0
  6
Continuous
 62
   251
370
    35
100
AcDbLine
 10
124.1628657452354
 20
117.2114538663056
 30
0.0
 11
124.3677023986578
 21
118.8553293118697
 31
0.0
  0
LINE
  5
1A1
330
E3
100
AcDbEntity
  8
0
  6
Continuous
 62
   251
370
    35
100
AcDbLine
 10
124.3677023986578
 20
118.8553293118697
 30
0.0
 11
123.1754762272355
 21
120.7070622648713
 31
0.0
  0
LINE
  5
1A2
330
E3
100
AcDbEntity
  8
0
  6
Continuous
 62
   251
370
    35
100
AcDbLine
 10
123.1754762272355
 20
120.7070622648713
 30
0.0
 11
121.2060690027689
 21
122.7580578268574
 31
0.0
  0
LINE
  5
1A3
330
E3
100
AcDbEntity
  8
0
  6
Continuous
 62
   251
370
    35
100
AcDbLine
 10
121.2060690027689
 20
122.7580578268574
 30
0.0
 11
120.0138428313467
 21
124.609790779859
 31
0.0
  0
LINE
  5
1A4
330
E3
100
AcDbEntity
  8
0
  6
Continuous
 62
   251
370
    35
100
AcDbLine
 10
120.0138428313467
 20
124.609790779859
 30
0.0
 11
120.2186794847691
 21
126.2536662254231
 31
0.0
  0
LINE
  5
1A5
330
E3
100
AcDbEntity
  8
0
  6
Continuous
 62
   251
370
    35
100
AcDbLine
 10
120.2186794847691
 20
126.2536662254231
 30
0.0
 11
121.2066293564425
 21
127.6646072833579
 31
0.0
  0
LINE
  5
1A6
330
E3
100
AcDbEntity
  8
0
  6
Continuous
 62
   251
370
    35
100
AcDbLine
 10
121.2066293564425
 20
127.6646072833579
 30
0.0
 11
122.6813116980505
 21
128.4193278444158
 31
0.0
  0
LINE
  5
1A7
330
E3
100
AcDbEntity
  8
0
  6
Continuous
 62
   251
370
    35
100
AcDbLine
 10
128.1772394632146
 20
116.1878604451658
 30
0.0
 11
126.5333640176505
 21
116.3926970985882
 31
0.0
  0
LINE
  5
1A8
330
E3
100
AcDbEntity
  8
0
  6
Continuous
 62
   251
370
    35
100
AcDbLine
 10
126.5333640176505
 20
116.3926970985882
 30
0.0
 11
125.1224229597158
 21
117.3806469702617
 31
0.0
  0
LINE
  5
1A9
330
E3
100
AcDbEntity
  8
0
  6
Continuous
 62
   251
370
    35
100
AcDbLine
 10
125.1224229597158
 20
117.3806469702617
 30
0.0
 11
124.3677023986578
 21
118.8553293118697
 31
0.0
  0
LINE
  5
1AA
330
E3
100
AcDbEntity
  8
0
  6
Continuous
 62
   251
370
    35
100
AcDbLine
 10
124.3677023986578
 20
118.8553293118697
 30
0.0
 11
124.8547002992798
 21
121.0031523033872
 31
0.0
  0
LINE
  5
1AB
330
E3
100
AcDbEntity
  8
0
  6
Continuous
 62
   251
370
    35
100
AcDbLine
 10
124.8547002992798
 20
121.0031523033872
 30
0.0
 11
126.0038508619853
 21
123.6040359861944
 31
0.0
  0
LINE
  5
1AC
330
E3
100
AcDbEntity
  8
0
  6
Continuous
 62
   251
370
    35
100
AcDbLine
 10
126.0038508619853
 20
123.6040359861944
 30
0.0
 11
126.4908487626074
 21
125.7518589777119
 31
0.0
  0
LINE
  5
1AD
330
E3
100
AcDbEntity
  8
0
  6
Continuous
 62
   251
370
    35
100
AcDbLine
 10
126.4908487626074
 20
125.7518589777119
 30
0.0
 11
125.7361282015494
 21
127.2265413193199
 31
0.0
  0
LINE
  5
1AE
330
E3
100
AcDbEntity
  8
0
  6
Continuous
 62
   251
370
    35
100
AcDbLine
 10
125.7361282015494
 20
127.2265413193199
 30
0.0
 11
124.3251871436147
 21
128.2144911909934
 31
0.0
  0
LINE
  5
1AF
330
E3
100
AcDbEntity
  8
0
  6
Continuous
 62
   251
370
    35
100
AcDbLine
 10
124.3251871436147
 20
128.2144911909934
 30
0.0
 11
122.6813116980505
 21
128.4193278444158
 31
0.0
  0
LINE
  5
1B0
330
E3
100
AcDbEntity
  8
0
  6
Continuous
 62
   251
370
    35
100
AcDbLine
 10
128.1772394632146
 20
116.1878604451658
 30
0.0
 11
129.6519218048226
 21
116.9425852194093
 31
0.0
  0
LINE
  5
1B1
330
E3
100
AcDbEntity
  8
0
  6
Continuous
 62
   251
370
    35
100
AcDbLine
 10
129.6519218048226
 20
116.9425852194093
 30
0.0
 11
130.6398716764961
 21
118.3535220641585
 31
0.0
  0
LINE
  5
1B2
330
E3
100
AcDbEntity
  8
0
  6
Continuous
 62
   251
370
    35
100
AcDbLine
 10
130.6398716764961
 20
118.3535220641585
 30
0.0
 11
130.8447083299185
 21
119.9974017229081
 31
0.0
  0
LINE
  5
1B3
330
E3
100
AcDbEntity
  8
0
  6
Continuous
 62
   251
370
    35
100
AcDbLine
 10
130.8447083299185
 20
119.9974017229081
 30
0.0
 11
129.6524821584963
 21
121.8491304627242
 31
0.0
  0
LINE
  5
1B4
330
E3
100
AcDbEntity
  8
0
  6
Continuous
 62
   251
370
    35
100
AcDbLine
 10
129.6524821584963
 20
121.8491304627242
 30
0.0
 11
127.6830749340296
 21
123.9001302378959
 31
0.0
  0
LINE
  5
1B5
330
E3
100
AcDbEntity
  8
0
  6
Continuous
 62
   251
370
    35
100
AcDbLine
 10
127.6830749340296
 20
123.9001302378959
 30
0.0
 11
126.4908487626074
 21
125.7518589777119
 31
0.0
  0
LINE
  5
1B6
330
E3
100
AcDbEntity
  8
0
  6
Continuous
 62
   251
370
    35
100
AcDbLine
 10
126.4908487626074
 20
125.7518589777119
 30
0.0
 11
126.6956854160298
 21
127.3957386364616
 31
0.0
  0
LINE
  5
1B7
330
E3
100
AcDbEntity
  8
0
  6
Continuous
 62
   251
370
    35
100
AcDbLine
 10
126.6956854160298
 20
127.3957386364616
 30
0.0
 11
127.6836352877033
 21
128.8066754812108
 31
0.0
  0
LINE
  5
1B8
330
E3
100
AcDbEntity
  8
0
  6
Continuous
 62
   251
370
    35
100
AcDbLine
 10
127.6836352877033
 20
128.8066754812108
 30
0.0
 11
129.1583176293113
 21
129.5614002554543
 31
0.0
  0
LINE
  5
1B9
330
E3
100
AcDbEntity
  8
0
  6
Continuous
 62
   251
370
    35
100
AcDbLine
 10
134.6542453944753
 20
117.3299328562042
 30
0.0
 11
133.0103699489112
 21
117.5347695096266
 31
0.0
  0
LINE
  5
1BA
330
E3
100
AcDbEntity
  8
0
  6
Continuous
 62
   251
370
    35
100
AcDbLine
 10
133.0103699489112
 20
117.5347695096266
 30
0.0
 11
131.5994288909765
 21
118.5227193813001
 31
0.0
  0
LINE
  5
1BB
330
E3
100
AcDbEntity
  8
0
  6
Continuous
 62
   251
370
    35
100
AcDbLine
 10
131.5994288909765
 20
118.5227193813001
 30
0.0
 11
130.8447083299185
 21
119.9974017229081
 31
0.0
  0
LINE
  5
1BC
330
E3
100
AcDbEntity
  8
0
  6
Continuous
 62
   251
370
    35
100
AcDbLine
 10
130.8447083299185
 20
119.9974017229081
 30
0.0
 11
131.3317062305406
 21
122.1452247144256
 31
0.0
  0
LINE
  5
1BD
330
E3
100
AcDbEntity
  8
0
  6
Continuous
 62
   251
370
    35
100
AcDbLine
 10
131.3317062305406
 20
122.1452247144256
 30
0.0
 11
132.4808567932461
 21
124.7461083972329
 31
0.0
  0
LINE
  5
1BE
330
E3
100
AcDbEntity
  8
0
  6
Continuous
 62
   251
370
    35
100
AcDbLine
 10
132.4808567932461
 20
124.7461083972329
 30
0.0
 11
132.9678546938681
 21
126.8939313887504
 31
0.0
  0
LINE
  5
1BF
330
E3
100
AcDbEntity
  8
0
  6
Continuous
 62
   251
370
    35
100
AcDbLine
 10
132.9678546938681
 20
126.8939313887504
 30
0.0
 11
132.2131341328102
 21
128.3686137303584
 31
0.0
  0
LINE
  5
1C0
330
E3
100
AcDbEntity
  8
0
  6
Continuous
 62
   251
370
    35
100
AcDbLine
 10
132.2131341328102
 20
128.3686137303584
 30
0.0
 11
130.8021930748754
 21
129.3565636020319
 31
0.0
  0
LINE
  5
1C1
330
E3
100
AcDbEntity
  8
0
  6
Continuous
 62
   251
370
    35
100
AcDbLine
 10
130.8021930748754
 20
129.3565636020319
 30
0.0
 11
129.1583176293113
 21
129.5614002554543
 31
0.0
  0
LINE
  5
1C2
330
E3
100
AcDbEntity
  8
0
  6
Continuous
 62
   251
370
    35
100
AcDbLine
 10
134.6542453944753
 20
117.3299328562042
 30
0.0
 11
136.1289277360834
 21
118.0846534172622
 31
0.0
  0
LINE
  5
1C3
330
E3
100
AcDbEntity
  8
0
  6
Continuous
 62
   251
370
    35
100
AcDbLine
 10
136.1289277360834
 20
118.0846534172622
 30
0.0
 11
137.1168776077568
 21
119.4955944751969
 31
0.0
  0
LINE
  5
1C4
330
E3
100
AcDbEntity
  8
0
  6
Continuous
 62
   251
370
    35
100
AcDbLine
 10
137.1168776077568
 20
119.4955944751969
 30
0.0
 11
137.3217142611793
 21
121.139469920761
 31
0.0
  0
LINE
  5
1C5
330
E3
100
AcDbEntity
  8
0
  6
Continuous
 62
   251
370
    35
100
AcDbLine
 10
137.3217142611793
 20
121.139469920761
 30
0.0
 11
136.1294838765715
 21
122.9912028737626
 31
0.0
  0
LINE
  5
1C6
330
E3
100
AcDbEntity
  8
0
  6
Continuous
 62
   251
370
    35
100
AcDbLine
 10
136.1294838765715
 20
122.9912028737626
 30
0.0
 11
134.1600808652904
 21
125.0422026489343
 31
0.0
  0
LINE
  5
1C7
330
E3
100
AcDbEntity
  8
0
  6
Continuous
 62
   251
370
    35
100
AcDbLine
 10
134.1600808652904
 20
125.0422026489343
 30
0.0
 11
132.9678546938681
 21
126.8939313887504
 31
0.0
  0
LINE
  5
1C8
330
E3
100
AcDbEntity
  8
0
  6
Continuous
 62
   251
370
    35
100
AcDbLine
 10
132.9678546938681
 20
126.8939313887504
 30
0.0
 11
133.1726913472905
 21
128.5378068343145
 31
0.0
  0
LINE
  5
1C9
330
E3
100
AcDbEntity
  8
0
  6
Continuous
 62
   251
370
    35
100
AcDbLine
 10
133.1726913472905
 20
128.5378068343145
 30
0.0
 11
134.160641218964
 21
129.9487478922492
 31
0.0
  0
LINE
  5
1CA
330
E3
100
AcDbEntity
  8
0
  6
Continuous
 62
   251
370
    35
100
AcDbLine
 10
134.160641218964
 20
129.9487478922492
 30
0.0
 11
135.6353193473865
 21
130.7034684533072
 31
0.0
  0
LINE
  5
1CB
330
E3
100
AcDbEntity
  8
0
  6
Continuous
 62
   251
370
    35
100
AcDbLine
 10
141.1312513257361
 20
118.4720052672427
 30
0.0
 11
139.4873716669865
 21
118.6768377074795
 31
0.0
  0
LINE
  5
1CC
330
E3
100
AcDbEntity
  8
0
  6
Continuous
 62
   251
370
    35
100
AcDbLine
 10
139.4873716669865
 20
118.6768377074795
 30
0.0
 11
138.0764348222372
 21
119.6647917923385
 31
0.0
  0
LINE
  5
1CD
330
E3
100
AcDbEntity
  8
0
  6
Continuous
 62
   251
370
    35
100
AcDbLine
 10
138.0764348222372
 20
119.6647917923385
 30
0.0
 11
137.3217142611793
 21
121.139469920761
 31
0.0
  0
LINE
  5
1CE
330
E3
100
AcDbEntity
  8
0
  6
Continuous
 62
   251
370
    35
100
AcDbLine
 10
137.3217142611793
 20
121.139469920761
 30
0.0
 11
137.8087079486158
 21
123.2872929122785
 31
0.0
  0
LINE
  5
1CF
330
E3
100
AcDbEntity
  8
0
  6
Continuous
 62
   251
370
    35
100
AcDbLine
 10
137.8087079486158
 20
123.2872929122785
 30
0.0
 11
138.9578627245068
 21
125.8881808082713
 31
0.0
  0
LINE
  5
1D0
330
E3
100
AcDbEntity
  8
0
  6
Continuous
 62
   251
370
    35
100
AcDbLine
 10
138.9578627245068
 20
125.8881808082713
 30
0.0
 11
139.4448606251289
 21
128.0360037997888
 31
0.0
  0
LINE
  5
1D1
330
E3
100
AcDbEntity
  8
0
  6
Continuous
 62
   251
370
    35
100
AcDbLine
 10
139.4448606251289
 20
128.0360037997888
 30
0.0
 11
138.6901358508854
 21
129.5106819282113
 31
0.0
  0
LINE
  5
1D2
330
E3
100
AcDbEntity
  8
0
  6
Continuous
 62
   251
370
    35
100
AcDbLine
 10
138.6901358508854
 20
129.5106819282113
 30
0.0
 11
137.2791990061362
 21
130.4986360130703
 31
0.0
  0
LINE
  5
1D3
330
E3
100
AcDbEntity
  8
0
  6
Continuous
 62
   251
370
    35
100
AcDbLine
 10
137.2791990061362
 20
130.4986360130703
 30
0.0
 11
135.6353193473865
 21
130.7034684533072
 31
0.0
  0
LINE
  5
1D4
330
E3
100
AcDbEntity
  8
0
  6
Continuous
 62
   251
370
    35
100
AcDbLine
 10
141.1312513257361
 20
118.4720052672427
 30
0.0
 11
142.6059294541586
 21
119.2267258283006
 31
0.0
  0
LINE
  5
1D5
330
E3
100
AcDbEntity
  8
0
  6
Continuous
 62
   251
370
    35
100
AcDbLine
 10
142.6059294541586
 20
119.2267258283006
 30
0.0
 11
143.5938835390176
 21
120.6376668862354
 31
0.0
  0
LINE
  5
1D6
330
E3
100
AcDbEntity
  8
0
  6
Continuous
 62
   251
370
    35
100
AcDbLine
 10
143.5938835390176
 20
120.6376668862354
 30
0.0
 11
143.7987159792545
 21
122.2815423317995
 31
0.0
  0
LINE
  5
1D7
330
E3
100
AcDbEntity
  8
0
  6
Continuous
 62
   251
370
    35
100
AcDbLine
 10
143.7987159792545
 20
122.2815423317995
 30
0.0
 11
142.6064898078322
 21
124.1332710716155
 31
0.0
  0
LINE
  5
1D8
330
E3
100
AcDbEntity
  8
0
  6
Continuous
 62
   251
370
    35
100
AcDbLine
 10
142.6064898078322
 20
124.1332710716155
 30
0.0
 11
140.6370867965511
 21
126.1842708467872
 31
0.0
  0
LINE
  5
1D9
330
E3
100
AcDbEntity
  8
0
  6
Continuous
 62
   251
370
    35
100
AcDbLine
 10
140.6370867965511
 20
126.1842708467872
 30
0.0
 11
139.4448606251289
 21
128.0360037997888
 31
0.0
  0
LINE
  5
1DA
330
E3
100
AcDbEntity
  8
0
  6
Continuous
 62
   251
370
    35
100
AcDbLine
 10
139.4448606251289
 20
128.0360037997888
 30
0.0
 11
139.6496930653658
 21
129.6798792453529
 31
0.0
  0
LINE
  5
1DB
330
E3
100
AcDbEntity
  8
0
  6
Continuous
 62
   251
370
    35
100
AcDbLine
 10
139.6496930653658
 20
129.6798792453529
 30
0.0
 11
140.6376429370393
 21
131.0908203032876
 31
0.0
  0
LINE
  5
1DC
330
E3
100
AcDbEntity
  8
0
  6
Continuous
 62
   251
370
    35
100
AcDbLine
 10
140.6376429370393
 20
131.0908203032876
 30
0.0
 11
142.1123252786473
 21
131.8455408643456
 31
0.0
  0
LINE
  5
1DD
330
E3
100
AcDbEntity
  8
0
  6
Continuous
 62
   251
370
    35
100
AcDbLine
 10
147.6082530438113
 20
119.6140734650956
 30
0.0
 11
145.9643775982472
 21
119.818910118518
 31
0.0
  0
LINE
  5
1DE
330
E3
100
AcDbEntity
  8
0
  6
Continuous
 62
   251
370
    35
100
AcDbLine
 10
145.9643775982472
 20
119.818910118518
 30
0.0
 11
144.5534365403125
 21
120.8068599901914
 31
0.0
  0
LINE
  5
1DF
330
E3
100
AcDbEntity
  8
0
  6
Continuous
 62
   251
370
    35
100
AcDbLine
 10
144.5534365403125
 20
120.8068599901914
 30
0.0
 11
143.7987159792545
 21
122.2815423317995
 31
0.0
  0
LINE
  5
1E0
330
E3
100
AcDbEntity
  8
0
  6
Continuous
 62
   251
370
    35
100
AcDbLine
 10
143.7987159792545
 20
122.2815423317995
 30
0.0
 11
144.2857138798765
 21
124.429365323317
 31
0.0
  0
LINE
  5
1E1
330
E3
100
AcDbEntity
  8
0
  6
Continuous
 62
   251
370
    35
100
AcDbLine
 10
144.2857138798765
 20
124.429365323317
 30
0.0
 11
145.4348686557676
 21
127.0302490061242
 31
0.0
  0
LINE
  5
1E2
330
E3
100
AcDbEntity
  8
0
  6
Continuous
 62
   251
370
    35
100
AcDbLine
 10
145.4348686557676
 20
127.0302490061242
 30
0.0
 11
145.9218623432041
 21
129.1780719976417
 31
0.0
  0
LINE
  5
1E3
330
E3
100
AcDbEntity
  8
0
  6
Continuous
 62
   251
370
    35
100
AcDbLine
 10
145.9218623432041
 20
129.1780719976417
 30
0.0
 11
145.1671417821461
 21
130.6527543392497
 31
0.0
  0
LINE
  5
1E4
330
E3
100
AcDbEntity
  8
0
  6
Continuous
 62
   251
370
    35
100
AcDbLine
 10
145.1671417821461
 20
130.6527543392497
 30
0.0
 11
143.7562007242114
 21
131.6407042109232
 31
0.0
  0
LINE
  5
1E5
330
E3
100
AcDbEntity
  8
0
  6
Continuous
 62
   251
370
    35
100
AcDbLine
 10
143.7562007242114
 20
131.6407042109232
 30
0.0
 11
142.1123252786473
 21
131.8455408643456
 31
0.0
  0
LINE
  5
1E6
330
E3
100
AcDbEntity
  8
0
  6
Continuous
 62
   251
370
    35
100
AcDbLine
 10
147.6082530438113
 20
119.6140734650956
 30
0.0
 11
149.0829353854193
 21
120.3687940261535
 31
0.0
  0
LINE
  5
1E7
330
E3
100
AcDbEntity
  8
0
  6
Continuous
 62
   251
370
    35
100
AcDbLine
 10
149.0829353854193
 20
120.3687940261535
 30
0.0
 11
150.0708852570928
 21
121.7797350840883
 31
0.0
  0
LINE
  5
1E8
330
E3
100
AcDbEntity
  8
0
  6
Continuous
 62
   251
370
    35
100
AcDbLine
 10
150.0708852570928
 20
121.7797350840883
 30
0.0
 11
150.2757219105152
 21
123.4236105296524
 31
0.0
  0
LINE
  5
1E9
330
E3
100
AcDbEntity
  8
0
  6
Continuous
 62
   251
370
    35
100
AcDbLine
 10
150.2757219105152
 20
123.4236105296524
 30
0.0
 11
149.083495739093
 21
125.275343482654
 31
0.0
  0
LINE
  5
1EA
330
E3
100
AcDbEntity
  8
0
  6
Continuous
 62
   251
370
    35
100
AcDbLine
 10
149.083495739093
 20
125.275343482654
 30
0.0
 11
147.1140885146264
 21
127.3263432578257
 31
0.0
  0
LINE
  5
1EB
330
E3
100
AcDbEntity
  8
0
  6
Continuous
 62
   251
370
    35
100
AcDbLine
 10
147.1140885146264
 20
127.3263432578257
 30
0.0
 11
145.9218623432041
 21
129.1780719976417
 31
0.0
  0
LINE
  5
1EC
330
E3
100
AcDbEntity
  8
0
  6
Continuous
 62
   251
370
    35
100
AcDbLine
 10
145.9218623432041
 20
129.1780719976417
 30
0.0
 11
146.1266989966265
 21
130.8219516563913
 31
0.0
  0
LINE
  5
1ED
330
E3
100
AcDbEntity
  8
0
  6
Continuous
 62
   251
370
    35
100
AcDbLine
 10
146.1266989966265
 20
130.8219516563913
 30
0.0
 11
147.1146488683
 21
132.2328885011406
 31
0.0
  0
LINE
  5
1EE
330
E3
100
AcDbEntity
  8
0
  6
Continuous
 62
   251
370
    35
100
AcDbLine
 10
147.1146488683
 20
132.2328885011406
 30
0.0
 11
148.589331209908
 21
132.9876090621985
 31
0.0
  0
LINE
  5
1EF
330
E3
100
AcDbEntity
  8
0
  6
Continuous
 62
   251
370
    35
100
AcDbLine
 10
154.0852589750721
 20
120.756145876134
 30
0.0
 11
152.441383529508
 21
120.9609825295564
 31
0.0
  0
LINE
  5
1F0
330
E3
100
AcDbEntity
  8
0
  6
Continuous
 62
   251
370
    35
100
AcDbLine
 10
152.441383529508
 20
120.9609825295564
 30
0.0
 11
151.0304424715732
 21
121.9489324012299
 31
0.0
  0
LINE
  5
1F1
330
E3
100
AcDbEntity
  8
0
  6
Continuous
 62
   251
370
    35
100
AcDbLine
 10
151.0304424715732
 20
121.9489324012299
 30
0.0
 11
150.2757219105152
 21
123.4236105296524
 31
0.0
  0
LINE
  5
1F2
330
E3
100
AcDbEntity
  8
0
  6
Continuous
 62
   251
370
    35
100
AcDbLine
 10
150.2757219105152
 20
123.4236105296524
 30
0.0
 11
150.7627198111373
 21
125.5714335211699
 31
0.0
  0
LINE
  5
1F3
330
E3
100
AcDbEntity
  8
0
  6
Continuous
 62
   251
370
    35
100
AcDbLine
 10
150.7627198111373
 20
125.5714335211699
 30
0.0
 11
151.9118703738428
 21
128.1723214171627
 31
0.0
  0
LINE
  5
1F4
330
E3
100
AcDbEntity
  8
0
  6
Continuous
 62
   251
370
    35
100
AcDbLine
 10
151.9118703738428
 20
128.1723214171627
 30
0.0
 11
152.3988682744649
 21
130.3201444086801
 31
0.0
  0
LINE
  5
1F5
330
E3
100
AcDbEntity
  8
0
  6
Continuous
 62
   251
370
    35
100
AcDbLine
 10
152.3988682744649
 20
130.3201444086801
 30
0.0
 11
151.6441477134069
 21
131.7948267502882
 31
0.0
  0
LINE
  5
1F6
330
E3
100
AcDbEntity
  8
0
  6
Continuous
 62
   251
370
    35
100
AcDbLine
 10
151.6441477134069
 20
131.7948267502882
 30
0.0
 11
150.2332066554721
 21
132.7827766219616
 31
0.0
  0
LINE
  5
1F7
330
E3
100
AcDbEntity
  8
0
  6
Continuous
 62
   251
370
    35
100
AcDbLine
 10
150.2332066554721
 20
132.7827766219616
 30
0.0
 11
148.589331209908
 21
132.9876090621985
 31
0.0
  0
LINE
  5
1F8
330
E3
100
AcDbEntity
  8
0
  6
Continuous
 62
   251
370
    35
100
AcDbLine
 10
154.0852589750721
 20
120.756145876134
 30
0.0
 11
155.5599413166801
 21
121.510866437192
 31
0.0
  0
LINE
  5
1F9
330
E3
100
AcDbEntity
  8
0
  6
Continuous
 62
   251
370
    35
100
AcDbLine
 10
155.5599413166801
 20
121.510866437192
 30
0.0
 11
156.5478911883536
 21
122.9218074951267
 31
0.0
  0
LINE
  5
1FA
330
E3
100
AcDbEntity
  8
0
  6
Continuous
 62
   251
370
    35
100
AcDbLine
 10
156.5478911883536
 20
122.9218074951267
 30
0.0
 11
156.752727841776
 21
124.5656829406908
 31
0.0
  0
LINE
  5
1FB
330
E3
100
AcDbEntity
  8
0
  6
Continuous
 62
   251
370
    35
100
AcDbLine
 10
156.752727841776
 20
124.5656829406908
 30
0.0
 11
155.5605016703537
 21
126.4174158936924
 31
0.0
  0
LINE
  5
1FC
330
E3
100
AcDbEntity
  8
0
  6
Continuous
 62
   251
370
    35
100
AcDbLine
 10
155.5605016703537
 20
126.4174158936924
 30
0.0
 11
153.5910944458871
 21
128.4684114556786
 31
0.0
  0
LINE
  5
1FD
330
E3
100
AcDbEntity
  8
0
  6
Continuous
 62
   251
370
    35
100
AcDbLine
 10
153.5910944458871
 20
128.4684114556786
 30
0.0
 11
152.3988682744649
 21
130.3201444086801
 31
0.0
  0
LINE
  5
1FE
330
E3
100
AcDbEntity
  8
0
  6
Continuous
 62
   251
370
    35
100
AcDbLine
 10
152.3988682744649
 20
130.3201444086801
 30
0.0
 11
152.6037049278873
 21
131.9640198542442
 31
0.0
  0
LINE
  5
1FF
330
E3
100
AcDbEntity
  8
0
  6
Continuous
 62
   251
370
    35
100
AcDbLine
 10
152.6037049278873
 20
131.9640198542442
 30
0.0
 11
153.5916547995607
 21
133.374960912179
 31
0.0
  0
LINE
  5
200
330
E3
100
AcDbEntity
  8
0
  6
Continuous
 62
   251
370
    35
100
AcDbLine
 10
153.5916547995607
 20
133.374960912179
 30
0.0
 11
155.0663371411688
 21
134.129681473237
 31
0.0
  0
LINE
  5
201
330
E3
100
AcDbEntity
  8
0
  6
Continuous
 62
   251
370
    35
100
AcDbLine
 10
160.5622649063328
 20
121.8982140739869
 30
0.0
 11
158.9183894607687
 21
122.1030507274093
 31
0.0
  0
LINE
  5
202
330
E3
100
AcDbEntity
  8
0
  6
Continuous
 62
   251
370
    35
100
AcDbLine
 10
158.9183894607687
 20
122.1030507274093
 30
0.0
 11
157.5074484028339
 21
123.0910005990828
 31
0.0
  0
LINE
  5
203
330
E3
100
AcDbEntity
  8
0
  6
Continuous
 62
   251
370
    35
100
AcDbLine
 10
157.5074484028339
 20
123.0910005990828
 30
0.0
 11
156.752727841776
 21
124.5656829406908
 31
0.0
  0
LINE
  5
204
330
E3
100
AcDbEntity
  8
0
  6
Continuous
 62
   251
370
    35
100
AcDbLine
 10
156.752727841776
 20
124.5656829406908
 30
0.0
 11
157.239725742398
 21
126.7135059322083
 31
0.0
  0
LINE
  5
205
330
E3
100
AcDbEntity
  8
0
  6
Continuous
 62
   251
370
    35
100
AcDbLine
 10
157.239725742398
 20
126.7135059322083
 30
0.0
 11
158.3888763051035
 21
129.3143896150156
 31
0.0
  0
LINE
  5
206
330
E3
100
AcDbEntity
  8
0
  6
Continuous
 62
   251
370
    35
100
AcDbLine
 10
158.3888763051035
 20
129.3143896150156
 30
0.0
 11
158.8758742057256
 21
131.4622126065331
 31
0.0
  0
LINE
  5
207
330
E3
100
AcDbEntity
  8
0
  6
Continuous
 62
   251
370
    35
100
AcDbLine
 10
158.8758742057256
 20
131.4622126065331
 30
0.0
 11
158.1211536446676
 21
132.9368949481411
 31
0.0
  0
LINE
  5
208
330
E3
100
AcDbEntity
  8
0
  6
Continuous
 62
   251
370
    35
100
AcDbLine
 10
158.1211536446676
 20
132.9368949481411
 30
0.0
 11
156.7102125867329
 21
133.9248448198145
 31
0.0
  0
LINE
  5
209
330
E3
100
AcDbEntity
  8
0
  6
Continuous
 62
   251
370
    35
100
AcDbLine
 10
156.7102125867329
 20
133.9248448198145
 30
0.0
 11
155.0663371411688
 21
134.129681473237
 31
0.0
  0
LINE
  5
20A
330
E3
100
AcDbEntity
  8
0
  6
Continuous
 62
   251
370
    35
100
AcDbLine
 10
160.5622649063328
 20
121.8982140739869
 30
0.0
 11
162.0369472479408
 21
122.6529388482304
 31
0.0
  0
LINE
  5
20B
330
E3
100
AcDbEntity
  8
0
  6
Continuous
 62
   251
370
    35
100
AcDbLine
 10
162.0369472479408
 20
122.6529388482304
 30
0.0
 11
163.0248971196143
 21
124.0638756929796
 31
0.0
  0
LINE
  5
20C
330
E3
100
AcDbEntity
  8
0
  6
Continuous
 62
   251
370
    35
100
AcDbLine
 10
163.0248971196143
 20
124.0638756929796
 30
0.0
 11
163.2297295598512
 21
125.7077553517292
 31
0.0
  0
LINE
  5
20D
330
E3
100
AcDbEntity
  8
0
  6
Continuous
 62
   251
370
    35
100
AcDbLine
 10
163.2297295598512
 20
125.7077553517292
 30
0.0
 11
162.0375033884289
 21
127.5594840915453
 31
0.0
  0
LINE
  5
20E
330
E3
100
AcDbEntity
  8
0
  6
Continuous
 62
   251
370
    35
100
AcDbLine
 10
162.0375033884289
 20
127.5594840915453
 30
0.0
 11
160.0681003771478
 21
129.610483866717
 31
0.0
  0
LINE
  5
20F
330
E3
100
AcDbEntity
  8
0
  6
Continuous
 62
   251
370
    35
100
AcDbLine
 10
160.0681003771478
 20
129.610483866717
 30
0.0
 11
158.8758742057256
 21
131.4622126065331
 31
0.0
  0
LINE
  5
210
330
E3
100
AcDbEntity
  8
0
  6
Continuous
 62
   251
370
    35
100
AcDbLine
 10
158.8758742057256
 20
131.4622126065331
 30
0.0
 11
159.0807066459625
 21
133.1060922652827
 31
0.0
  0
LINE
  5
211
330
E3
100
AcDbEntity
  8
0
  6
Continuous
 62
   251
370
    35
100
AcDbLine
 10
159.0807066459625
 20
133.1060922652827
 30
0.0
 11
160.0686607308215
 21
134.5170291100319
 31
0.0
  0
LINE
  5
212
330
E3
100
AcDbEntity
  8
0
  6
Continuous
 62
   251
370
    35
100
AcDbLine
 10
160.0686607308215
 20
134.5170291100319
 30
0.0
 11
161.543338859244
 21
135.2717538842754
 31
0.0
  0
LINE
  5
213
330
E3
100
AcDbEntity
  8
0
  6
Continuous
 62
   251
370
    35
100
AcDbLine
 10
167.0392708375935
 20
123.0402864850253
 30
0.0
 11
165.3953911788439
 21
123.2451231384477
 31
0.0
  0
LINE
  5
214
330
E3
100
AcDbEntity
  8
0
  6
Continuous
 62
   251
370
    35
100
AcDbLine
 10
165.3953911788439
 20
123.2451231384477
 30
0.0
 11
163.9844543340947
 21
124.2330730101212
 31
0.0
  0
LINE
  5
215
330
E3
100
AcDbEntity
  8
0
  6
Continuous
 62
   251
370
    35
100
AcDbLine
 10
163.9844543340947
 20
124.2330730101212
 30
0.0
 11
163.2297295598512
 21
125.7077553517292
 31
0.0
  0
LINE
  5
216
330
E3
100
AcDbEntity
  8
0
  6
Continuous
 62
   251
370
    35
100
AcDbLine
 10
163.2297295598512
 20
125.7077553517292
 30
0.0
 11
163.7167274604733
 21
127.8555783432467
 31
0.0
  0
LINE
  5
217
330
E3
100
AcDbEntity
  8
0
  6
Continuous
 62
   251
370
    35
100
AcDbLine
 10
163.7167274604733
 20
127.8555783432467
 30
0.0
 11
164.8658822363643
 21
130.456462026054
 31
0.0
  0
LINE
  5
218
330
E3
100
AcDbEntity
  8
0
  6
Continuous
 62
   251
370
    35
100
AcDbLine
 10
164.8658822363643
 20
130.456462026054
 30
0.0
 11
165.3528801369863
 21
132.6042850175715
 31
0.0
  0
LINE
  5
219
330
E3
100
AcDbEntity
  8
0
  6
Continuous
 62
   251
370
    35
100
AcDbLine
 10
165.3528801369863
 20
132.6042850175715
 30
0.0
 11
164.5981553627428
 21
134.0789673591795
 31
0.0
  0
LINE
  5
21A
330
E3
100
AcDbEntity
  8
0
  6
Continuous
 62
   251
370
    35
100
AcDbLine
 10
164.5981553627428
 20
134.0789673591795
 30
0.0
 11
163.1872185179936
 21
135.066917230853
 31
0.0
  0
LINE
  5
21B
330
E3
100
AcDbEntity
  8
0
  6
Continuous
 62
   251
370
    35
100
AcDbLine
 10
163.1872185179936
 20
135.066917230853
 30
0.0
 11
161.543338859244
 21
135.2717538842754
 31
0.0
  0
LINE
  5
21C
330
E3
100
AcDbEntity
  8
0
  6
Continuous
 62
   251
370
    35
100
AcDbLine
 10
167.0392708375935
 20
123.0402864850253
 30
0.0
 11
168.5139489660161
 21
123.7950070460833
 31
0.0
  0
LINE
  5
21D
330
E3
100
AcDbEntity
  8
0
  6
Continuous
 62
   251
370
    35
100
AcDbLine
 10
168.5139489660161
 20
123.7950070460833
 30
0.0
 11
169.501903050875
 21
125.205948104018
 31
0.0
  0
LINE
  5
21E
330
E3
100
AcDbEntity
  8
0
  6
Continuous
 62
   251
370
    35
100
AcDbLine
 10
169.501903050875
 20
125.205948104018
 30
0.0
 11
169.7067354911119
 21
126.8498235495822
 31
0.0
  0
LINE
  5
21F
330
E3
100
AcDbEntity
  8
0
  6
Continuous
 62
   251
370
    35
100
AcDbLine
 10
169.7067354911119
 20
126.8498235495822
 30
0.0
 11
168.5145093196897
 21
128.7015565025837
 31
0.0
  0
LINE
  5
220
330
E3
100
AcDbEntity
  8
0
  6
Continuous
 62
   251
370
    35
100
AcDbLine
 10
168.5145093196897
 20
128.7015565025837
 30
0.0
 11
166.5451063084086
 21
130.7525562777554
 31
0.0
  0
LINE
  5
221
330
E3
100
AcDbEntity
  8
0
  6
Continuous
 62
   251
370
    35
100
AcDbLine
 10
166.5451063084086
 20
130.7525562777554
 30
0.0
 11
165.3528801369863
 21
132.6042850175715
 31
0.0
  0
LINE
  5
222
330
E3
100
AcDbEntity
  8
0
  6
Continuous
 62
   251
370
    35
100
AcDbLine
 10
165.3528801369863
 20
132.6042850175715
 30
0.0
 11
165.5577125772232
 21
134.2481604631356
 31
0.0
  0
LINE
  5
223
330
E3
100
AcDbEntity
  8
0
  6
Continuous
 62
   251
370
    35
100
AcDbLine
 10
165.5577125772232
 20
134.2481604631356
 30
0.0
 11
166.5456624488967
 21
135.6591015210703
 31
0.0
  0
LINE
  5
224
330
E3
100
AcDbEntity
  8
0
  6
Continuous
 62
   251
370
    35
100
AcDbLine
 10
166.5456624488967
 20
135.6591015210703
 30
0.0
 11
168.0203447905047
 21
136.4138220821283
 31
0.0
  0
LINE
  5
225
330
E3
100
AcDbEntity
  8
0
  6
Continuous
 62
   251
370
    35
100
AcDbLine
 10
173.5162725556688
 20
124.1823588960638
 30
0.0
 11
171.8723971101047
 21
124.3871913363007
 31
0.0
  0
LINE
  5
226
330
E3
100
AcDbEntity
  8
0
  6
Continuous
 62
   251
370
    35
100
AcDbLine
 10
171.8723971101047
 20
124.3871913363007
 30
0.0
 11
170.4614560521699
 21
125.3751454211597
 31
0.0
  0
LINE
  5
227
330
E3
100
AcDbEntity
  8
0
  6
Continuous
 62
   251
370
    35
100
AcDbLine
 10
170.4614560521699
 20
125.3751454211597
 30
0.0
 11
169.7067354911119
 21
126.8498235495822
 31
0.0
  0
LINE
  5
228
330
E3
100
AcDbEntity
  8
0
  6
Continuous
 62
   251
370
    35
100
AcDbLine
 10
169.7067354911119
 20
126.8498235495822
 30
0.0
 11
170.193733391734
 21
128.9976465410996
 31
0.0
  0
LINE
  5
229
330
E3
100
AcDbEntity
  8
0
  6
Continuous
 62
   251
370
    35
100
AcDbLine
 10
170.193733391734
 20
128.9976465410996
 30
0.0
 11
171.342888167625
 21
131.5985344370924
 31
0.0
  0
LINE
  5
22A
330
E3
100
AcDbEntity
  8
0
  6
Continuous
 62
   251
370
    35
100
AcDbLine
 10
171.342888167625
 20
131.5985344370924
 30
0.0
 11
171.8298818550616
 21
133.7463574286099
 31
0.0
  0
LINE
  5
22B
330
E3
100
AcDbEntity
  8
0
  6
Continuous
 62
   251
370
    35
100
AcDbLine
 10
171.8298818550616
 20
133.7463574286099
 30
0.0
 11
171.0751612940036
 21
135.2210355570324
 31
0.0
  0
LINE
  5
22C
330
E3
100
AcDbEntity
  8
0
  6
Continuous
 62
   251
370
    35
100
AcDbLine
 10
171.0751612940036
 20
135.2210355570324
 30
0.0
 11
169.6642202360688
 21
136.2089896418914
 31
0.0
  0
LINE
  5
22D
330
E3
100
AcDbEntity
  8
0
  6
Continuous
 62
   251
370
    35
100
AcDbLine
 10
169.6642202360688
 20
136.2089896418914
 30
0.0
 11
168.0203447905047
 21
136.4138220821283
 31
0.0
  0
LINE
  5
22E
330
E3
100
AcDbEntity
  8
0
  6
Continuous
 62
   251
370
    35
100
AcDbLine
 10
173.5162725556688
 20
124.1823588960638
 30
0.0
 11
174.9909548972768
 21
124.9370794571218
 31
0.0
  0
LINE
  5
22F
330
E3
100
AcDbEntity
  8
0
  6
Continuous
 62
   251
370
    35
100
AcDbLine
 10
174.9909548972768
 20
124.9370794571218
 30
0.0
 11
175.9789047689503
 21
126.3480205150565
 31
0.0
  0
LINE
  5
230
330
E3
100
AcDbEntity
  8
0
  6
Continuous
 62
   251
370
    35
100
AcDbLine
 10
175.9789047689503
 20
126.3480205150565
 30
0.0
 11
176.1837414223727
 21
127.9918959606206
 31
0.0
  0
LINE
  5
231
330
E3
100
AcDbEntity
  8
0
  6
Continuous
 62
   251
370
    35
100
AcDbLine
 10
176.1837414223727
 20
127.9918959606206
 30
0.0
 11
174.9915152509504
 21
129.8436247004366
 31
0.0
  0
LINE
  5
232
330
E3
100
AcDbEntity
  8
0
  6
Continuous
 62
   251
370
    35
100
AcDbLine
 10
174.9915152509504
 20
129.8436247004366
 30
0.0
 11
173.0221080264838
 21
131.8946244756083
 31
0.0
  0
LINE
  5
233
330
E3
100
AcDbEntity
  8
0
  6
Continuous
 62
   251
370
    35
100
AcDbLine
 10
173.0221080264838
 20
131.8946244756083
 30
0.0
 11
171.8298818550616
 21
133.7463574286099
 31
0.0
  0
LINE
  5
234
330
E3
100
AcDbEntity
  8
0
  6
Continuous
 62
   251
370
    35
100
AcDbLine
 10
171.8298818550616
 20
133.7463574286099
 30
0.0
 11
172.034718508484
 21
135.390232874174
 31
0.0
  0
LINE
  5
235
330
E3
100
AcDbEntity
  8
0
  6
Continuous
 62
   251
370
    35
100
AcDbLine
 10
172.034718508484
 20
135.390232874174
 30
0.0
 11
173.0226683801575
 21
136.8011739321088
 31
0.0
  0
LINE
  5
236
330
E3
100
AcDbEntity
  8
0
  6
Continuous
 62
   251
370
    35
100
AcDbLine
 10
173.0226683801575
 20
136.8011739321088
 30
0.0
 11
174.4973507217655
 21
137.5558944931667
 31
0.0
  0
LINE
  5
237
330
E3
100
AcDbEntity
  8
0
  6
Continuous
 62
   251
370
    35
100
AcDbLine
 10
179.9932784869295
 20
125.3244270939167
 30
0.0
 11
178.3494030413654
 21
125.5292637473391
 31
0.0
  0
LINE
  5
238
330
E3
100
AcDbEntity
  8
0
  6
Continuous
 62
   251
370
    35
100
AcDbLine
 10
178.3494030413654
 20
125.5292637473391
 30
0.0
 11
176.9384619834307
 21
126.5172136190126
 31
0.0
  0
LINE
  5
239
330
E3
100
AcDbEntity
  8
0
  6
Continuous
 62
   251
370
    35
100
AcDbLine
 10
176.9384619834307
 20
126.5172136190126
 30
0.0
 11
176.1837414223727
 21
127.9918959606206
 31
0.0
  0
LINE
  5
23A
330
E3
100
AcDbEntity
  8
0
  6
Continuous
 62
   251
370
    35
100
AcDbLine
 10
176.1837414223727
 20
127.9918959606206
 30
0.0
 11
176.6707393229947
 21
130.1397189521381
 31
0.0
  0
LINE
  5
23B
330
E3
100
AcDbEntity
  8
0
  6
Continuous
 62
   251
370
    35
100
AcDbLine
 10
176.6707393229947
 20
130.1397189521381
 30
0.0
 11
177.8198898857002
 21
132.7406026349453
 31
0.0
  0
LINE
  5
23C
330
E3
100
AcDbEntity
  8
0
  6
Continuous
 62
   251
370
    35
100
AcDbLine
 10
177.8198898857002
 20
132.7406026349453
 30
0.0
 11
178.3068877863223
 21
134.8884256264628
 31
0.0
  0
LINE
  5
23D
330
E3
100
AcDbEntity
  8
0
  6
Continuous
 62
   251
370
    35
100
AcDbLine
 10
178.3068877863223
 20
134.8884256264628
 30
0.0
 11
177.5521672252643
 21
136.3631079680709
 31
0.0
  0
LINE
  5
23E
330
E3
100
AcDbEntity
  8
0
  6
Continuous
 62
   251
370
    35
100
AcDbLine
 10
177.5521672252643
 20
136.3631079680709
 30
0.0
 11
176.1412261673296
 21
137.3510578397443
 31
0.0
  0
LINE
  5
23F
330
E3
100
AcDbEntity
  8
0
  6
Continuous
 62
   251
370
    35
100
AcDbLine
 10
176.1412261673296
 20
137.3510578397443
 30
0.0
 11
174.4973507217655
 21
137.5558944931667
 31
0.0
  0
LINE
  5
240
330
E3
100
AcDbEntity
  8
0
  6
Continuous
 62
   251
370
    35
100
AcDbLine
 10
179.9932784869295
 20
125.3244270939167
 30
0.0
 11
181.4679608285375
 21
126.0791476549747
 31
0.0
  0
LINE
  5
241
330
E3
100
AcDbEntity
  8
0
  6
Continuous
 62
   251
370
    35
100
AcDbLine
 10
181.4679608285375
 20
126.0791476549747
 30
0.0
 11
182.455910700211
 21
127.4900887129094
 31
0.0
  0
LINE
  5
242
330
E3
100
AcDbEntity
  8
0
  6
Continuous
 62
   251
370
    35
100
AcDbLine
 10
182.455910700211
 20
127.4900887129094
 30
0.0
 11
182.6607473536334
 21
129.1339641584735
 31
0.0
  0
LINE
  5
243
330
E3
100
AcDbEntity
  8
0
  6
Continuous
 62
   251
370
    35
100
AcDbLine
 10
182.6607473536334
 20
129.1339641584735
 30
0.0
 11
181.4685211822112
 21
130.9856971114751
 31
0.0
  0
LINE
  5
244
330
E3
100
AcDbEntity
  8
0
  6
Continuous
 62
   251
370
    35
100
AcDbLine
 10
181.4685211822112
 20
130.9856971114751
 30
0.0
 11
179.4991139577445
 21
133.0366968866468
 31
0.0
  0
LINE
  5
245
330
E3
100
AcDbEntity
  8
0
  6
Continuous
 62
   251
370
    35
100
AcDbLine
 10
179.4991139577445
 20
133.0366968866468
 30
0.0
 11
178.3068877863223
 21
134.8884256264628
 31
0.0
  0
LINE
  5
246
330
E3
100
AcDbEntity
  8
0
  6
Continuous
 62
   251
370
    35
100
AcDbLine
 10
178.3068877863223
 20
134.8884256264628
 30
0.0
 11
178.5117244397447
 21
136.5323052852125
 31
0.0
  0
LINE
  5
247
330
E3
100
AcDbEntity
  8
0
  6
Continuous
 62
   251
370
    35
100
AcDbLine
 10
178.5117244397447
 20
136.5323052852125
 30
0.0
 11
179.4996743114182
 21
137.9432421299617
 31
0.0
  0
LINE
  5
248
330
E3
100
AcDbEntity
  8
0
  6
Continuous
 62
   251
370
    35
100
AcDbLine
 10
179.4996743114182
 20
137.9432421299617
 30
0.0
 11
180.9743566530262
 21
138.6979626910197
 31
0.0
  0
LINE
  5
249
330
E3
100
AcDbEntity
  8
0
  6
Continuous
 62
   251
370
    35
100
AcDbLine
 10
186.4702844181903
 20
126.4664995049551
 30
0.0
 11
184.8264089726262
 21
126.6713361583775
 31
0.0
  0
LINE
  5
24A
330
E3
100
AcDbEntity
  8
0
  6
Continuous
 62
   251
370
    35
100
AcDbLine
 10
184.8264089726262
 20
126.6713361583775
 30
0.0
 11
183.4154679146914
 21
127.659286030051
 31
0.0
  0
LINE
  5
24B
330
E3
100
AcDbEntity
  8
0
  6
Continuous
 62
   251
370
    35
100
AcDbLine
 10
183.4154679146914
 20
127.659286030051
 30
0.0
 11
182.6607473536334
 21
129.1339641584735
 31
0.0
  0
LINE
  5
24C
330
E3
100
AcDbEntity
  8
0
  6
Continuous
 62
   251
370
    35
100
AcDbLine
 10
182.6607473536334
 20
129.1339641584735
 30
0.0
 11
183.14774104107
 21
131.281787149991
 31
0.0
  0
LINE
  5
24D
330
E3
100
AcDbEntity
  8
0
  6
Continuous
 62
   251
370
    35
100
AcDbLine
 10
183.14774104107
 20
131.281787149991
 30
0.0
 11
184.296895816961
 21
133.8826750459838
 31
0.0
  0
LINE
  5
24E
330
E3
100
AcDbEntity
  8
0
  6
Continuous
 62
   251
370
    35
100
AcDbLine
 10
184.296895816961
 20
133.8826750459838
 30
0.0
 11
184.7838937175831
 21
136.0304980375013
 31
0.0
  0
LINE
  5
24F
330
E3
100
AcDbEntity
  8
0
  6
Continuous
 62
   251
370
    35
100
AcDbLine
 10
184.7838937175831
 20
136.0304980375013
 30
0.0
 11
184.029173156525
 21
137.5051803791093
 31
0.0
  0
LINE
  5
250
330
E3
100
AcDbEntity
  8
0
  6
Continuous
 62
   251
370
    35
100
AcDbLine
 10
184.029173156525
 20
137.5051803791093
 30
0.0
 11
182.6182320985903
 21
138.4931302507828
 31
0.0
  0
LINE
  5
251
330
E3
100
AcDbEntity
  8
0
  6
Continuous
 62
   251
370
    35
100
AcDbLine
 10
182.6182320985903
 20
138.4931302507828
 30
0.0
 11
180.9743566530262
 21
138.6979626910197
 31
0.0
  0
LINE
  5
252
330
E3
100
AcDbEntity
  8
0
  6
Continuous
 62
   251
370
    35
100
AcDbLine
 10
186.4702844181903
 20
126.4664995049551
 30
0.0
 11
187.9449667597983
 21
127.2212200660131
 31
0.0
  0
LINE
  5
253
330
E3
100
AcDbEntity
  8
0
  6
Continuous
 62
   251
370
    35
100
AcDbLine
 10
187.9449667597983
 20
127.2212200660131
 30
0.0
 11
188.9329166314718
 21
128.6321611239478
 31
0.0
  0
LINE
  5
254
330
E3
100
AcDbEntity
  8
0
  6
Continuous
 62
   251
370
    35
100
AcDbLine
 10
188.9329166314718
 20
128.6321611239478
 30
0.0
 11
189.1377490717087
 21
130.2760365695119
 31
0.0
  0
LINE
  5
255
330
E3
100
AcDbEntity
  8
0
  6
Continuous
 62
   251
370
    35
100
AcDbLine
 10
189.1377490717087
 20
130.2760365695119
 30
0.0
 11
187.9455229002864
 21
132.1277695225135
 31
0.0
  0
LINE
  5
256
330
E3
100
AcDbEntity
  8
0
  6
Continuous
 62
   251
370
    35
100
AcDbLine
 10
187.9455229002864
 20
132.1277695225135
 30
0.0
 11
185.9761198890053
 21
134.1787650844997
 31
0.0
  0
LINE
  5
257
330
E3
100
AcDbEntity
  8
0
  6
Continuous
 62
   251
370
    35
100
AcDbLine
 10
185.9761198890053
 20
134.1787650844997
 30
0.0
 11
184.7838937175831
 21
136.0304980375013
 31
0.0
  0
LINE
  5
258
330
E3
100
AcDbEntity
  8
0
  6
Continuous
 62
   251
370
    35
100
AcDbLine
 10
184.7838937175831
 20
136.0304980375013
 30
0.0
 11
184.9887261578199
 21
137.6743734830654
 31
0.0
  0
LINE
  5
259
330
E3
100
AcDbEntity
  8
0
  6
Continuous
 62
   251
370
    35
100
AcDbLine
 10
184.9887261578199
 20
137.6743734830654
 30
0.0
 11
185.9766802426789
 21
139.0853145410001
 31
0.0
  0
LINE
  5
25A
330
E3
100
AcDbEntity
  8
0
  6
Continuous
 62
   251
370
    35
100
AcDbLine
 10
185.9766802426789
 20
139.0853145410001
 30
0.0
 11
187.4513583711014
 21
139.8400351020581
 31
0.0
  0
LINE
  5
25B
330
E3
100
AcDbEntity
  8
0
  6
Continuous
 62
   251
370
    35
100
AcDbLine
 10
192.947290349451
 20
127.608567702808
 30
0.0
 11
191.3034106907014
 21
127.8134043562304
 31
0.0
  0
LINE
  5
25C
330
E3
100
AcDbEntity
  8
0
  6
Continuous
 62
   251
370
    35
100
AcDbLine
 10
191.3034106907014
 20
127.8134043562304
 30
0.0
 11
189.8924738459521
 21
128.8013542279039
 31
0.0
  0
LINE
  5
25D
330
E3
100
AcDbEntity
  8
0
  6
Continuous
 62
   251
370
    35
100
AcDbLine
 10
189.8924738459521
 20
128.8013542279039
 30
0.0
 11
189.1377490717087
 21
130.2760365695119
 31
0.0
  0
LINE
  5
25E
330
E3
100
AcDbEntity
  8
0
  6
Continuous
 62
   251
370
    35
100
AcDbLine
 10
189.1377490717087
 20
130.2760365695119
 30
0.0
 11
189.6247469723307
 21
132.4238595610294
 31
0.0
  0
LINE
  5
25F
330
E3
100
AcDbEntity
  8
0
  6
Continuous
 62
   251
370
    35
100
AcDbLine
 10
189.6247469723307
 20
132.4238595610294
 30
0.0
 11
190.7739017482217
 21
135.0247432438367
 31
0.0
  0
LINE
  5
260
330
E3
100
AcDbEntity
  8
0
  6
Continuous
 62
   251
370
    35
100
AcDbLine
 10
190.7739017482217
 20
135.0247432438367
 30
0.0
 11
191.2608996488438
 21
137.1725662353542
 31
0.0
  0
LINE
  5
261
330
E3
100
AcDbEntity
  8
0
  6
Continuous
 62
   251
370
    35
100
AcDbLine
 10
191.2608996488438
 20
137.1725662353542
 30
0.0
 11
190.5061748746003
 21
138.6472485769622
 31
0.0
  0
LINE
  5
262
330
E3
100
AcDbEntity
  8
0
  6
Continuous
 62
   251
370
    35
100
AcDbLine
 10
190.5061748746003
 20
138.6472485769622
 30
0.0
 11
189.0952380298511
 21
139.6351984486357
 31
0.0
  0
LINE
  5
263
330
E3
100
AcDbEntity
  8
0
  6
Continuous
 62
   251
370
    35
100
AcDbLine
 10
189.0952380298511
 20
139.6351984486357
 30
0.0
 11
187.4513583711014
 21
139.8400351020581
 31
0.0
  0
LINE
  5
264
330
E3
100
AcDbEntity
  8
0
  6
Continuous
 62
   251
370
    35
100
AcDbLine
 10
192.947290349451
 20
127.608567702808
 30
0.0
 11
194.4219684778735
 21
128.3632924770515
 31
0.0
  0
LINE
  5
265
330
E3
100
AcDbEntity
  8
0
  6
Continuous
 62
   251
370
    35
100
AcDbLine
 10
194.4219684778735
 20
128.3632924770515
 30
0.0
 11
195.4099225627325
 21
129.7742293218007
 31
0.0
  0
LINE
  5
266
330
E3
100
AcDbEntity
  8
0
  6
Continuous
 62
   251
370
    35
100
AcDbLine
 10
195.4099225627325
 20
129.7742293218007
 30
0.0
 11
195.6147550029694
 21
131.4181089805504
 31
0.0
  0
LINE
  5
267
330
E3
100
AcDbEntity
  8
0
  6
Continuous
 62
   251
370
    35
100
AcDbLine
 10
195.6147550029694
 20
131.4181089805504
 30
0.0
 11
194.4225288315471
 21
133.2698377203664
 31
0.0
  0
LINE
  5
268
330
E3
100
AcDbEntity
  8
0
  6
Continuous
 62
   251
370
    35
100
AcDbLine
 10
194.4225288315471
 20
133.2698377203664
 30
0.0
 11
192.453125820266
 21
135.3208374955381
 31
0.0
  0
LINE
  5
269
330
E3
100
AcDbEntity
  8
0
  6
Continuous
 62
   251
370
    35
100
AcDbLine
 10
192.453125820266
 20
135.3208374955381
 30
0.0
 11
191.2608996488438
 21
137.1725662353542
 31
0.0
  0
LINE
  5
26A
330
E3
100
AcDbEntity
  8
0
  6
Continuous
 62
   251
370
    35
100
AcDbLine
 10
191.2608996488438
 20
137.1725662353542
 30
0.0
 11
191.4657320890807
 21
138.8164458941038
 31
0.0
  0
LINE
  5
26B
330
E3
100
AcDbEntity
  8
0
  6
Continuous
 62
   251
370
    35
100
AcDbLine
 10
191.4657320890807
 20
138.8164458941038
 30
0.0
 11
192.4536819607542
 21
140.227382738853
 31
0.0
  0
LINE
  5
26C
330
E3
100
AcDbEntity
  8
0
  6
Continuous
 62
   251
370
    35
100
AcDbLine
 10
192.4536819607542
 20
140.227382738853
 30
0.0
 11
193.9283643023622
 21
140.9821075130965
 31
0.0
  0
LINE
  5
26D
330
E3
100
AcDbEntity
  8
0
  6
Continuous
 62
   251
370
    35
100
AcDbLine
 10
199.4242920675262
 20
128.7506401138465
 30
0.0
 11
197.7804166219621
 21
128.9554767672689
 31
0.0
  0
LINE
  5
26E
330
E3
100
AcDbEntity
  8
0
  6
Continuous
 62
   251
370
    35
100
AcDbLine
 10
197.7804166219621
 20
128.9554767672689
 30
0.0
 11
196.3694755640274
 21
129.9434266389424
 31
0.0
  0
LINE
  5
26F
330
E3
100
AcDbEntity
  8
0
  6
Continuous
 62
   251
370
    35
100
AcDbLine
 10
196.3694755640274
 20
129.9434266389424
 30
0.0
 11
195.6147550029694
 21
131.4181089805504
 31
0.0
  0
LINE
  5
270
330
E3
100
AcDbEntity
  8
0
  6
Continuous
 62
   251
370
    35
100
AcDbLine
 10
195.6147550029694
 20
131.4181089805504
 30
0.0
 11
196.1017529035914
 21
133.5659319720679
 31
0.0
  0
LINE
  5
271
330
E3
100
AcDbEntity
  8
0
  6
Continuous
 62
   251
370
    35
100
AcDbLine
 10
196.1017529035914
 20
133.5659319720679
 30
0.0
 11
197.250903466297
 21
136.1668156548751
 31
0.0
  0
LINE
  5
272
330
E3
100
AcDbEntity
  8
0
  6
Continuous
 62
   251
370
    35
100
AcDbLine
 10
197.250903466297
 20
136.1668156548751
 30
0.0
 11
197.737901366919
 21
138.3146386463926
 31
0.0
  0
LINE
  5
273
330
E3
100
AcDbEntity
  8
0
  6
Continuous
 62
   251
370
    35
100
AcDbLine
 10
197.737901366919
 20
138.3146386463926
 30
0.0
 11
196.983180805861
 21
139.7893209880006
 31
0.0
  0
LINE
  5
274
330
E3
100
AcDbEntity
  8
0
  6
Continuous
 62
   251
370
    35
100
AcDbLine
 10
196.983180805861
 20
139.7893209880006
 30
0.0
 11
195.5722397479263
 21
140.7772708596741
 31
0.0
  0
LINE
  5
275
330
E3
100
AcDbEntity
  8
0
  6
Continuous
 62
   251
370
    35
100
AcDbLine
 10
195.5722397479263
 20
140.7772708596741
 30
0.0
 11
193.9283643023622
 21
140.9821075130965
 31
0.0
  0
LINE
  5
276
330
E3
100
AcDbEntity
  8
0
  6
Continuous
 62
   251
370
    35
100
AcDbLine
 10
199.4242920675262
 20
128.7506401138465
 30
0.0
 11
200.8989744091343
 21
129.5053606749044
 31
0.0
  0
LINE
  5
277
330
E3
100
AcDbEntity
  8
0
  6
Continuous
 62
   251
370
    35
100
AcDbLine
 10
200.8989744091343
 20
129.5053606749044
 30
0.0
 11
201.8869242808077
 21
130.9163017328392
 31
0.0
  0
LINE
  5
278
330
E3
100
AcDbEntity
  8
0
  6
Continuous
 62
   251
370
    35
100
AcDbLine
 10
201.8869242808077
 20
130.9163017328392
 30
0.0
 11
202.0917609342301
 21
132.5601771784033
 31
0.0
  0
LINE
  5
279
330
E3
100
AcDbEntity
  8
0
  6
Continuous
 62
   251
370
    35
100
AcDbLine
 10
202.0917609342301
 20
132.5601771784033
 30
0.0
 11
200.8995347628079
 21
134.4119101314049
 31
0.0
  0
LINE
  5
27A
330
E3
100
AcDbEntity
  8
0
  6
Continuous
 62
   251
370
    35
100
AcDbLine
 10
200.8995347628079
 20
134.4119101314049
 30
0.0
 11
198.9301275383413
 21
136.4629099065766
 31
0.0
  0
LINE
  5
27B
330
E3
100
AcDbEntity
  8
0
  6
Continuous
 62
   251
370
    35
100
AcDbLine
 10
198.9301275383413
 20
136.4629099065766
 30
0.0
 11
197.737901366919
 21
138.3146386463926
 31
0.0
  0
LINE
  5
27C
330
E3
100
AcDbEntity
  8
0
  6
Continuous
 62
   251
370
    35
100
AcDbLine
 10
197.737901366919
 20
138.3146386463926
 30
0.0
 11
197.9427380203414
 21
139.9585140919567
 31
0.0
  0
LINE
  5
27D
330
E3
100
AcDbEntity
  8
0
  6
Continuous
 62
   251
370
    35
100
AcDbLine
 10
197.9427380203414
 20
139.9585140919567
 30
0.0
 11
198.9306878920149
 21
141.3694551498915
 31
0.0
  0
LINE
  5
27E
330
E3
100
AcDbEntity
  8
0
  6
Continuous
 62
   251
370
    35
100
AcDbLine
 10
198.9306878920149
 20
141.3694551498915
 30
0.0
 11
200.4053702336229
 21
142.1241757109494
 31
0.0
  0
LINE
  5
27F
330
E3
100
AcDbEntity
  8
0
  6
Continuous
 62
   251
370
    35
100
AcDbLine
 10
205.901297998787
 20
129.8927125248849
 30
0.0
 11
204.2574225532229
 21
130.0975449651218
 31
0.0
  0
LINE
  5
280
330
E3
100
AcDbEntity
  8
0
  6
Continuous
 62
   251
370
    35
100
AcDbLine
 10
204.2574225532229
 20
130.0975449651218
 30
0.0
 11
202.8464814952881
 21
131.0854990499808
 31
0.0
  0
LINE
  5
281
330
E3
100
AcDbEntity
  8
0
  6
Continuous
 62
   251
370
    35
100
AcDbLine
 10
202.8464814952881
 20
131.0854990499808
 30
0.0
 11
202.0917609342301
 21
132.5601771784033
 31
0.0
  0
LINE
  5
282
330
E3
100
AcDbEntity
  8
0
  6
Continuous
 62
   251
370
    35
100
AcDbLine
 10
202.0917609342301
 20
132.5601771784033
 30
0.0
 11
202.5787588348522
 21
134.7080001699208
 31
0.0
  0
LINE
  5
283
330
E3
100
AcDbEntity
  8
0
  6
Continuous
 62
   251
370
    35
100
AcDbLine
 10
202.5787588348522
 20
134.7080001699208
 30
0.0
 11
203.7279093975577
 21
137.3088880659136
 31
0.0
  0
LINE
  5
284
330
E3
100
AcDbEntity
  8
0
  6
Continuous
 62
   251
370
    35
100
AcDbLine
 10
203.7279093975577
 20
137.3088880659136
 30
0.0
 11
204.2149072981798
 21
139.4567110574311
 31
0.0
  0
LINE
  5
285
330
E3
100
AcDbEntity
  8
0
  6
Continuous
 62
   251
370
    35
100
AcDbLine
 10
204.2149072981798
 20
139.4567110574311
 30
0.0
 11
203.4601867371218
 21
140.9313891858536
 31
0.0
  0
LINE
  5
286
330
E3
100
AcDbEntity
  8
0
  6
Continuous
 62
   251
370
    35
100
AcDbLine
 10
203.4601867371218
 20
140.9313891858536
 30
0.0
 11
202.049245679187
 21
141.9193432707125
 31
0.0
  0
LINE
  5
287
330
E3
100
AcDbEntity
  8
0
  6
Continuous
 62
   251
370
    35
100
AcDbLine
 10
202.049245679187
 20
141.9193432707125
 30
0.0
 11
200.4053702336229
 21
142.1241757109494
 31
0.0
  0
LINE
  5
288
330
E3
100
AcDbEntity
  8
0
  6
Continuous
 62
   251
370
    35
100
AcDbLine
 10
205.901297998787
 20
129.8927125248849
 30
0.0
 11
207.375980340395
 21
130.6474330859429
 31
0.0
  0
LINE
  5
289
330
E3
100
AcDbEntity
  8
0
  6
Continuous
 62
   251
370
    35
100
AcDbLine
 10
207.375980340395
 20
130.6474330859429
 30
0.0
 11
208.3639302120685
 21
132.0583699306921
 31
0.0
  0
LINE
  5
28A
330
E3
100
AcDbEntity
  8
0
  6
Continuous
 62
   251
370
    35
100
AcDbLine
 10
208.3639302120685
 20
132.0583699306921
 30
0.0
 11
208.5687668654909
 21
133.7022495894417
 31
0.0
  0
LINE
  5
28B
330
E3
100
AcDbEntity
  8
0
  6
Continuous
 62
   251
370
    35
100
AcDbLine
 10
208.5687668654909
 20
133.7022495894417
 30
0.0
 11
207.3765406940686
 21
135.5539783292578
 31
0.0
  0
LINE
  5
28C
330
E3
100
AcDbEntity
  8
0
  6
Continuous
 62
   251
370
    35
100
AcDbLine
 10
207.3765406940686
 20
135.5539783292578
 30
0.0
 11
205.407133469602
 21
137.6049781044294
 31
0.0
  0
LINE
  5
28D
330
E3
100
AcDbEntity
  8
0
  6
Continuous
 62
   251
370
    35
100
AcDbLine
 10
205.407133469602
 20
137.6049781044294
 30
0.0
 11
204.2149072981798
 21
139.4567110574311
 31
0.0
  0
LINE
  5
28E
330
E3
100
AcDbEntity
  8
0
  6
Continuous
 62
   251
370
    35
100
AcDbLine
 10
204.2149072981798
 20
139.4567110574311
 30
0.0
 11
204.4197439516022
 21
141.1005865029952
 31
0.0
  0
LINE
  5
28F
330
E3
100
AcDbEntity
  8
0
  6
Continuous
 62
   251
370
    35
100
AcDbLine
 10
204.4197439516022
 20
141.1005865029952
 30
0.0
 11
205.4076938232756
 21
142.5115275609299
 31
0.0
  0
LINE
  5
290
330
E3
100
AcDbEntity
  8
0
  6
Continuous
 62
   251
370
    35
100
AcDbLine
 10
205.4076938232756
 20
142.5115275609299
 30
0.0
 11
206.8823761648837
 21
143.2662481219879
 31
0.0
  0
LINE
  5
291
330
E3
100
AcDbEntity
  8
0
  6
Continuous
 62
   251
370
    35
100
AcDbLine
 10
212.3783039300477
 20
131.0347807227378
 30
0.0
 11
210.7344284844836
 21
131.2396173761602
 31
0.0
  0
LINE
  5
292
330
E3
100
AcDbEntity
  8
0
  6
Continuous
 62
   251
370
    35
100
AcDbLine
 10
210.7344284844836
 20
131.2396173761602
 30
0.0
 11
209.3234874265489
 21
132.2275672478337
 31
0.0
  0
LINE
  5
293
330
E3
100
AcDbEntity
  8
0
  6
Continuous
 62
   251
370
    35
100
AcDbLine
 10
209.3234874265489
 20
132.2275672478337
 30
0.0
 11
208.5687668654909
 21
133.7022495894417
 31
0.0
  0
LINE
  5
294
330
E3
100
AcDbEntity
  8
0
  6
Continuous
 62
   251
370
    35
100
AcDbLine
 10
208.5687668654909
 20
133.7022495894417
 30
0.0
 11
209.0557605529274
 21
135.8500725809592
 31
0.0
  0
LINE
  5
295
330
E3
100
AcDbEntity
  8
0
  6
Continuous
 62
   251
370
    35
100
AcDbLine
 10
209.0557605529274
 20
135.8500725809592
 30
0.0
 11
210.2049153288184
 21
138.4509562637665
 31
0.0
  0
LINE
  5
296
330
E3
100
AcDbEntity
  8
0
  6
Continuous
 62
   251
370
    35
100
AcDbLine
 10
210.2049153288184
 20
138.4509562637665
 30
0.0
 11
210.6919132294405
 21
140.598779255284
 31
0.0
  0
LINE
  5
297
330
E3
100
AcDbEntity
  8
0
  6
Continuous
 62
   251
370
    35
100
AcDbLine
 10
210.6919132294405
 20
140.598779255284
 30
0.0
 11
209.9371926683825
 21
142.073461596892
 31
0.0
  0
LINE
  5
298
330
E3
100
AcDbEntity
  8
0
  6
Continuous
 62
   251
370
    35
100
AcDbLine
 10
209.9371926683825
 20
142.073461596892
 30
0.0
 11
208.5262516104478
 21
143.0614114685655
 31
0.0
  0
LINE
  5
299
330
E3
100
AcDbEntity
  8
0
  6
Continuous
 62
   251
370
    35
100
AcDbLine
 10
208.5262516104478
 20
143.0614114685655
 30
0.0
 11
206.8823761648837
 21
143.2662481219879
 31
0.0
  0
LINE
  5
29A
330
E3
100
AcDbEntity
  8
0
  6
Continuous
 62
   251
370
    35
100
AcDbLine
 10
212.3783039300477
 20
131.0347807227378
 30
0.0
 11
213.8529862716557
 21
131.7895012837958
 31
0.0
  0
LINE
  5
29B
330
E3
100
AcDbEntity
  8
0
  6
Continuous
 62
   251
370
    35
100
AcDbLine
 10
213.8529862716557
 20
131.7895012837958
 30
0.0
 11
214.8409361433292
 21
133.2004423417305
 31
0.0
  0
LINE
  5
29C
330
E3
100
AcDbEntity
  8
0
  6
Continuous
 62
   251
370
    35
100
AcDbLine
 10
214.8409361433292
 20
133.2004423417305
 30
0.0
 11
215.0457685835661
 21
134.8443177872946
 31
0.0
  0
LINE
  5
29D
330
E3
100
AcDbEntity
  8
0
  6
Continuous
 62
   251
370
    35
100
AcDbLine
 10
215.0457685835661
 20
134.8443177872946
 30
0.0
 11
213.8535424121439
 21
136.6960507402962
 31
0.0
  0
LINE
  5
29E
330
E3
100
AcDbEntity
  8
0
  6
Continuous
 62
   251
370
    35
100
AcDbLine
 10
213.8535424121439
 20
136.6960507402962
 30
0.0
 11
211.8841394008627
 21
138.7470505154679
 31
0.0
  0
LINE
  5
29F
330
E3
100
AcDbEntity
  8
0
  6
Continuous
 62
   251
370
    35
100
AcDbLine
 10
211.8841394008627
 20
138.7470505154679
 30
0.0
 11
210.6919132294405
 21
140.598779255284
 31
0.0
  0
LINE
  5
2A0
330
E3
100
AcDbEntity
  8
0
  6
Continuous
 62
   251
370
    35
100
AcDbLine
 10
210.6919132294405
 20
140.598779255284
 30
0.0
 11
210.8967456696774
 21
142.2426589140336
 31
0.0
  0
LINE
  5
2A1
330
E3
100
AcDbEntity
  8
0
  6
Continuous
 62
   251
370
    35
100
AcDbLine
 10
210.8967456696774
 20
142.2426589140336
 30
0.0
 11
211.8846997545364
 21
143.6535957587828
 31
0.0
  0
LINE
  5
2A2
330
E3
100
AcDbEntity
  8
0
  6
Continuous
 62
   251
370
    35
100
AcDbLine
 10
211.8846997545364
 20
143.6535957587828
 30
0.0
 11
213.3593778829589
 21
144.4083163198408
 31
0.0
  0
LINE
  5
2A3
330
E3
100
AcDbEntity
  8
0
  6
Continuous
 62
   251
370
    35
100
AcDbLine
 10
218.8553098613084
 20
132.1768531337763
 30
0.0
 11
217.2114302025588
 21
132.3816855740131
 31
0.0
  0
LINE
  5
2A4
330
E3
100
AcDbEntity
  8
0
  6
Continuous
 62
   251
370
    35
100
AcDbLine
 10
217.2114302025588
 20
132.3816855740131
 30
0.0
 11
215.8004933578096
 21
133.3696396588721
 31
0.0
  0
LINE
  5
2A5
330
E3
100
AcDbEntity
  8
0
  6
Continuous
 62
   251
370
    35
100
AcDbLine
 10
215.8004933578096
 20
133.3696396588721
 30
0.0
 11
215.0457685835661
 21
134.8443177872946
 31
0.0
  0
LINE
  5
2A6
330
E3
100
AcDbEntity
  8
0
  6
Continuous
 62
   251
370
    35
100
AcDbLine
 10
215.0457685835661
 20
134.8443177872946
 30
0.0
 11
215.5327664841882
 21
136.9921407788121
 31
0.0
  0
LINE
  5
2A7
330
E3
100
AcDbEntity
  8
0
  6
Continuous
 62
   251
370
    35
100
AcDbLine
 10
215.5327664841882
 20
136.9921407788121
 30
0.0
 11
216.6819212600792
 21
139.5930286748049
 31
0.0
  0
LINE
  5
2A8
330
E3
100
AcDbEntity
  8
0
  6
Continuous
 62
   251
370
    35
100
AcDbLine
 10
216.6819212600792
 20
139.5930286748049
 30
0.0
 11
217.1689149475157
 21
141.7408516663224
 31
0.0
  0
LINE
  5
2A9
330
E3
100
AcDbEntity
  8
0
  6
Continuous
 62
   251
370
    35
100
AcDbLine
 10
217.1689149475157
 20
141.7408516663224
 30
0.0
 11
216.4141943864577
 21
143.2155340079304
 31
0.0
  0
LINE
  5
2AA
330
E3
100
AcDbEntity
  8
0
  6
Continuous
 62
   251
370
    35
100
AcDbLine
 10
216.4141943864577
 20
143.2155340079304
 30
0.0
 11
215.0032575417085
 21
144.2034838796039
 31
0.0
  0
LINE
  5
2AB
330
E3
100
AcDbEntity
  8
0
  6
Continuous
 62
   251
370
    35
100
AcDbLine
 10
215.0032575417085
 20
144.2034838796039
 30
0.0
 11
213.3593778829589
 21
144.4083163198408
 31
0.0
  0
LINE
  5
2AC
330
E3
100
AcDbEntity
  8
0
  6
Continuous
 62
   251
370
    35
100
AcDbLine
 10
218.8553098613084
 20
132.1768531337763
 30
0.0
 11
220.329987989731
 21
132.9315736948342
 31
0.0
  0
LINE
  5
2AD
330
E3
100
AcDbEntity
  8
0
  6
Continuous
 62
   251
370
    35
100
AcDbLine
 10
220.329987989731
 20
132.9315736948342
 30
0.0
 11
221.3179378614044
 21
134.3425147527689
 31
0.0
  0
LINE
  5
2AE
330
E3
100
AcDbEntity
  8
0
  6
Continuous
 62
   251
370
    35
100
AcDbLine
 10
221.3179378614044
 20
134.3425147527689
 30
0.0
 11
221.5227745148268
 21
135.9863901983331
 31
0.0
  0
LINE
  5
2AF
330
E3
100
AcDbEntity
  8
0
  6
Continuous
 62
   251
370
    35
100
AcDbLine
 10
221.5227745148268
 20
135.9863901983331
 30
0.0
 11
220.3305483434046
 21
137.8381189381491
 31
0.0
  0
LINE
  5
2B0
330
E3
100
AcDbEntity
  8
0
  6
Continuous
 62
   251
370
    35
100
AcDbLine
 10
220.3305483434046
 20
137.8381189381491
 30
0.0
 11
218.3611453321235
 21
139.8891187133208
 31
0.0
  0
LINE
  5
2B1
330
E3
100
AcDbEntity
  8
0
  6
Continuous
 62
   251
370
    35
100
AcDbLine
 10
218.3611453321235
 20
139.8891187133208
 30
0.0
 11
217.1689149475157
 21
141.7408516663224
 31
0.0
  0
LINE
  5
2B2
330
E3
100
AcDbEntity
  8
0
  6
Continuous
 62
   251
370
    35
100
AcDbLine
 10
217.1689149475157
 20
141.7408516663224
 30
0.0
 11
217.3737516009381
 21
143.3847271118865
 31
0.0
  0
LINE
  5
2B3
330
E3
100
AcDbEntity
  8
0
  6
Continuous
 62
   251
370
    35
100
AcDbLine
 10
217.3737516009381
 20
143.3847271118865
 30
0.0
 11
218.3617014726116
 21
144.7956681698213
 31
0.0
  0
LINE
  5
2B4
330
E3
100
AcDbEntity
  8
0
  6
Continuous
 62
   251
370
    35
100
AcDbLine
 10
218.3617014726116
 20
144.7956681698213
 30
0.0
 11
219.8363838142197
 21
145.5503887308792
 31
0.0
  0
LINE
  5
2B5
330
E3
100
AcDbEntity
  8
0
  6
Continuous
 62
   251
370
    35
100
AcDbLine
 10
225.3323115793837
 20
133.3189213316292
 30
0.0
 11
223.6884361338196
 21
133.5237579850516
 31
0.0
  0
LINE
  5
2B6
330
E3
100
AcDbEntity
  8
0
  6
Continuous
 62
   251
370
    35
100
AcDbLine
 10
223.6884361338196
 20
133.5237579850516
 30
0.0
 11
222.2774950758848
 21
134.5117078567251
 31
0.0
  0
LINE
  5
2B7
330
E3
100
AcDbEntity
  8
0
  6
Continuous
 62
   251
370
    35
100
AcDbLine
 10
222.2774950758848
 20
134.5117078567251
 30
0.0
 11
221.5227745148268
 21
135.9863901983331
 31
0.0
  0
LINE
  5
2B8
330
E3
100
AcDbEntity
  8
0
  6
Continuous
 62
   251
370
    35
100
AcDbLine
 10
221.5227745148268
 20
135.9863901983331
 30
0.0
 11
222.0097724154489
 21
138.1342131898506
 31
0.0
  0
LINE
  5
2B9
330
E3
100
AcDbEntity
  8
0
  6
Continuous
 62
   251
370
    35
100
AcDbLine
 10
222.0097724154489
 20
138.1342131898506
 30
0.0
 11
223.1589229781544
 21
140.7350968726578
 31
0.0
  0
LINE
  5
2BA
330
E3
100
AcDbEntity
  8
0
  6
Continuous
 62
   251
370
    35
100
AcDbLine
 10
223.1589229781544
 20
140.7350968726578
 30
0.0
 11
223.6459208787765
 21
142.8829198641753
 31
0.0
  0
LINE
  5
2BB
330
E3
100
AcDbEntity
  8
0
  6
Continuous
 62
   251
370
    35
100
AcDbLine
 10
223.6459208787765
 20
142.8829198641753
 30
0.0
 11
222.8912003177185
 21
144.3576022057833
 31
0.0
  0
LINE
  5
2BC
330
E3
100
AcDbEntity
  8
0
  6
Continuous
 62
   251
370
    35
100
AcDbLine
 10
222.8912003177185
 20
144.3576022057833
 30
0.0
 11
221.4802592597837
 21
145.3455520774568
 31
0.0
  0
LINE
  5
2BD
330
E3
100
AcDbEntity
  8
0
  6
Continuous
 62
   251
370
    35
100
AcDbLine
 10
221.4802592597837
 20
145.3455520774568
 30
0.0
 11
219.8363838142197
 21
145.5503887308792
 31
0.0
  0
LINE
  5
2BE
330
E3
100
AcDbEntity
  8
0
  6
Continuous
 62
   251
370
    35
100
AcDbLine
 10
225.3323115793837
 20
133.3189213316292
 30
0.0
 11
226.8069939209917
 21
134.0736461058727
 31
0.0
  0
LINE
  5
2BF
330
E3
100
AcDbEntity
  8
0
  6
Continuous
 62
   251
370
    35
100
AcDbLine
 10
226.8069939209917
 20
134.0736461058727
 30
0.0
 11
227.7949437926652
 21
135.4845829506219
 31
0.0
  0
LINE
  5
2C0
330
E3
100
AcDbEntity
  8
0
  6
Continuous
 62
   251
370
    35
100
AcDbLine
 10
227.7949437926652
 20
135.4845829506219
 30
0.0
 11
227.9997804460876
 21
137.1284626093715
 31
0.0
  0
LINE
  5
2C1
330
E3
100
AcDbEntity
  8
0
  6
Continuous
 62
   251
370
    35
100
AcDbLine
 10
227.9997804460876
 20
137.1284626093715
 30
0.0
 11
226.8075542746654
 21
138.9801913491876
 31
0.0
  0
LINE
  5
2C2
330
E3
100
AcDbEntity
  8
0
  6
Continuous
 62
   251
370
    35
100
AcDbLine
 10
226.8075542746654
 20
138.9801913491876
 30
0.0
 11
224.8381470501987
 21
141.0311911243593
 31
0.0
  0
LINE
  5
2C3
330
E3
100
AcDbEntity
  8
0
  6
Continuous
 62
   251
370
    35
100
AcDbLine
 10
224.8381470501987
 20
141.0311911243593
 30
0.0
 11
223.6459208787765
 21
142.8829198641753
 31
0.0
  0
LINE
  5
2C4
330
E3
100
AcDbEntity
  8
0
  6
Continuous
 62
   251
370
    35
100
AcDbLine
 10
223.6459208787765
 20
142.8829198641753
 30
0.0
 11
223.8507575321989
 21
144.5267995229249
 31
0.0
  0
LINE
  5
2C5
330
E3
100
AcDbEntity
  8
0
  6
Continuous
 62
   251
370
    35
100
AcDbLine
 10
223.8507575321989
 20
144.5267995229249
 30
0.0
 11
224.8387074038723
 21
145.9377363676741
 31
0.0
  0
LINE
  5
2C6
330
E3
100
AcDbEntity
  8
0
  6
Continuous
 62
   251
370
    35
100
AcDbLine
 10
224.8387074038723
 20
145.9377363676741
 30
0.0
 11
226.3133897454804
 21
146.6924611419177
 31
0.0
  0
LINE
  5
2C7
330
E3
100
AcDbEntity
  8
0
  6
Continuous
 62
   251
370
    35
100
AcDbLine
 10
231.8093175106444
 20
134.4609937426676
 30
0.0
 11
230.1654420650803
 21
134.66583039609
 31
0.0
  0
LINE
  5
2C8
330
E3
100
AcDbEntity
  8
0
  6
Continuous
 62
   251
370
    35
100
AcDbLine
 10
230.1654420650803
 20
134.66583039609
 30
0.0
 11
228.7545010071456
 21
135.6537802677635
 31
0.0
  0
LINE
  5
2C9
330
E3
100
AcDbEntity
  8
0
  6
Continuous
 62
   251
370
    35
100
AcDbLine
 10
228.7545010071456
 20
135.6537802677635
 30
0.0
 11
227.9997804460876
 21
137.1284626093715
 31
0.0
  0
LINE
  5
2CA
330
E3
100
AcDbEntity
  8
0
  6
Continuous
 62
   251
370
    35
100
AcDbLine
 10
227.9997804460876
 20
137.1284626093715
 30
0.0
 11
228.4867783467096
 21
139.276285600889
 31
0.0
  0
LINE
  5
2CB
330
E3
100
AcDbEntity
  8
0
  6
Continuous
 62
   251
370
    35
100
AcDbLine
 10
228.4867783467096
 20
139.276285600889
 30
0.0
 11
229.6359289094152
 21
141.8771692836962
 31
0.0
  0
LINE
  5
2CC
330
E3
100
AcDbEntity
  8
0
  6
Continuous
 62
   251
370
    35
100
AcDbLine
 10
229.6359289094152
 20
141.8771692836962
 30
0.0
 11
230.1229268100372
 21
144.0249922752137
 31
0.0
  0
LINE
  5
2CD
330
E3
100
AcDbEntity
  8
0
  6
Continuous
 62
   251
370
    35
100
AcDbLine
 10
230.1229268100372
 20
144.0249922752137
 30
0.0
 11
229.3682062489792
 21
145.4996746168218
 31
0.0
  0
LINE
  5
2CE
330
E3
100
AcDbEntity
  8
0
  6
Continuous
 62
   251
370
    35
100
AcDbLine
 10
229.3682062489792
 20
145.4996746168218
 30
0.0
 11
227.9572651910445
 21
146.4876244884952
 31
0.0
  0
LINE
  5
2CF
330
E3
100
AcDbEntity
  8
0
  6
Continuous
 62
   251
370
    35
100
AcDbLine
 10
227.9572651910445
 20
146.4876244884952
 30
0.0
 11
226.3133897454804
 21
146.6924611419177
 31
0.0
  0
LINE
  5
2D0
330
E3
100
AcDbEntity
  8
0
  6
Continuous
 62
   251
370
    35
100
AcDbLine
 10
240.6725874545216
 20
136.0238285648292
 30
0.0
 11
242.1866672938908
 21
136.7987134317674
 31
0.0
  0
LINE
  5
2D1
330
E3
100
AcDbEntity
  8
0
  6
Continuous
 62
   251
370
    35
100
AcDbLine
 10
242.1866672938908
 20
136.7987134317674
 30
0.0
 11
243.2010169860083
 21
138.2473498605148
 31
0.0
  0
LINE
  5
2D2
330
E3
100
AcDbEntity
  8
0
  6
Continuous
 62
   251
370
    35
100
AcDbLine
 10
243.2010169860083
 20
138.2473498605148
 30
0.0
 11
243.4113223542306
 21
139.9351477650844
 31
0.0
  0
LINE
  5
2D3
330
E3
100
AcDbEntity
  8
0
  6
Continuous
 62
   251
370
    35
100
AcDbLine
 10
243.4113223542306
 20
139.9351477650844
 30
0.0
 11
242.2028796317568
 21
141.747672813673
 31
0.0
  0
LINE
  5
2D4
330
E3
100
AcDbEntity
  8
0
  6
Continuous
 62
   251
370
    35
100
AcDbLine
 10
242.2028796317568
 20
141.747672813673
 30
0.0
 11
240.209895421142
 21
143.6887758578424
 31
0.0
  0
LINE
  5
2D5
330
E3
100
AcDbEntity
  8
0
  6
Continuous
 62
   251
370
    35
100
AcDbLine
 10
240.209895421142
 20
143.6887758578424
 30
0.0
 11
239.0014526986682
 21
145.501300906431
 31
0.0
  0
LINE
  5
2D6
330
E3
100
AcDbEntity
  8
0
  6
Continuous
 62
   251
370
    35
100
AcDbLine
 10
239.0014526986682
 20
145.501300906431
 30
0.0
 11
239.2117622800761
 21
147.1890988110006
 31
0.0
  0
LINE
  5
2D7
330
E3
100
AcDbEntity
  8
0
  6
Continuous
 62
   251
370
    35
100
AcDbLine
 10
239.2117622800761
 20
147.1890988110006
 30
0.0
 11
240.226107759008
 21
148.637735239748
 31
0.0
  0
LINE
  5
2D8
330
E3
100
AcDbEntity
  8
0
  6
Continuous
 62
   251
370
    35
100
AcDbLine
 10
240.226107759008
 20
148.637735239748
 30
0.0
 11
241.7401918115627
 21
149.4126201066861
 31
0.0
  0
LINE
  5
2D9
330
E3
100
AcDbEntity
  8
0
  6
Continuous
 62
   251
370
    35
100
AcDbLine
 10
247.3226457676712
 20
137.1964128653754
 30
0.0
 11
245.6348478631016
 21
137.4067182335977
 31
0.0
  0
LINE
  5
2DA
330
E3
100
AcDbEntity
  8
0
  6
Continuous
 62
   251
370
    35
100
AcDbLine
 10
245.6348478631016
 20
137.4067182335977
 30
0.0
 11
244.1862114343542
 21
138.4210679257152
 31
0.0
  0
LINE
  5
2DB
330
E3
100
AcDbEntity
  8
0
  6
Continuous
 62
   251
370
    35
100
AcDbLine
 10
244.1862114343542
 20
138.4210679257152
 30
0.0
 11
243.4113223542306
 21
139.9351477650844
 31
0.0
  0
LINE
  5
2DC
330
E3
100
AcDbEntity
  8
0
  6
Continuous
 62
   251
370
    35
100
AcDbLine
 10
243.4113223542306
 20
139.9351477650844
 30
0.0
 11
243.9269699163622
 21
142.0516752145882
 31
0.0
  0
LINE
  5
2DD
330
E3
100
AcDbEntity
  8
0
  6
Continuous
 62
   251
370
    35
100
AcDbLine
 10
243.9269699163622
 20
142.0516752145882
 30
0.0
 11
245.1358634496862
 21
144.5573577574733
 31
0.0
  0
LINE
  5
2DE
330
E3
100
AcDbEntity
  8
0
  6
Continuous
 62
   251
370
    35
100
AcDbLine
 10
245.1358634496862
 20
144.5573577574733
 30
0.0
 11
245.6515110118178
 21
146.6738852069771
 31
0.0
  0
LINE
  5
2DF
330
E3
100
AcDbEntity
  8
0
  6
Continuous
 62
   251
370
    35
100
AcDbLine
 10
245.6515110118178
 20
146.6738852069771
 30
0.0
 11
244.8766261448797
 21
148.1879650463463
 31
0.0
  0
LINE
  5
2E0
330
E3
100
AcDbEntity
  8
0
  6
Continuous
 62
   251
370
    35
100
AcDbLine
 10
244.8766261448797
 20
148.1879650463463
 30
0.0
 11
243.4279855029468
 21
149.2023105252783
 31
0.0
  0
LINE
  5
2E1
330
E3
100
AcDbEntity
  8
0
  6
Continuous
 62
   251
370
    35
100
AcDbLine
 10
243.4279855029468
 20
149.2023105252783
 30
0.0
 11
241.7401918115627
 21
149.4126201066861
 31
0.0
  0
LINE
  5
2E2
330
E3
100
AcDbEntity
  8
0
  6
Continuous
 62
   251
370
    35
100
AcDbLine
 10
247.3226457676712
 20
137.1964128653754
 30
0.0
 11
248.8367256070404
 21
137.9712977323135
 31
0.0
  0
LINE
  5
2E3
330
E3
100
AcDbEntity
  8
0
  6
Continuous
 62
   251
370
    35
100
AcDbLine
 10
248.8367256070404
 20
137.9712977323135
 30
0.0
 11
249.8510710859723
 21
139.4199341610609
 31
0.0
  0
LINE
  5
2E4
330
E3
100
AcDbEntity
  8
0
  6
Continuous
 62
   251
370
    35
100
AcDbLine
 10
249.8510710859723
 20
139.4199341610609
 30
0.0
 11
250.0613806673801
 21
141.1077320656305
 31
0.0
  0
LINE
  5
2E5
330
E3
100
AcDbEntity
  8
0
  6
Continuous
 62
   251
370
    35
100
AcDbLine
 10
250.0613806673801
 20
141.1077320656305
 30
0.0
 11
248.8529379449064
 21
142.9202571142191
 31
0.0
  0
LINE
  5
2E6
330
E3
100
AcDbEntity
  8
0
  6
Continuous
 62
   251
370
    35
100
AcDbLine
 10
248.8529379449064
 20
142.9202571142191
 30
0.0
 11
246.8599537342916
 21
144.8613601583885
 31
0.0
  0
LINE
  5
2E7
330
E3
100
AcDbEntity
  8
0
  6
Continuous
 62
   251
370
    35
100
AcDbLine
 10
246.8599537342916
 20
144.8613601583885
 30
0.0
 11
245.6515110118178
 21
146.6738852069771
 31
0.0
  0
LINE
  5
2E8
330
E3
100
AcDbEntity
  8
0
  6
Continuous
 62
   251
370
    35
100
AcDbLine
 10
245.6515110118178
 20
146.6738852069771
 30
0.0
 11
245.8618205932257
 21
148.3616831115467
 31
0.0
  0
LINE
  5
2E9
330
E3
100
AcDbEntity
  8
0
  6
Continuous
 62
   251
370
    35
100
AcDbLine
 10
245.8618205932257
 20
148.3616831115467
 30
0.0
 11
246.8761660721576
 21
149.8103195402941
 31
0.0
  0
LINE
  5
2EA
330
E3
100
AcDbEntity
  8
0
  6
Continuous
 62
   251
370
    35
100
AcDbLine
 10
246.8761660721576
 20
149.8103195402941
 30
0.0
 11
248.3902459115268
 21
150.5852044072322
 31
0.0
  0
LINE
  5
2EB
330
E3
100
AcDbEntity
  8
0
  6
Continuous
 62
   251
370
    35
100
AcDbLine
 10
253.9726998676353
 20
138.3689971659215
 30
0.0
 11
252.2849061762512
 21
138.5793025341439
 31
0.0
  0
LINE
  5
2EC
330
E3
100
AcDbEntity
  8
0
  6
Continuous
 62
   251
370
    35
100
AcDbLine
 10
252.2849061762512
 20
138.5793025341439
 30
0.0
 11
250.8362655343183
 21
139.5936522262613
 31
0.0
  0
LINE
  5
2ED
330
E3
100
AcDbEntity
  8
0
  6
Continuous
 62
   251
370
    35
100
AcDbLine
 10
250.8362655343183
 20
139.5936522262613
 30
0.0
 11
250.0613806673801
 21
141.1077320656305
 31
0.0
  0
LINE
  5
2EE
330
E3
100
AcDbEntity
  8
0
  6
Continuous
 62
   251
370
    35
100
AcDbLine
 10
250.0613806673801
 20
141.1077320656305
 30
0.0
 11
250.5770282295118
 21
143.2242595151343
 31
0.0
  0
LINE
  5
2EF
330
E3
100
AcDbEntity
  8
0
  6
Continuous
 62
   251
370
    35
100
AcDbLine
 10
250.5770282295118
 20
143.2242595151343
 30
0.0
 11
251.7859217628358
 21
145.7299420580194
 31
0.0
  0
LINE
  5
2F0
330
E3
100
AcDbEntity
  8
0
  6
Continuous
 62
   251
370
    35
100
AcDbLine
 10
251.7859217628358
 20
145.7299420580194
 30
0.0
 11
252.3015693249674
 21
147.8464695075232
 31
0.0
  0
LINE
  5
2F1
330
E3
100
AcDbEntity
  8
0
  6
Continuous
 62
   251
370
    35
100
AcDbLine
 10
252.3015693249674
 20
147.8464695075232
 30
0.0
 11
251.5266802448438
 21
149.3605493468924
 31
0.0
  0
LINE
  5
2F2
330
E3
100
AcDbEntity
  8
0
  6
Continuous
 62
   251
370
    35
100
AcDbLine
 10
251.5266802448438
 20
149.3605493468924
 30
0.0
 11
250.0780438160964
 21
150.3748990390099
 31
0.0
  0
LINE
  5
2F3
330
E3
100
AcDbEntity
  8
0
  6
Continuous
 62
   251
370
    35
100
AcDbLine
 10
250.0780438160964
 20
150.3748990390099
 30
0.0
 11
248.3902459115268
 21
150.5852044072322
 31
0.0
  0
LINE
  5
2F4
330
E3
100
AcDbEntity
  8
0
  6
Continuous
 62
   251
370
    35
100
AcDbLine
 10
253.9726998676353
 20
138.3689971659215
 30
0.0
 11
255.48678392019
 21
139.1438820328596
 31
0.0
  0
LINE
  5
2F5
330
E3
100
AcDbEntity
  8
0
  6
Continuous
 62
   251
370
    35
100
AcDbLine
 10
255.48678392019
 20
139.1438820328596
 30
0.0
 11
256.5011293991219
 21
140.592518461607
 31
0.0
  0
LINE
  5
2F6
330
E3
100
AcDbEntity
  8
0
  6
Continuous
 62
   251
370
    35
100
AcDbLine
 10
256.5011293991219
 20
140.592518461607
 30
0.0
 11
256.7114389805297
 21
142.2803163661766
 31
0.0
  0
LINE
  5
2F7
330
E3
100
AcDbEntity
  8
0
  6
Continuous
 62
   251
370
    35
100
AcDbLine
 10
256.7114389805297
 20
142.2803163661766
 30
0.0
 11
255.502996258056
 21
144.0928414147652
 31
0.0
  0
LINE
  5
2F8
330
E3
100
AcDbEntity
  8
0
  6
Continuous
 62
   251
370
    35
100
AcDbLine
 10
255.502996258056
 20
144.0928414147652
 30
0.0
 11
253.5100120474412
 21
146.0339444589346
 31
0.0
  0
LINE
  5
2F9
330
E3
100
AcDbEntity
  8
0
  6
Continuous
 62
   251
370
    35
100
AcDbLine
 10
253.5100120474412
 20
146.0339444589346
 30
0.0
 11
252.3015693249674
 21
147.8464695075232
 31
0.0
  0
LINE
  5
2FA
330
E3
100
AcDbEntity
  8
0
  6
Continuous
 62
   251
370
    35
100
AcDbLine
 10
252.3015693249674
 20
147.8464695075232
 30
0.0
 11
252.5118746931897
 21
149.5342674120928
 31
0.0
  0
LINE
  5
2FB
330
E3
100
AcDbEntity
  8
0
  6
Continuous
 62
   251
370
    35
100
AcDbLine
 10
252.5118746931897
 20
149.5342674120928
 30
0.0
 11
253.5262243853072
 21
150.9829038408402
 31
0.0
  0
LINE
  5
2FC
330
E3
100
AcDbEntity
  8
0
  6
Continuous
 62
   251
370
    35
100
AcDbLine
 10
253.5262243853072
 20
150.9829038408402
 30
0.0
 11
255.0403042246764
 21
151.7577887077783
 31
0.0
  0
LINE
  5
2FD
330
E3
100
AcDbEntity
  8
0
  6
Continuous
 62
   251
370
    35
100
AcDbLine
 10
260.6227581807848
 20
139.5415814664676
 30
0.0
 11
258.9349602762153
 21
139.75188683469
 31
0.0
  0
LINE
  5
2FE
330
E3
100
AcDbEntity
  8
0
  6
Continuous
 62
   251
370
    35
100
AcDbLine
 10
258.9349602762153
 20
139.75188683469
 30
0.0
 11
257.4863238474678
 21
140.7662365268074
 31
0.0
  0
LINE
  5
2FF
330
E3
100
AcDbEntity
  8
0
  6
Continuous
 62
   251
370
    35
100
AcDbLine
 10
257.4863238474678
 20
140.7662365268074
 30
0.0
 11
256.7114389805297
 21
142.2803163661766
 31
0.0
  0
LINE
  5
300
330
E3
100
AcDbEntity
  8
0
  6
Continuous
 62
   251
370
    35
100
AcDbLine
 10
256.7114389805297
 20
142.2803163661766
 30
0.0
 11
257.2270823294759
 21
144.3968438156804
 31
0.0
  0
LINE
  5
301
330
E3
100
AcDbEntity
  8
0
  6
Continuous
 62
   251
370
    35
100
AcDbLine
 10
257.2270823294759
 20
144.3968438156804
 30
0.0
 11
258.4359800759854
 21
146.9025263585656
 31
0.0
  0
LINE
  5
302
330
E3
100
AcDbEntity
  8
0
  6
Continuous
 62
   251
370
    35
100
AcDbLine
 10
258.4359800759854
 20
146.9025263585656
 30
0.0
 11
258.9516234249315
 21
149.0190538080694
 31
0.0
  0
LINE
  5
303
330
E3
100
AcDbEntity
  8
0
  6
Continuous
 62
   251
370
    35
100
AcDbLine
 10
258.9516234249315
 20
149.0190538080694
 30
0.0
 11
258.1767385579934
 21
150.5331336474386
 31
0.0
  0
LINE
  5
304
330
E3
100
AcDbEntity
  8
0
  6
Continuous
 62
   251
370
    35
100
AcDbLine
 10
258.1767385579934
 20
150.5331336474386
 30
0.0
 11
256.7281021292459
 21
151.547483339556
 31
0.0
  0
LINE
  5
305
330
E3
100
AcDbEntity
  8
0
  6
Continuous
 62
   251
370
    35
100
AcDbLine
 10
256.7281021292459
 20
151.547483339556
 30
0.0
 11
255.0403042246764
 21
151.7577887077783
 31
0.0
  0
LINE
  5
306
330
E3
100
AcDbEntity
  8
0
  6
Continuous
 62
   251
370
    35
100
AcDbLine
 10
260.6227581807848
 20
139.5415814664676
 30
0.0
 11
262.1368422333396
 21
140.3164663334057
 31
0.0
  0
LINE
  5
307
330
E3
100
AcDbEntity
  8
0
  6
Continuous
 62
   251
370
    35
100
AcDbLine
 10
262.1368422333396
 20
140.3164663334057
 30
0.0
 11
263.1511877122715
 21
141.7651027621532
 31
0.0
  0
LINE
  5
308
330
E3
100
AcDbEntity
  8
0
  6
Continuous
 62
   251
370
    35
100
AcDbLine
 10
263.1511877122715
 20
141.7651027621532
 30
0.0
 11
263.3614972936793
 21
143.4529006667227
 31
0.0
  0
LINE
  5
309
330
E3
100
AcDbEntity
  8
0
  6
Continuous
 62
   251
370
    35
100
AcDbLine
 10
263.3614972936793
 20
143.4529006667227
 30
0.0
 11
262.15305035802
 21
145.2654257153114
 31
0.0
  0
LINE
  5
30A
330
E3
100
AcDbEntity
  8
0
  6
Continuous
 62
   251
370
    35
100
AcDbLine
 10
262.15305035802
 20
145.2654257153114
 30
0.0
 11
260.1600703605908
 21
147.2065287594808
 31
0.0
  0
LINE
  5
30B
330
E3
100
AcDbEntity
  8
0
  6
Continuous
 62
   251
370
    35
100
AcDbLine
 10
260.1600703605908
 20
147.2065287594808
 30
0.0
 11
258.9516234249315
 21
149.0190538080694
 31
0.0
  0
LINE
  5
30C
330
E3
100
AcDbEntity
  8
0
  6
Continuous
 62
   251
370
    35
100
AcDbLine
 10
258.9516234249315
 20
149.0190538080694
 30
0.0
 11
259.1619330063393
 21
150.706851712639
 31
0.0
  0
LINE
  5
30D
330
E3
100
AcDbEntity
  8
0
  6
Continuous
 62
   251
370
    35
100
AcDbLine
 10
259.1619330063393
 20
150.706851712639
 30
0.0
 11
260.1762784852713
 21
152.1554881413863
 31
0.0
  0
LINE
  5
30E
330
E3
100
AcDbEntity
  8
0
  6
Continuous
 62
   251
370
    35
100
AcDbLine
 10
260.1762784852713
 20
152.1554881413863
 30
0.0
 11
261.6903625378259
 21
152.9303730083245
 31
0.0
  0
LINE
  5
30F
330
E3
100
AcDbEntity
  8
0
  6
Continuous
 62
   251
370
    35
100
AcDbLine
 10
267.2728164939345
 20
140.7141657670138
 30
0.0
 11
265.5850185893648
 21
140.9244753484216
 31
0.0
  0
LINE
  5
310
330
E3
100
AcDbEntity
  8
0
  6
Continuous
 62
   251
370
    35
100
AcDbLine
 10
265.5850185893648
 20
140.9244753484216
 30
0.0
 11
264.1363821606175
 21
141.9388208273535
 31
0.0
  0
LINE
  5
311
330
E3
100
AcDbEntity
  8
0
  6
Continuous
 62
   251
370
    35
100
AcDbLine
 10
264.1363821606175
 20
141.9388208273535
 30
0.0
 11
263.3614972936793
 21
143.4529006667227
 31
0.0
  0
LINE
  5
312
330
E3
100
AcDbEntity
  8
0
  6
Continuous
 62
   251
370
    35
100
AcDbLine
 10
263.3614972936793
 20
143.4529006667227
 30
0.0
 11
263.8771406426255
 21
145.5694281162265
 31
0.0
  0
LINE
  5
313
330
E3
100
AcDbEntity
  8
0
  6
Continuous
 62
   251
370
    35
100
AcDbLine
 10
263.8771406426255
 20
145.5694281162265
 30
0.0
 11
265.086038389135
 21
148.0751106591117
 31
0.0
  0
LINE
  5
314
330
E3
100
AcDbEntity
  8
0
  6
Continuous
 62
   251
370
    35
100
AcDbLine
 10
265.086038389135
 20
148.0751106591117
 30
0.0
 11
265.6016817380811
 21
150.1916381086155
 31
0.0
  0
LINE
  5
315
330
E3
100
AcDbEntity
  8
0
  6
Continuous
 62
   251
370
    35
100
AcDbLine
 10
265.6016817380811
 20
150.1916381086155
 30
0.0
 11
264.826796871143
 21
151.7057179479847
 31
0.0
  0
LINE
  5
316
330
E3
100
AcDbEntity
  8
0
  6
Continuous
 62
   251
370
    35
100
AcDbLine
 10
264.826796871143
 20
151.7057179479847
 30
0.0
 11
263.3781604423956
 21
152.7200676401021
 31
0.0
  0
LINE
  5
317
330
E3
100
AcDbEntity
  8
0
  6
Continuous
 62
   251
370
    35
100
AcDbLine
 10
263.3781604423956
 20
152.7200676401021
 30
0.0
 11
261.6903625378259
 21
152.9303730083245
 31
0.0
  0
LINE
  5
318
330
E3
100
AcDbEntity
  8
0
  6
Continuous
 62
   251
370
    35
100
AcDbLine
 10
267.2728164939345
 20
140.7141657670138
 30
0.0
 11
268.7868963333037
 21
141.4890506339519
 31
0.0
  0
LINE
  5
319
330
E3
100
AcDbEntity
  8
0
  6
Continuous
 62
   251
370
    35
100
AcDbLine
 10
268.7868963333037
 20
141.4890506339519
 30
0.0
 11
269.8012460254211
 21
142.9376870626993
 31
0.0
  0
LINE
  5
31A
330
E3
100
AcDbEntity
  8
0
  6
Continuous
 62
   251
370
    35
100
AcDbLine
 10
269.8012460254211
 20
142.9376870626993
 30
0.0
 11
270.0115513936434
 21
144.6254849672689
 31
0.0
  0
LINE
  5
31B
330
E3
100
AcDbEntity
  8
0
  6
Continuous
 62
   251
370
    35
100
AcDbLine
 10
270.0115513936434
 20
144.6254849672689
 30
0.0
 11
268.8031086711696
 21
146.4380100158575
 31
0.0
  0
LINE
  5
31C
330
E3
100
AcDbEntity
  8
0
  6
Continuous
 62
   251
370
    35
100
AcDbLine
 10
268.8031086711696
 20
146.4380100158575
 30
0.0
 11
266.8101244605548
 21
148.3791130600269
 31
0.0
  0
LINE
  5
31D
330
E3
100
AcDbEntity
  8
0
  6
Continuous
 62
   251
370
    35
100
AcDbLine
 10
266.8101244605548
 20
148.3791130600269
 30
0.0
 11
265.6016817380811
 21
150.1916381086155
 31
0.0
  0
LINE
  5
31E
330
E3
100
AcDbEntity
  8
0
  6
Continuous
 62
   251
370
    35
100
AcDbLine
 10
265.6016817380811
 20
150.1916381086155
 30
0.0
 11
265.811991319489
 21
151.8794360131851
 31
0.0
  0
LINE
  5
31F
330
E3
100
AcDbEntity
  8
0
  6
Continuous
 62
   251
370
    35
100
AcDbLine
 10
265.811991319489
 20
151.8794360131851
 30
0.0
 11
266.8263367984209
 21
153.3280724419325
 31
0.0
  0
LINE
  5
320
330
E3
100
AcDbEntity
  8
0
  6
Continuous
 62
   251
370
    35
100
AcDbLine
 10
266.8263367984209
 20
153.3280724419325
 30
0.0
 11
268.34041663779
 21
154.1029573088706
 31
0.0
  0
LINE
  5
321
330
E3
100
AcDbEntity
  8
0
  6
Continuous
 62
   251
370
    35
100
AcDbLine
 10
273.922874807084
 20
141.8867500675599
 30
0.0
 11
272.2350769025145
 21
142.0970596489677
 31
0.0
  0
LINE
  5
322
330
E3
100
AcDbEntity
  8
0
  6
Continuous
 62
   251
370
    35
100
AcDbLine
 10
272.2350769025145
 20
142.0970596489677
 30
0.0
 11
270.786440473767
 21
143.1114051278997
 31
0.0
  0
LINE
  5
323
330
E3
100
AcDbEntity
  8
0
  6
Continuous
 62
   251
370
    35
100
AcDbLine
 10
270.786440473767
 20
143.1114051278997
 30
0.0
 11
270.0115513936434
 21
144.6254849672689
 31
0.0
  0
LINE
  5
324
330
E3
100
AcDbEntity
  8
0
  6
Continuous
 62
   251
370
    35
100
AcDbLine
 10
270.0115513936434
 20
144.6254849672689
 30
0.0
 11
270.527198955775
 21
146.7420124167727
 31
0.0
  0
LINE
  5
325
330
E3
100
AcDbEntity
  8
0
  6
Continuous
 62
   251
370
    35
100
AcDbLine
 10
270.527198955775
 20
146.7420124167727
 30
0.0
 11
271.736092489099
 21
149.2476949596578
 31
0.0
  0
LINE
  5
326
330
E3
100
AcDbEntity
  8
0
  6
Continuous
 62
   251
370
    35
100
AcDbLine
 10
271.736092489099
 20
149.2476949596578
 30
0.0
 11
272.2517400512306
 21
151.3642224091616
 31
0.0
  0
LINE
  5
327
330
E3
100
AcDbEntity
  8
0
  6
Continuous
 62
   251
370
    35
100
AcDbLine
 10
272.2517400512306
 20
151.3642224091616
 30
0.0
 11
271.4768551842926
 21
152.8783022485308
 31
0.0
  0
LINE
  5
328
330
E3
100
AcDbEntity
  8
0
  6
Continuous
 62
   251
370
    35
100
AcDbLine
 10
271.4768551842926
 20
152.8783022485308
 30
0.0
 11
270.0282145423596
 21
153.8926519406483
 31
0.0
  0
LINE
  5
329
330
E3
100
AcDbEntity
  8
0
  6
Continuous
 62
   251
370
    35
100
AcDbLine
 10
270.0282145423596
 20
153.8926519406483
 30
0.0
 11
268.34041663779
 21
154.1029573088706
 31
0.0
  0
LINE
  5
32A
330
E3
100
AcDbEntity
  8
0
  6
Continuous
 62
   251
370
    35
100
AcDbLine
 10
273.922874807084
 20
141.8867500675599
 30
0.0
 11
275.4369546464532
 21
142.661634934498
 31
0.0
  0
LINE
  5
32B
330
E3
100
AcDbEntity
  8
0
  6
Continuous
 62
   251
370
    35
100
AcDbLine
 10
275.4369546464532
 20
142.661634934498
 30
0.0
 11
276.4513001253852
 21
144.1102713632454
 31
0.0
  0
LINE
  5
32C
330
E3
100
AcDbEntity
  8
0
  6
Continuous
 62
   251
370
    35
100
AcDbLine
 10
276.4513001253852
 20
144.1102713632454
 30
0.0
 11
276.661609706793
 21
145.798069267815
 31
0.0
  0
LINE
  5
32D
330
E3
100
AcDbEntity
  8
0
  6
Continuous
 62
   251
370
    35
100
AcDbLine
 10
276.661609706793
 20
145.798069267815
 30
0.0
 11
275.4531669843192
 21
147.6105943164036
 31
0.0
  0
LINE
  5
32E
330
E3
100
AcDbEntity
  8
0
  6
Continuous
 62
   251
370
    35
100
AcDbLine
 10
275.4531669843192
 20
147.6105943164036
 30
0.0
 11
273.4601827737044
 21
149.551697360573
 31
0.0
  0
LINE
  5
32F
330
E3
100
AcDbEntity
  8
0
  6
Continuous
 62
   251
370
    35
100
AcDbLine
 10
273.4601827737044
 20
149.551697360573
 30
0.0
 11
272.2517400512306
 21
151.3642224091616
 31
0.0
  0
LINE
  5
330
330
E3
100
AcDbEntity
  8
0
  6
Continuous
 62
   251
370
    35
100
AcDbLine
 10
272.2517400512306
 20
151.3642224091616
 30
0.0
 11
272.462045419453
 21
153.0520203137312
 31
0.0
  0
LINE
  5
331
330
E3
100
AcDbEntity
  8
0
  6
Continuous
 62
   251
370
    35
100
AcDbLine
 10
272.462045419453
 20
153.0520203137312
 30
0.0
 11
273.4763951115705
 21
154.5006567424786
 31
0.0
  0
LINE
  5
332
330
E3
100
AcDbEntity
  8
0
  6
Continuous
 62
   251
370
    35
100
AcDbLine
 10
273.4763951115705
 20
154.5006567424786
 30
0.0
 11
274.9904749509396
 21
155.2755416094167
 31
0.0
  0
LINE
  5
333
330
E3
100
AcDbEntity
  8
0
  6
Continuous
 62
   251
370
    35
100
AcDbLine
 10
280.5729289070481
 20
143.059334368106
 30
0.0
 11
278.8851310024785
 21
143.2696439495139
 31
0.0
  0
LINE
  5
334
330
E3
100
AcDbEntity
  8
0
  6
Continuous
 62
   251
370
    35
100
AcDbLine
 10
278.8851310024785
 20
143.2696439495139
 30
0.0
 11
277.4364945737311
 21
144.2839894284458
 31
0.0
  0
LINE
  5
335
330
E3
100
AcDbEntity
  8
0
  6
Continuous
 62
   251
370
    35
100
AcDbLine
 10
277.4364945737311
 20
144.2839894284458
 30
0.0
 11
276.661609706793
 21
145.798069267815
 31
0.0
  0
LINE
  5
336
330
E3
100
AcDbEntity
  8
0
  6
Continuous
 62
   251
370
    35
100
AcDbLine
 10
276.661609706793
 20
145.798069267815
 30
0.0
 11
277.1772572689247
 21
147.9145967173188
 31
0.0
  0
LINE
  5
337
330
E3
100
AcDbEntity
  8
0
  6
Continuous
 62
   251
370
    35
100
AcDbLine
 10
277.1772572689247
 20
147.9145967173188
 30
0.0
 11
278.3861508022487
 21
150.420279260204
 31
0.0
  0
LINE
  5
338
330
E3
100
AcDbEntity
  8
0
  6
Continuous
 62
   251
370
    35
100
AcDbLine
 10
278.3861508022487
 20
150.420279260204
 30
0.0
 11
278.9017983643803
 21
152.5368067097078
 31
0.0
  0
LINE
  5
339
330
E3
100
AcDbEntity
  8
0
  6
Continuous
 62
   251
370
    35
100
AcDbLine
 10
278.9017983643803
 20
152.5368067097078
 30
0.0
 11
278.1269092842567
 21
154.0508865490769
 31
0.0
  0
LINE
  5
33A
330
E3
100
AcDbEntity
  8
0
  6
Continuous
 62
   251
370
    35
100
AcDbLine
 10
278.1269092842567
 20
154.0508865490769
 30
0.0
 11
276.6782728555092
 21
155.0652362411944
 31
0.0
  0
LINE
  5
33B
330
E3
100
AcDbEntity
  8
0
  6
Continuous
 62
   251
370
    35
100
AcDbLine
 10
276.6782728555092
 20
155.0652362411944
 30
0.0
 11
274.9904749509396
 21
155.2755416094167
 31
0.0
  0
LINE
  5
33C
330
E3
100
AcDbEntity
  8
0
  6
Continuous
 62
   251
370
    35
100
AcDbLine
 10
280.5729289070481
 20
143.059334368106
 30
0.0
 11
282.0870129596028
 21
143.8342192350441
 31
0.0
  0
LINE
  5
33D
330
E3
100
AcDbEntity
  8
0
  6
Continuous
 62
   251
370
    35
100
AcDbLine
 10
282.0870129596028
 20
143.8342192350441
 30
0.0
 11
283.1013584385348
 21
145.2828556637915
 31
0.0
  0
LINE
  5
33E
330
E3
100
AcDbEntity
  8
0
  6
Continuous
 62
   251
370
    35
100
AcDbLine
 10
283.1013584385348
 20
145.2828556637915
 30
0.0
 11
283.3116680199426
 21
146.9706535683611
 31
0.0
  0
LINE
  5
33F
330
E3
100
AcDbEntity
  8
0
  6
Continuous
 62
   251
370
    35
100
AcDbLine
 10
283.3116680199426
 20
146.9706535683611
 30
0.0
 11
282.1032252974688
 21
148.7831786169497
 31
0.0
  0
LINE
  5
340
330
E3
100
AcDbEntity
  8
0
  6
Continuous
 62
   251
370
    35
100
AcDbLine
 10
282.1032252974688
 20
148.7831786169497
 30
0.0
 11
280.110241086854
 21
150.7242816611191
 31
0.0
  0
LINE
  5
341
330
E3
100
AcDbEntity
  8
0
  6
Continuous
 62
   251
370
    35
100
AcDbLine
 10
280.110241086854
 20
150.7242816611191
 30
0.0
 11
278.9017983643803
 21
152.5368067097078
 31
0.0
  0
LINE
  5
342
330
E3
100
AcDbEntity
  8
0
  6
Continuous
 62
   251
370
    35
100
AcDbLine
 10
278.9017983643803
 20
152.5368067097078
 30
0.0
 11
279.1121037326026
 21
154.2246046142773
 31
0.0
  0
LINE
  5
343
330
E3
100
AcDbEntity
  8
0
  6
Continuous
 62
   251
370
    35
100
AcDbLine
 10
279.1121037326026
 20
154.2246046142773
 30
0.0
 11
280.12645342472
 21
155.6732410430248
 31
0.0
  0
LINE
  5
344
330
E3
100
AcDbEntity
  8
0
  6
Continuous
 62
   251
370
    35
100
AcDbLine
 10
280.12645342472
 20
155.6732410430248
 30
0.0
 11
281.6405332640892
 21
156.4481259099629
 31
0.0
  0
LINE
  5
345
330
E3
100
AcDbEntity
  8
0
  6
Continuous
 62
   251
370
    35
100
AcDbLine
 10
287.2229872201978
 20
144.2319186686522
 30
0.0
 11
285.5351893156281
 21
144.44222825006
 31
0.0
  0
LINE
  5
346
330
E3
100
AcDbEntity
  8
0
  6
Continuous
 62
   251
370
    35
100
AcDbLine
 10
285.5351893156281
 20
144.44222825006
 30
0.0
 11
284.0865528868807
 21
145.4565737289919
 31
0.0
  0
LINE
  5
347
330
E3
100
AcDbEntity
  8
0
  6
Continuous
 62
   251
370
    35
100
AcDbLine
 10
284.0865528868807
 20
145.4565737289919
 30
0.0
 11
283.3116680199426
 21
146.9706535683611
 31
0.0
  0
LINE
  5
348
330
E3
100
AcDbEntity
  8
0
  6
Continuous
 62
   251
370
    35
100
AcDbLine
 10
283.3116680199426
 20
146.9706535683611
 30
0.0
 11
283.8273113688887
 21
149.0871810178649
 31
0.0
  0
LINE
  5
349
330
E3
100
AcDbEntity
  8
0
  6
Continuous
 62
   251
370
    35
100
AcDbLine
 10
283.8273113688887
 20
149.0871810178649
 30
0.0
 11
285.0362091153982
 21
151.5928635607501
 31
0.0
  0
LINE
  5
34A
330
E3
100
AcDbEntity
  8
0
  6
Continuous
 62
   251
370
    35
100
AcDbLine
 10
285.0362091153982
 20
151.5928635607501
 30
0.0
 11
285.5518524643443
 21
153.7093910102539
 31
0.0
  0
LINE
  5
34B
330
E3
100
AcDbEntity
  8
0
  6
Continuous
 62
   251
370
    35
100
AcDbLine
 10
285.5518524643443
 20
153.7093910102539
 30
0.0
 11
284.7769675974062
 21
155.2234708496231
 31
0.0
  0
LINE
  5
34C
330
E3
100
AcDbEntity
  8
0
  6
Continuous
 62
   251
370
    35
100
AcDbLine
 10
284.7769675974062
 20
155.2234708496231
 30
0.0
 11
283.3283311686588
 21
156.2378205417405
 31
0.0
  0
LINE
  5
34D
330
E3
100
AcDbEntity
  8
0
  6
Continuous
 62
   251
370
    35
100
AcDbLine
 10
283.3283311686588
 20
156.2378205417405
 30
0.0
 11
281.6405332640892
 21
156.4481259099629
 31
0.0
  0
LINE
  5
34E
330
E3
100
AcDbEntity
  8
0
  6
Continuous
 62
   251
370
    35
100
AcDbLine
 10
287.2229875240541
 20
144.2319206345854
 30
0.0
 11
287.7418242601914
 21
144.4974527135628
 31
0.0
  0
LINE
  5
34F
330
E3
100
AcDbEntity
  8
0
  6
Continuous
 62
   251
370
    35
100
AcDbLine
 10
287.7418226708966
 20
150.9408929056426
 30
0.0
 11
286.7602961364611
 21
151.8968680805346
 31
0.0
  0
LINE
  5
350
330
E3
100
AcDbEntity
  8
0
  6
Continuous
 62
   251
370
    35
100
AcDbLine
 10
286.7602961364611
 20
151.8968680805346
 30
0.0
 11
285.5518524643443
 21
153.7093910102539
 31
0.0
  0
LINE
  5
351
330
E3
100
AcDbEntity
  8
0
  6
Continuous
 62
   251
370
    35
100
AcDbLine
 10
285.5518524643443
 20
153.7093910102539
 30
0.0
 11
285.7621620457522
 21
155.3971889148235
 31
0.0
  0
LINE
  5
352
330
E3
100
AcDbEntity
  8
0
  6
Continuous
 62
   251
370
    35
100
AcDbLine
 10
285.7621620457522
 20
155.3971889148235
 30
0.0
 11
286.7765075246841
 21
156.8458253435709
 31
0.0
  0
LINE
  5
353
330
E3
100
AcDbEntity
  8
0
  6
Continuous
 62
   251
370
    35
100
AcDbLine
 10
286.7765075246841
 20
156.8458253435709
 30
0.0
 11
287.741825808706
 21
157.3398607238327
 31
0.0
  0
LINE
  5
354
330
E3
100
AcDbEntity
  8
0
  6
Continuous
 62
   251
370
    35
100
AcDbLine
 10
13.70792558071254
 20
96.00383264364513
 30
0.0
 11
15.25751414761155
 21
96.79688897971421
 31
0.0
  0
LINE
  5
355
330
E3
100
AcDbEntity
  8
0
  6
Continuous
 62
   251
370
    35
100
AcDbLine
 10
15.25751414761155
 20
96.79688897971421
 30
0.0
 11
16.29564727196746
 21
98.27949632327802
 31
0.0
  0
LINE
  5
356
330
E3
100
AcDbEntity
  8
0
  6
Continuous
 62
   251
370
    35
100
AcDbLine
 10
16.29564727196746
 20
98.27949632327802
 30
0.0
 11
16.51088628042915
 21
100.006872892586
 31
0.0
  0
LINE
  5
357
330
E3
100
AcDbEntity
  8
0
  6
Continuous
 62
   251
370
    35
100
AcDbLine
 10
16.51088628042915
 20
100.006872892586
 30
0.0
 11
15.28782801739999
 21
101.7840661674365
 31
0.0
  0
LINE
  5
358
330
E3
100
AcDbEntity
  8
0
  6
Continuous
 62
   251
370
    35
100
AcDbLine
 10
15.28782801739999
 20
101.7840661674365
 30
0.0
 11
13.27359671222742
 21
103.6261424992351
 31
0.0
  0
LINE
  5
359
330
E3
100
AcDbEntity
  8
0
  6
Continuous
 62
   251
370
    35
100
AcDbLine
 10
13.27359671222742
 20
103.6261424992351
 30
0.0
 11
12.05054266238377
 21
105.4033357740856
 31
0.0
  0
LINE
  5
35A
330
E3
100
AcDbEntity
  8
0
  6
Continuous
 62
   251
370
    35
100
AcDbLine
 10
12.05054266238377
 20
105.4033357740856
 30
0.0
 11
12.26578167084547
 21
107.1307123433936
 31
0.0
  0
LINE
  5
35B
330
E3
100
AcDbEntity
  8
0
  6
Continuous
 62
   251
370
    35
100
AcDbLine
 10
12.26578167084547
 20
107.1307123433936
 30
0.0
 11
13.30391479520138
 21
108.6133196869574
 31
0.0
  0
LINE
  5
35C
330
E3
100
AcDbEntity
  8
0
  6
Continuous
 62
   251
370
    35
100
AcDbLine
 10
13.30391479520138
 20
108.6133196869574
 30
0.0
 11
14.85349914891487
 21
109.4063760230265
 31
0.0
  0
LINE
  5
35D
330
E3
100
AcDbEntity
  8
0
  6
Continuous
 62
   251
370
    35
100
AcDbLine
 10
20.51392652937005
 20
97.2039164060549
 30
0.0
 11
18.78654996006208
 21
97.41915541451661
 31
0.0
  0
LINE
  5
35E
330
E3
100
AcDbEntity
  8
0
  6
Continuous
 62
   251
370
    35
100
AcDbLine
 10
18.78654996006208
 20
97.41915541451661
 30
0.0
 11
17.30394261649825
 21
98.45728853887252
 31
0.0
  0
LINE
  5
35F
330
E3
100
AcDbEntity
  8
0
  6
Continuous
 62
   251
370
    35
100
AcDbLine
 10
17.30394261649825
 20
98.45728853887252
 30
0.0
 11
16.51088628042915
 21
100.006872892586
 31
0.0
  0
LINE
  5
360
330
E3
100
AcDbEntity
  8
0
  6
Continuous
 62
   251
370
    35
100
AcDbLine
 10
16.51088628042915
 20
100.006872892586
 30
0.0
 11
17.05234803021801
 21
102.0952014914305
 31
0.0
  0
LINE
  5
361
330
E3
100
AcDbEntity
  8
0
  6
Continuous
 62
   251
370
    35
100
AcDbLine
 10
17.05234803021801
 20
102.0952014914305
 30
0.0
 11
18.31507764806691
 21
104.515090937651
 31
0.0
  0
LINE
  5
362
330
E3
100
AcDbEntity
  8
0
  6
Continuous
 62
   251
370
    35
100
AcDbLine
 10
18.31507764806691
 20
104.515090937651
 30
0.0
 11
18.85653939785577
 21
106.6034153233099
 31
0.0
  0
LINE
  5
363
330
E3
100
AcDbEntity
  8
0
  6
Continuous
 62
   251
370
    35
100
AcDbLine
 10
18.85653939785577
 20
106.6034153233099
 30
0.0
 11
18.06348306178666
 21
108.1530038902089
 31
0.0
  0
LINE
  5
364
330
E3
100
AcDbEntity
  8
0
  6
Continuous
 62
   251
370
    35
100
AcDbLine
 10
18.06348306178666
 20
108.1530038902089
 30
0.0
 11
16.58087571822283
 21
109.1911370145648
 31
0.0
  0
LINE
  5
365
330
E3
100
AcDbEntity
  8
0
  6
Continuous
 62
   251
370
    35
100
AcDbLine
 10
16.58087571822283
 20
109.1911370145648
 30
0.0
 11
14.85349914891487
 21
109.4063760230265
 31
0.0
  0
LINE
  5
366
330
E3
100
AcDbEntity
  8
0
  6
Continuous
 62
   251
370
    35
100
AcDbLine
 10
20.51392652937005
 20
97.2039164060549
 30
0.0
 11
22.06351088308354
 21
97.996972742124
 31
0.0
  0
LINE
  5
367
330
E3
100
AcDbEntity
  8
0
  6
Continuous
 62
   251
370
    35
100
AcDbLine
 10
22.06351088308354
 20
97.996972742124
 30
0.0
 11
23.10164400743945
 21
99.47958008568783
 31
0.0
  0
LINE
  5
368
330
E3
100
AcDbEntity
  8
0
  6
Continuous
 62
   251
370
    35
100
AcDbLine
 10
23.10164400743945
 20
99.47958008568783
 30
0.0
 11
23.31688301590115
 21
101.2069566549958
 31
0.0
  0
LINE
  5
369
330
E3
100
AcDbEntity
  8
0
  6
Continuous
 62
   251
370
    35
100
AcDbLine
 10
23.31688301590115
 20
101.2069566549958
 30
0.0
 11
22.09382896605749
 21
102.9841499298463
 31
0.0
  0
LINE
  5
36A
330
E3
100
AcDbEntity
  8
0
  6
Continuous
 62
   251
370
    35
100
AcDbLine
 10
22.09382896605749
 20
102.9841499298463
 30
0.0
 11
20.07959766088493
 21
104.8262220484594
 31
0.0
  0
LINE
  5
36B
330
E3
100
AcDbEntity
  8
0
  6
Continuous
 62
   251
370
    35
100
AcDbLine
 10
20.07959766088493
 20
104.8262220484594
 30
0.0
 11
18.85653939785577
 21
106.6034153233099
 31
0.0
  0
LINE
  5
36C
330
E3
100
AcDbEntity
  8
0
  6
Continuous
 62
   251
370
    35
100
AcDbLine
 10
18.85653939785577
 20
106.6034153233099
 30
0.0
 11
19.07177840631746
 21
108.3307918926179
 31
0.0
  0
LINE
  5
36D
330
E3
100
AcDbEntity
  8
0
  6
Continuous
 62
   251
370
    35
100
AcDbLine
 10
19.07177840631746
 20
108.3307918926179
 30
0.0
 11
20.10991153067337
 21
109.8133992361817
 31
0.0
  0
LINE
  5
36E
330
E3
100
AcDbEntity
  8
0
  6
Continuous
 62
   251
370
    35
100
AcDbLine
 10
20.10991153067337
 20
109.8133992361817
 30
0.0
 11
21.65950009757238
 21
110.6064555722508
 31
0.0
  0
LINE
  5
36F
330
E3
100
AcDbEntity
  8
0
  6
Continuous
 62
   251
370
    35
100
AcDbLine
 10
27.31992326484204
 20
98.4039959552792
 30
0.0
 11
25.59255090871959
 21
98.6192349637409
 31
0.0
  0
LINE
  5
370
330
E3
100
AcDbEntity
  8
0
  6
Continuous
 62
   251
370
    35
100
AcDbLine
 10
25.59255090871959
 20
98.6192349637409
 30
0.0
 11
24.10993935197024
 21
99.65736808809679
 31
0.0
  0
LINE
  5
371
330
E3
100
AcDbEntity
  8
0
  6
Continuous
 62
   251
370
    35
100
AcDbLine
 10
24.10993935197024
 20
99.65736808809679
 30
0.0
 11
23.31688301590115
 21
101.2069566549958
 31
0.0
  0
LINE
  5
372
330
E3
100
AcDbEntity
  8
0
  6
Continuous
 62
   251
370
    35
100
AcDbLine
 10
23.31688301590115
 20
101.2069566549958
 30
0.0
 11
23.85834476569
 21
103.2952810406547
 31
0.0
  0
LINE
  5
373
330
E3
100
AcDbEntity
  8
0
  6
Continuous
 62
   251
370
    35
100
AcDbLine
 10
23.85834476569
 20
103.2952810406547
 30
0.0
 11
25.12107859672441
 21
105.7151704868753
 31
0.0
  0
LINE
  5
374
330
E3
100
AcDbEntity
  8
0
  6
Continuous
 62
   251
370
    35
100
AcDbLine
 10
25.12107859672441
 20
105.7151704868753
 30
0.0
 11
25.66254034651327
 21
107.8034990857197
 31
0.0
  0
LINE
  5
375
330
E3
100
AcDbEntity
  8
0
  6
Continuous
 62
   251
370
    35
100
AcDbLine
 10
25.66254034651327
 20
107.8034990857197
 30
0.0
 11
24.86948401044417
 21
109.3530834394332
 31
0.0
  0
LINE
  5
376
330
E3
100
AcDbEntity
  8
0
  6
Continuous
 62
   251
370
    35
100
AcDbLine
 10
24.86948401044417
 20
109.3530834394332
 30
0.0
 11
23.38687666688034
 21
110.3912165637891
 31
0.0
  0
LINE
  5
377
330
E3
100
AcDbEntity
  8
0
  6
Continuous
 62
   251
370
    35
100
AcDbLine
 10
23.38687666688034
 20
110.3912165637891
 30
0.0
 11
21.65950009757238
 21
110.6064555722508
 31
0.0
  0
LINE
  5
378
330
E3
100
AcDbEntity
  8
0
  6
Continuous
 62
   251
370
    35
100
AcDbLine
 10
27.31992326484204
 20
98.4039959552792
 30
0.0
 11
28.86951183174105
 21
99.1970522913483
 31
0.0
  0
LINE
  5
379
330
E3
100
AcDbEntity
  8
0
  6
Continuous
 62
   251
370
    35
100
AcDbLine
 10
28.86951183174105
 20
99.1970522913483
 30
0.0
 11
29.90764495609696
 21
100.6796596349121
 31
0.0
  0
LINE
  5
37A
330
E3
100
AcDbEntity
  8
0
  6
Continuous
 62
   251
370
    35
100
AcDbLine
 10
29.90764495609696
 20
100.6796596349121
 30
0.0
 11
30.12288396455865
 21
102.4070362042201
 31
0.0
  0
LINE
  5
37B
330
E3
100
AcDbEntity
  8
0
  6
Continuous
 62
   251
370
    35
100
AcDbLine
 10
30.12288396455865
 20
102.4070362042201
 30
0.0
 11
28.89982570152948
 21
104.1842294790706
 31
0.0
  0
LINE
  5
37C
330
E3
100
AcDbEntity
  8
0
  6
Continuous
 62
   251
370
    35
100
AcDbLine
 10
28.89982570152948
 20
104.1842294790706
 30
0.0
 11
26.88559439635692
 21
106.0263058108692
 31
0.0
  0
LINE
  5
37D
330
E3
100
AcDbEntity
  8
0
  6
Continuous
 62
   251
370
    35
100
AcDbLine
 10
26.88559439635692
 20
106.0263058108692
 30
0.0
 11
25.66254034651327
 21
107.8034990857197
 31
0.0
  0
LINE
  5
37E
330
E3
100
AcDbEntity
  8
0
  6
Continuous
 62
   251
370
    35
100
AcDbLine
 10
25.66254034651327
 20
107.8034990857197
 30
0.0
 11
25.87777935497497
 21
109.5308756550277
 31
0.0
  0
LINE
  5
37F
330
E3
100
AcDbEntity
  8
0
  6
Continuous
 62
   251
370
    35
100
AcDbLine
 10
25.87777935497497
 20
109.5308756550277
 30
0.0
 11
26.91591247933088
 21
111.0134829985915
 31
0.0
  0
LINE
  5
380
330
E3
100
AcDbEntity
  8
0
  6
Continuous
 62
   251
370
    35
100
AcDbLine
 10
26.91591247933088
 20
111.0134829985915
 30
0.0
 11
28.46549683304437
 21
111.8065393346606
 31
0.0
  0
LINE
  5
381
330
E3
100
AcDbEntity
  8
0
  6
Continuous
 62
   251
370
    35
100
AcDbLine
 10
34.12592421349954
 20
99.60407971768899
 30
0.0
 11
32.39854764419158
 21
99.8193187261507
 31
0.0
  0
LINE
  5
382
330
E3
100
AcDbEntity
  8
0
  6
Continuous
 62
   251
370
    35
100
AcDbLine
 10
32.39854764419158
 20
99.8193187261507
 30
0.0
 11
30.91594030062775
 21
100.8574518505066
 31
0.0
  0
LINE
  5
383
330
E3
100
AcDbEntity
  8
0
  6
Continuous
 62
   251
370
    35
100
AcDbLine
 10
30.91594030062775
 20
100.8574518505066
 30
0.0
 11
30.12288396455865
 21
102.4070362042201
 31
0.0
  0
LINE
  5
384
330
E3
100
AcDbEntity
  8
0
  6
Continuous
 62
   251
370
    35
100
AcDbLine
 10
30.12288396455865
 20
102.4070362042201
 30
0.0
 11
30.66434571434751
 21
104.495360589879
 31
0.0
  0
LINE
  5
385
330
E3
100
AcDbEntity
  8
0
  6
Continuous
 62
   251
370
    35
100
AcDbLine
 10
30.66434571434751
 20
104.495360589879
 30
0.0
 11
31.9270753321964
 21
106.9152542492851
 31
0.0
  0
LINE
  5
386
330
E3
100
AcDbEntity
  8
0
  6
Continuous
 62
   251
370
    35
100
AcDbLine
 10
31.9270753321964
 20
106.9152542492851
 30
0.0
 11
32.46853708198526
 21
109.003578634944
 31
0.0
  0
LINE
  5
387
330
E3
100
AcDbEntity
  8
0
  6
Continuous
 62
   251
370
    35
100
AcDbLine
 10
32.46853708198526
 20
109.003578634944
 30
0.0
 11
31.67548074591616
 21
110.553167201843
 31
0.0
  0
LINE
  5
388
330
E3
100
AcDbEntity
  8
0
  6
Continuous
 62
   251
370
    35
100
AcDbLine
 10
31.67548074591616
 20
110.553167201843
 30
0.0
 11
30.19287340235233
 21
111.5913003261989
 31
0.0
  0
LINE
  5
389
330
E3
100
AcDbEntity
  8
0
  6
Continuous
 62
   251
370
    35
100
AcDbLine
 10
30.19287340235233
 20
111.5913003261989
 30
0.0
 11
28.46549683304437
 21
111.8065393346606
 31
0.0
  0
LINE
  5
38A
330
E3
100
AcDbEntity
  8
0
  6
Continuous
 62
   251
370
    35
100
AcDbLine
 10
34.12592421349954
 20
99.60407971768899
 30
0.0
 11
35.67551278039855
 21
100.3971360537581
 31
0.0
  0
LINE
  5
38B
330
E3
100
AcDbEntity
  8
0
  6
Continuous
 62
   251
370
    35
100
AcDbLine
 10
35.67551278039855
 20
100.3971360537581
 30
0.0
 11
36.71364169156895
 21
101.8797433973219
 31
0.0
  0
LINE
  5
38C
330
E3
100
AcDbEntity
  8
0
  6
Continuous
 62
   251
370
    35
100
AcDbLine
 10
36.71364169156895
 20
101.8797433973219
 30
0.0
 11
36.92888491321616
 21
103.6071199666299
 31
0.0
  0
LINE
  5
38D
330
E3
100
AcDbEntity
  8
0
  6
Continuous
 62
   251
370
    35
100
AcDbLine
 10
36.92888491321616
 20
103.6071199666299
 30
0.0
 11
35.70582665018699
 21
105.3843132414804
 31
0.0
  0
LINE
  5
38E
330
E3
100
AcDbEntity
  8
0
  6
Continuous
 62
   251
370
    35
100
AcDbLine
 10
35.70582665018699
 20
105.3843132414804
 30
0.0
 11
33.69159534501443
 21
107.2263853600935
 31
0.0
  0
LINE
  5
38F
330
E3
100
AcDbEntity
  8
0
  6
Continuous
 62
   251
370
    35
100
AcDbLine
 10
33.69159534501443
 20
107.2263853600935
 30
0.0
 11
32.46853708198526
 21
109.003578634944
 31
0.0
  0
LINE
  5
390
330
E3
100
AcDbEntity
  8
0
  6
Continuous
 62
   251
370
    35
100
AcDbLine
 10
32.46853708198526
 20
109.003578634944
 30
0.0
 11
32.68378030363247
 21
110.730955204252
 31
0.0
  0
LINE
  5
391
330
E3
100
AcDbEntity
  8
0
  6
Continuous
 62
   251
370
    35
100
AcDbLine
 10
32.68378030363247
 20
110.730955204252
 30
0.0
 11
33.72190921480286
 21
112.2135625478158
 31
0.0
  0
LINE
  5
392
330
E3
100
AcDbEntity
  8
0
  6
Continuous
 62
   251
370
    35
100
AcDbLine
 10
33.72190921480286
 20
112.2135625478158
 30
0.0
 11
35.27149778170187
 21
113.0066188838849
 31
0.0
  0
LINE
  5
393
330
E3
100
AcDbEntity
  8
0
  6
Continuous
 62
   251
370
    35
100
AcDbLine
 10
40.93192516215704
 20
100.8041592669133
 30
0.0
 11
39.20454859284908
 21
101.019398275375
 31
0.0
  0
LINE
  5
394
330
E3
100
AcDbEntity
  8
0
  6
Continuous
 62
   251
370
    35
100
AcDbLine
 10
39.20454859284908
 20
101.019398275375
 30
0.0
 11
37.72194124928525
 21
102.0575313997309
 31
0.0
  0
LINE
  5
395
330
E3
100
AcDbEntity
  8
0
  6
Continuous
 62
   251
370
    35
100
AcDbLine
 10
37.72194124928525
 20
102.0575313997309
 30
0.0
 11
36.92888491321616
 21
103.6071199666299
 31
0.0
  0
LINE
  5
396
330
E3
100
AcDbEntity
  8
0
  6
Continuous
 62
   251
370
    35
100
AcDbLine
 10
36.92888491321616
 20
103.6071199666299
 30
0.0
 11
37.47034666300501
 21
105.6954443522888
 31
0.0
  0
LINE
  5
397
330
E3
100
AcDbEntity
  8
0
  6
Continuous
 62
   251
370
    35
100
AcDbLine
 10
37.47034666300501
 20
105.6954443522888
 30
0.0
 11
38.73307628085391
 21
108.1153337985094
 31
0.0
  0
LINE
  5
398
330
E3
100
AcDbEntity
  8
0
  6
Continuous
 62
   251
370
    35
100
AcDbLine
 10
38.73307628085391
 20
108.1153337985094
 30
0.0
 11
39.27453803064277
 21
110.2036623973538
 31
0.0
  0
LINE
  5
399
330
E3
100
AcDbEntity
  8
0
  6
Continuous
 62
   251
370
    35
100
AcDbLine
 10
39.27453803064277
 20
110.2036623973538
 30
0.0
 11
38.48148169457367
 21
111.7532467510673
 31
0.0
  0
LINE
  5
39A
330
E3
100
AcDbEntity
  8
0
  6
Continuous
 62
   251
370
    35
100
AcDbLine
 10
38.48148169457367
 20
111.7532467510673
 30
0.0
 11
36.99887435100983
 21
112.7913798754232
 31
0.0
  0
LINE
  5
39B
330
E3
100
AcDbEntity
  8
0
  6
Continuous
 62
   251
370
    35
100
AcDbLine
 10
36.99887435100983
 20
112.7913798754232
 30
0.0
 11
35.27149778170187
 21
113.0066188838849
 31
0.0
  0
LINE
  5
39C
330
E3
100
AcDbEntity
  8
0
  6
Continuous
 62
   251
370
    35
100
AcDbLine
 10
40.93192516215704
 20
100.8041592669133
 30
0.0
 11
42.48150951587054
 21
101.5972156029824
 31
0.0
  0
LINE
  5
39D
330
E3
100
AcDbEntity
  8
0
  6
Continuous
 62
   251
370
    35
100
AcDbLine
 10
42.48150951587054
 20
101.5972156029824
 30
0.0
 11
43.51964264022644
 21
103.0798229465462
 31
0.0
  0
LINE
  5
39E
330
E3
100
AcDbEntity
  8
0
  6
Continuous
 62
   251
370
    35
100
AcDbLine
 10
43.51964264022644
 20
103.0798229465462
 30
0.0
 11
43.73488164868814
 21
104.8071995158542
 31
0.0
  0
LINE
  5
39F
330
E3
100
AcDbEntity
  8
0
  6
Continuous
 62
   251
370
    35
100
AcDbLine
 10
43.73488164868814
 20
104.8071995158542
 30
0.0
 11
42.51182759884449
 21
106.5843927907047
 31
0.0
  0
LINE
  5
3A0
330
E3
100
AcDbEntity
  8
0
  6
Continuous
 62
   251
370
    35
100
AcDbLine
 10
42.51182759884449
 20
106.5843927907047
 30
0.0
 11
40.49759629367193
 21
108.4264649093178
 31
0.0
  0
LINE
  5
3A1
330
E3
100
AcDbEntity
  8
0
  6
Continuous
 62
   251
370
    35
100
AcDbLine
 10
40.49759629367193
 20
108.4264649093178
 30
0.0
 11
39.27453803064277
 21
110.2036623973538
 31
0.0
  0
LINE
  5
3A2
330
E3
100
AcDbEntity
  8
0
  6
Continuous
 62
   251
370
    35
100
AcDbLine
 10
39.27453803064277
 20
110.2036623973538
 30
0.0
 11
39.48977703910446
 21
111.9310347534763
 31
0.0
  0
LINE
  5
3A3
330
E3
100
AcDbEntity
  8
0
  6
Continuous
 62
   251
370
    35
100
AcDbLine
 10
39.48977703910446
 20
111.9310347534763
 30
0.0
 11
40.52791016346036
 21
113.4136420970401
 31
0.0
  0
LINE
  5
3A4
330
E3
100
AcDbEntity
  8
0
  6
Continuous
 62
   251
370
    35
100
AcDbLine
 10
40.52791016346036
 20
113.4136420970401
 30
0.0
 11
42.07749873035937
 21
114.2067026462947
 31
0.0
  0
LINE
  5
3A5
330
E3
100
AcDbEntity
  8
0
  6
Continuous
 62
   251
370
    35
100
AcDbLine
 10
47.73792189762904
 20
102.0042388161376
 30
0.0
 11
46.01054532832107
 21
102.2194820377848
 31
0.0
  0
LINE
  5
3A6
330
E3
100
AcDbEntity
  8
0
  6
Continuous
 62
   251
370
    35
100
AcDbLine
 10
46.01054532832107
 20
102.2194820377848
 30
0.0
 11
44.52793798475724
 21
103.2576151621407
 31
0.0
  0
LINE
  5
3A7
330
E3
100
AcDbEntity
  8
0
  6
Continuous
 62
   251
370
    35
100
AcDbLine
 10
44.52793798475724
 20
103.2576151621407
 30
0.0
 11
43.73488164868814
 21
104.8071995158542
 31
0.0
  0
LINE
  5
3A8
330
E3
100
AcDbEntity
  8
0
  6
Continuous
 62
   251
370
    35
100
AcDbLine
 10
43.73488164868814
 20
104.8071995158542
 30
0.0
 11
44.276343398477
 21
106.8955239015131
 31
0.0
  0
LINE
  5
3A9
330
E3
100
AcDbEntity
  8
0
  6
Continuous
 62
   251
370
    35
100
AcDbLine
 10
44.276343398477
 20
106.8955239015131
 30
0.0
 11
45.53907722951141
 21
109.3154175609192
 31
0.0
  0
LINE
  5
3AA
330
E3
100
AcDbEntity
  8
0
  6
Continuous
 62
   251
370
    35
100
AcDbLine
 10
45.53907722951141
 20
109.3154175609192
 30
0.0
 11
46.08053897930027
 21
111.4037419465781
 31
0.0
  0
LINE
  5
3AB
330
E3
100
AcDbEntity
  8
0
  6
Continuous
 62
   251
370
    35
100
AcDbLine
 10
46.08053897930027
 20
111.4037419465781
 30
0.0
 11
45.28748264323117
 21
112.9533263002916
 31
0.0
  0
LINE
  5
3AC
330
E3
100
AcDbEntity
  8
0
  6
Continuous
 62
   251
370
    35
100
AcDbLine
 10
45.28748264323117
 20
112.9533263002916
 30
0.0
 11
43.80487108648182
 21
113.9914594246475
 31
0.0
  0
LINE
  5
3AD
330
E3
100
AcDbEntity
  8
0
  6
Continuous
 62
   251
370
    35
100
AcDbLine
 10
43.80487108648182
 20
113.9914594246475
 30
0.0
 11
42.07749873035937
 21
114.2067026462947
 31
0.0
  0
LINE
  5
3AE
330
E3
100
AcDbEntity
  8
0
  6
Continuous
 62
   251
370
    35
100
AcDbLine
 10
47.73792189762904
 20
102.0042388161376
 30
0.0
 11
49.28751046452805
 21
102.7972951522067
 31
0.0
  0
LINE
  5
3AF
330
E3
100
AcDbEntity
  8
0
  6
Continuous
 62
   251
370
    35
100
AcDbLine
 10
49.28751046452805
 20
102.7972951522067
 30
0.0
 11
50.32564358888396
 21
104.279906708956
 31
0.0
  0
LINE
  5
3B0
330
E3
100
AcDbEntity
  8
0
  6
Continuous
 62
   251
370
    35
100
AcDbLine
 10
50.32564358888396
 20
104.279906708956
 30
0.0
 11
50.54088259734566
 21
106.0072790650784
 31
0.0
  0
LINE
  5
3B1
330
E3
100
AcDbEntity
  8
0
  6
Continuous
 62
   251
370
    35
100
AcDbLine
 10
50.54088259734566
 20
106.0072790650784
 30
0.0
 11
49.31782433431648
 21
107.784472339929
 31
0.0
  0
LINE
  5
3B2
330
E3
100
AcDbEntity
  8
0
  6
Continuous
 62
   251
370
    35
100
AcDbLine
 10
49.31782433431648
 20
107.784472339929
 30
0.0
 11
47.30359302914392
 21
109.6265486717276
 31
0.0
  0
LINE
  5
3B3
330
E3
100
AcDbEntity
  8
0
  6
Continuous
 62
   251
370
    35
100
AcDbLine
 10
47.30359302914392
 20
109.6265486717276
 30
0.0
 11
46.08053897930027
 21
111.4037419465781
 31
0.0
  0
LINE
  5
3B4
330
E3
100
AcDbEntity
  8
0
  6
Continuous
 62
   251
370
    35
100
AcDbLine
 10
46.08053897930027
 20
111.4037419465781
 30
0.0
 11
46.29577798776197
 21
113.1311185158861
 31
0.0
  0
LINE
  5
3B5
330
E3
100
AcDbEntity
  8
0
  6
Continuous
 62
   251
370
    35
100
AcDbLine
 10
46.29577798776197
 20
113.1311185158861
 30
0.0
 11
47.33391111211787
 21
114.6137258594499
 31
0.0
  0
LINE
  5
3B6
330
E3
100
AcDbEntity
  8
0
  6
Continuous
 62
   251
370
    35
100
AcDbLine
 10
47.33391111211787
 20
114.6137258594499
 30
0.0
 11
48.88349546583137
 21
115.406782195519
 31
0.0
  0
LINE
  5
3B7
330
E3
100
AcDbEntity
  8
0
  6
Continuous
 62
   251
370
    35
100
AcDbLine
 10
54.54392284628655
 20
103.2043225785474
 30
0.0
 11
52.81654627697858
 21
103.4195615870091
 31
0.0
  0
LINE
  5
3B8
330
E3
100
AcDbEntity
  8
0
  6
Continuous
 62
   251
370
    35
100
AcDbLine
 10
52.81654627697858
 20
103.4195615870091
 30
0.0
 11
51.33393893341475
 21
104.457694711365
 31
0.0
  0
LINE
  5
3B9
330
E3
100
AcDbEntity
  8
0
  6
Continuous
 62
   251
370
    35
100
AcDbLine
 10
51.33393893341475
 20
104.457694711365
 30
0.0
 11
50.54088259734566
 21
106.0072790650784
 31
0.0
  0
LINE
  5
3BA
330
E3
100
AcDbEntity
  8
0
  6
Continuous
 62
   251
370
    35
100
AcDbLine
 10
50.54088259734566
 20
106.0072790650784
 30
0.0
 11
51.08234434713451
 21
108.0956076639229
 31
0.0
  0
LINE
  5
3BB
330
E3
100
AcDbEntity
  8
0
  6
Continuous
 62
   251
370
    35
100
AcDbLine
 10
51.08234434713451
 20
108.0956076639229
 30
0.0
 11
52.34507396498341
 21
110.5154971101434
 31
0.0
  0
LINE
  5
3BC
330
E3
100
AcDbEntity
  8
0
  6
Continuous
 62
   251
370
    35
100
AcDbLine
 10
52.34507396498341
 20
110.5154971101434
 30
0.0
 11
52.88653571477226
 21
112.6038214958024
 31
0.0
  0
LINE
  5
3BD
330
E3
100
AcDbEntity
  8
0
  6
Continuous
 62
   251
370
    35
100
AcDbLine
 10
52.88653571477226
 20
112.6038214958024
 30
0.0
 11
52.09347937870317
 21
114.1534100627014
 31
0.0
  0
LINE
  5
3BE
330
E3
100
AcDbEntity
  8
0
  6
Continuous
 62
   251
370
    35
100
AcDbLine
 10
52.09347937870317
 20
114.1534100627014
 30
0.0
 11
50.61087203513933
 21
115.1915431870573
 31
0.0
  0
LINE
  5
3BF
330
E3
100
AcDbEntity
  8
0
  6
Continuous
 62
   251
370
    35
100
AcDbLine
 10
50.61087203513933
 20
115.1915431870573
 30
0.0
 11
48.88349546583137
 21
115.406782195519
 31
0.0
  0
HATCH
  5
3C0
330
E3
100
AcDbEntity
  8
0
  6
Continuous
 62
   253
370
    25
100
AcDbHatch
 10
0.0
 20
0.0
 30
0.0
210
0.0
220
0.0
230
1.0
  2
SOLID
 70
     1
 71
     0
 91
        1
 92
        3
 72
     0
 73
     1
 93
        4
 10
6.910884912967894
 20
122.8605053258451
 10
7.81385535485332
 20
117.7395065079547
 10
287.7418223042213
 20
167.0983566161542
 10
287.7418223042213
 20
172.3785777356113
 97
        0
 75
     0
 76
     1
 98
        0
  0
LINE
  5
3C1
330
E3
100
AcDbEntity
  8
0
  6
Continuous
100
AcDbLine
 10
7.81385535485332
 20
117.7395065079547
 30
0.0
 11
287.7418223042213
 21
167.0983566161542
 31
0.0
  0
LINE
  5
3C2
330
E3
100
AcDbEntity
  8
0
  6
Continuous
100
AcDbLine
 10
287.7418225021243
 20
172.3785751733306
 30
0.0
 11
6.910883251209473
 21
122.8605070887267
 31
0.0
  0
LINE
  5
3C3
330
E3
100
AcDbEntity
  8
0
  6
Continuous
100
AcDbLine
 10
6.910881864462296
 20
122.8605056458673
 30
0.0
 11
7.813851784275764
 21
117.7395050465966
 31
0.0
  0
HATCH
  5
3C4
330
E3
100
AcDbEntity
  8
0
  6
Continuous
 62
   255
370
     0
100
AcDbHatch
 10
0.0
 20
0.0
 30
0.0
210
0.0
220
0.0
230
1.0
  2
SOLID
 70
     1
 71
     0
 91
        1
 92
        3
 72
     0
 73
     1
 93
        4
 10
8.061987109725344
 20
116.3322629801638
 10
8.582934420197898
 20
113.3778364724126
 10
287.7418222792693
 20
162.6010806744095
 10
287.7418222792693
 20
165.647364843931
 97
        0
 75
     0
 76
     1
 98
        0
  0
HATCH
  5
3C5
330
E3
100
AcDbEntity
  8
0
  6
Continuous
100
AcDbHatch
 10
0.0
 20
0.0
 30
0.0
210
0.0
220
0.0
230
1.0
  2
Wood_0002
 70
     0
 71
     0
 91
        1
 92
        3
 72
     0
 73
     1
 93
        4
 10
8.061987109725344
 20
116.3322629801638
 10
8.582934420197898
 20
113.3778364724126
 10
287.7418222792693
 20
162.6010806744095
 10
287.7418222792693
 20
165.647364843931
 97
        0
 75
     0
 76
     2
 52
0.0
 41
1.0
 77
     0
 78
     1
 53
9.999999999999996
 43
-638.383264183377
 44
293.9742688676208
 45
-0.1562833557601421
 46
0.8863269542313407
 79
     0
 98
        0
  0
LINE
  5
3C6
330
E3
100
AcDbEntity
  8
0
  6
Continuous
100
AcDbLine
 10
8.582934420197898
 20
113.3778364724126
 30
0.0
 11
287.7418222792693
 21
162.6010806744095
 31
0.0
  0
LINE
  5
3C7
330
E3
100
AcDbEntity
  8
0
  6
Continuous
100
AcDbLine
 10
287.7418263180247
 20
165.6473659459486
 30
0.0
 11
8.061987215260178
 21
116.3322626514003
 31
0.0
  0
LINE
  5
3C8
330
E3
100
AcDbEntity
  8
0
  6
Continuous
100
AcDbLine
 10
8.061987345247275
 20
116.3322631655451
 30
0.0
 11
8.582935094758176
 21
113.3778384465242
 31
0.0
  0
LINE
  5
3CA
330
E3
100
AcDbEntity
  8
0
  6
Dashed
100
AcDbLine
 10
25.34378336992066
 20
97.13699838050246
 30
0.0
 11
263.3380804085808
 21
139.1018133754812
 31
0.0
  0
LINE
  5
3CB
330
E3
100
AcDbEntity
  8
0
  6
Dashed
100
AcDbLine
 10
21.42120232478099
 20
119.4296159900146
 30
0.0
 11
269.4646125026836
 21
163.1663619911342
 31
0.0
  0
HATCH
  5
3CC
330
E3
100
AcDbEntity
  8
0
  6
Continuous
 62
   255
370
     0
100
AcDbHatch
 10
0.0
 20
0.0
 30
0.0
210
0.0
220
0.0
230
1.0
  2
SOLID
 70
     1
 71
     0
 91
        1
 92
        3
 72
     0
 73
     1
 93
        8
 10
256.2597397014739
 20
179.2916387962545
 10
264.9425774101229
 20
130.0488226540743
 10
271.1741093781667
 20
128.7357447082927
 10
259.4056373028849
 20
127.4226667625111
 10
265.6371692709287
 20
126.1095888167295
 10
274.3200069795778
 20
76.86677267454937
 10
287.7418245528496
 20
76.86677267454937
 10
287.7418245528496
 20
179.2916387962545
 97
        0
 75
     0
 76
     1
 98
        0
  0
LINE
  5
3CD
330
E3
100
AcDbEntity
  8
0
  6
Continuous
100
AcDbLine
 10
256.2597391481617
 20
179.2916385916344
 30
0.0
 11
264.9425752091258
 21
130.0488194746279
 31
0.0
  0
LINE
  5
3CE
330
E3
100
AcDbEntity
  8
0
  6
Continuous
100
AcDbLine
 10
265.6371693996833
 20
126.1095879203286
 30
0.0
 11
274.3200054606474
 21
76.86677301650764
 31
0.0
  0
LINE
  5
3CF
330
E3
100
AcDbEntity
  8
0
  6
Continuous
100
AcDbLine
 10
265.6371693996833
 20
126.1095879203286
 30
0.0
 11
259.4056405093334
 21
127.422665105095
 31
0.0
  0
LINE
  5
3D0
330
E3
100
AcDbEntity
  8
0
  6
Continuous
100
AcDbLine
 10
259.4056405093334
 20
127.422665105095
 30
0.0
 11
271.1741083126612
 21
128.7357422898615
 31
0.0
  0
LINE
  5
3D1
330
E3
100
AcDbEntity
  8
0
  6
Continuous
100
AcDbLine
 10
271.1741083126612
 20
128.7357422898615
 30
0.0
 11
264.9425752091258
 21
130.0488194746279
 31
0.0
  0
LINE
  5
3D2
330
E3
100
AcDbEntity
  8
Doc_ Floor
  6
Continuous
100
AcDbLine
 10
67.62821904452282
 20
124.7822027575494
 30
0.0
 11
67.79804833949186
 21
123.8190601221948
 31
0.0
  0
LINE
  5
3D3
330
E3
100
AcDbEntity
  8
Doc_ Floor
  6
Continuous
100
AcDbLine
 10
67.79804833949186
 20
123.8190601221948
 30
0.0
 11
68.66628897109598
 21
118.895021732617
 31
0.0
  0
LINE
  5
3D4
330
E3
100
AcDbEntity
  8
Doc_ Floor
  6
Continuous
100
AcDbLine
 10
68.88311213731174
 20
123.4241287514709
 30
0.0
 11
66.71298454167194
 21
124.2139914929187
 31
0.0
  0
LINE
  5
3D5
330
E3
100
AcDbEntity
  8
Doc_ Floor
  6
Continuous
100
AcDbLine
 10
67.5812251732761
 20
119.2899531033409
 30
0.0
 11
69.7513527689159
 21
118.500090361893
 31
0.0
  0
LINE
  5
3D6
330
E3
100
AcDbEntity
  8
Doc_ Floor
  6
Continuous
100
AcDbLine
 10
68.66628897109598
 20
118.895021732617
 30
0.0
 11
68.8361140528795
 21
117.9318790972624
 31
0.0
  0
LINE
  5
3D7
330
E3
100
AcDbEntity
  8
Doc_ Floor
  6
Continuous
100
AcDbLine
 10
66.32083387338864
 20
123.5585883540321
 30
0.0
 11
69.27525859240953
 21
124.0795318903575
 31
0.0
  0
LINE
  5
3D8
330
E3
100
AcDbEntity
  8
Doc_ Floor
  6
Continuous
100
AcDbLine
 10
67.18907450499277
 20
118.6345499644543
 30
0.0
 11
70.14349922401368
 21
119.1554935007797
 31
0.0
  0
WIPEOUT
  5
3D9
330
E3
100
AcDbEntity
  8
Doc_ Floor
  6
Wipeout_Contour
 62
   254
 48
597.958741822946
370
     0
 92
      296
310
28010000060000000C0000000E000000120000000C00000016000000000000C20C00000014000000010000006C00000007000000040000009CB7ADFF166B51409DAB9CC7A6ED5D400000000000000000280AD84033495840A8D2E55DA7235F40000000000000000029767B924D22584036AD5E172000604000000000000000
310
009523515131445140643374983FCA5E4000000000000000000C0000000E000000FE0000008400000006000000050000009CB7ADFF166B51409DAB9CC7A6ED5D400000000000000000280AD84033495840A8D2E55DA7235F40000000000000000029767B924D22584036AD5E17200060400000000000000000952351513144
310
5140643374983FCA5E4000000000000000009CB7ADFF166B51409DAB9CC7A6ED5D400000000000000000
100
AcDbWipeout
 90
        0
 10
69.06551011012773
 20
119.7133044271454
 30
0.0
 11
28.0782431428327
 21
0.0
 31
0.0
 12
0.0
 22
8.29061296645817
 32
0.0
 13
1.0
 23
1.0
340
0
 70
    15
280
     1
281
    50
282
    50
283
     0
360
0
 71
     2
 91
        5
 14
-0.4783544640331474
 24
0.4999999999999992
 14
0.5000000000000002
 24
-0.0842494216666793
 14
0.478354464033152
 24
-0.5000000000000009
 14
-0.4999999999999997
 24
0.0842494216666724
 14
-0.4783544640331474
 24
0.4999999999999992
  0
MTEXT
  5
3DB
330
E3
100
AcDbEntity
  8
Doc_ Floor
  6
Continuous
100
AcDbMText
 10
70.07885851895391
 20
120.292532391513
 30
0.0
 40
2.5
 41
0.0
 71
     7
 72
     1
  1
{25 MM AIR GAP}
  7
GENERATED_STYLE_1
 11
0.9848077530122146
 21
0.1736481776668934
 31
0.0
 73
     1
 44
1.0
  0
MTEXT
  5
3DC
102
{ACAD_XDICTIONARY
360
439
102
}
330
E3
100
AcDbEntity
  8
Doc_ Floor
  6
Continuous
100
AcDbMText
 10
114.3066720483725
 20
166.3117756025923
 30
0.0
 40
2.499999999999999
 41
68.1504970171295
 71
     6
 72
     1
  1
{TRS SEAM\PMIN. ROOF PITCH 5° FOR ANGLE SEAM\PMIN. ROOF PITCH 3° FOR DOUBLE\PSTANDING SEAM}
  7
GENERATED_STYLE_1
 73
     1
 44
1.06374321355081
  0
LINE
  5
3DD
330
E3
100
AcDbEntity
  8
Doc_ Floor
  6
Continuous
100
AcDbLine
 10
148.6053918730954
 20
147.8953424595102
 30
0.0
 11
145.5235267185832
 21
150.2256385157306
 31
0.0
  0
LINE
  5
3DE
330
E3
100
AcDbEntity
  8
Doc_ Floor
  6
Continuous
100
AcDbLine
 10
148.6053918730954
 20
147.8953424595102
 30
0.0
 11
147.1015669272724
 21
151.4543719396499
 31
0.0
  0
LINE
  5
3DF
330
E3
100
AcDbEntity
  8
Doc_ Floor
  6
Continuous
100
AcDbLine
 10
145.5235267185832
 20
150.2256385157306
 30
0.0
 11
147.1015669272724
 21
151.4543719396499
 31
0.0
  0
LWPOLYLINE
  5
3E0
330
E3
100
AcDbEntity
  8
Doc_ Floor
  6
Continuous
100
AcDbPolyline
 90
       16
 70
   128
 43
0.0
 10
146.3125462220773
 20
150.8400065203608
 10
142.8471936262597
 20
154.8200875010546
 10
141.1333500326698
 20
156.5563845744737
 10
139.4191790789656
 20
158.1306515351385
 10
137.6950188929021
 20
159.5482375069476
 10
135.951207602234
 20
160.8144916137993
 10
134.1780833347162
 20
161.9347629795919
 10
132.3659842181036
 20
162.9144007282239
 10
130.505248380151
 20
163.7587539835936
 10
128.5862139486134
 20
164.4731718695992
 10
126.5992190512455
 20
165.0630035101393
 10
124.5346018158022
 20
165.5335980291121
 10
122.3827003700384
 20
165.890304550416
 10
120.133852841709
 20
166.1384721979495
 10
117.7783973585687
 20
166.2834500956107
 10
115.3066720483725
 20
166.3305873672981
  0
MTEXT
  5
3E1
330
E3
100
AcDbEntity
  8
Doc_ Floor
  6
Continuous
100
AcDbMText
 10
159.0700861624744
 20
171.7144661535285
 30
0.0
 40
2.5
 41
0.0
 71
     6
 72
     1
  1
{UNDERLAY}
  7
GENERATED_STYLE_1
 73
     1
 44
1.0
  0
LINE
  5
3E2
330
E3
100
AcDbEntity
  8
Doc_ Floor
  6
Continuous
100
AcDbLine
 10
194.1967484329242
 20
149.8946085297295
 30
0.0
 11
191.2524859173681
 21
152.3965118452067
 31
0.0
  0
LINE
  5
3E3
330
E3
100
AcDbEntity
  8
Doc_ Floor
  6
Continuous
100
AcDbLine
 10
194.1967484329242
 20
149.8946085297295
 30
0.0
 11
192.8978949624601
 21
153.533448383101
 31
0.0
  0
LINE
  5
3E4
330
E3
100
AcDbEntity
  8
Doc_ Floor
  6
Continuous
100
AcDbLine
 10
191.2524859173681
 20
152.3965118452067
 30
0.0
 11
192.8978949624601
 21
153.533448383101
 31
0.0
  0
LWPOLYLINE
  5
3E5
330
E3
100
AcDbEntity
  8
Doc_ Floor
  6
Continuous
100
AcDbPolyline
 90
       17
 70
   128
 43
0.0
 10
192.0751920935199
 20
152.9649807671084
 10
190.2157841871707
 20
155.4868909310541
 10
188.3852301436568
 20
157.798681403387
 10
186.5733209576752
 20
159.9068947216979
 10
184.7698476239229
 20
161.818073423578
 10
182.964601137097
 20
163.5387600466182
 10
181.1473724918942
 20
165.0754971284094
 10
179.3079526830115
 20
166.4348272065426
 10
177.436132705146
 20
167.6232928186089
 10
175.5217035529946
 20
168.6474365021992
 10
173.5544562212543
 20
169.5138007949045
 10
171.524181704622
 20
170.2289282343157
 10
169.4206709977946
 20
170.799361358024
 10
167.2337150954693
 20
171.2316427036201
 10
164.9531049923428
 20
171.5323148086952
 10
162.5686316831121
 20
171.7079202108402
 10
160.0700861624743
 20
171.7650014476461
  0
MTEXT
  5
3E6
330
E3
100
AcDbEntity
  8
Doc_ Floor
  6
Continuous
100
AcDbMText
 10
77.26576920301021
 20
143.1836605637673
 30
0.0
 40
2.499999999999999
 41
0.0
 71
     4
 72
     1
  1
{PURLIN}
  7
GENERATED_STYLE_1
 73
     1
 44
1.0
  0
LINE
  5
3E7
330
E3
100
AcDbEntity
  8
Doc_ Floor
  6
Continuous
100
AcDbLine
 10
59.44119065509497
 20
120.7309594531187
 30
0.0
 11
59.26244625957386
 21
124.5905238824938
 31
0.0
  0
LINE
  5
3E8
330
E3
100
AcDbEntity
  8
Doc_ Floor
  6
Continuous
100
AcDbLine
 10
59.44119065509497
 20
120.7309594531187
 30
0.0
 11
61.21617622073502
 21
124.162809715269
 31
0.0
  0
LINE
  5
3E9
330
E3
100
AcDbEntity
  8
Doc_ Floor
  6
Continuous
100
AcDbLine
 10
59.26244625957386
 20
124.5905238824938
 30
0.0
 11
61.21617622073502
 21
124.162809715269
 31
0.0
  0
LWPOLYLINE
  5
3EA
330
E3
100
AcDbEntity
  8
Doc_ Floor
  6
Continuous
100
AcDbPolyline
 90
       15
 70
   128
 43
0.0
 10
60.23931304277018
 20
124.3766669087437
 10
61.53130400824987
 20
129.2214418607357
 10
62.94870372466642
 20
133.2513867531086
 10
63.71659192814885
 20
134.9770622740504
 10
64.53042439577288
 20
136.5185474966221
 10
65.39506515300765
 20
137.882348159669
 10
66.31537822532229
 20
139.0749700020358
 10
67.29622763818594
 20
140.1029187625676
 10
68.3424774170677
 20
140.9727001801092
 10
69.45899158743671
 20
141.6908199935058
 10
70.65063417476212
 20
142.2637839416022
 10
71.92226920451304
 20
142.6980977632433
 10
73.2787607021586
 20
143.0002671972742
 10
74.72497269316796
 20
143.1767979825397
 10
76.26576920301021
 20
143.2341958578849
  0
MTEXT
  5
3EB
330
E3
100
AcDbEntity
  8
Doc_ Floor
  6
Continuous
100
AcDbMText
 10
201.664777949312
 20
79.21120402846552
 30
0.0
 40
2.5
 41
0.0
 71
     4
 72
     1
  1
{EXPOSED ROOF FRAME}
  7
GENERATED_STYLE_1
 73
     1
 44
1.0
  0
LINE
  5
3EC
330
E3
100
AcDbEntity
  8
Doc_ Floor
  6
Continuous
100
AcDbLine
 10
169.7099164461766
 20
93.58820694116689
 30
0.0
 11
172.4907958406033
 21
90.90587395596212
 31
0.0
  0
LINE
  5
3ED
330
E3
100
AcDbEntity
  8
Doc_ Floor
  6
Continuous
100
AcDbLine
 10
169.7099164461766
 20
93.58820694116689
 30
0.0
 11
170.7770615659965
 21
89.8747979173457
 31
0.0
  0
LINE
  5
3EE
330
E3
100
AcDbEntity
  8
Doc_ Floor
  6
Continuous
100
AcDbLine
 10
172.4907958406033
 20
90.90587395596212
 30
0.0
 11
170.7770615659965
 21
89.8747979173457
 31
0.0
  0
LWPOLYLINE
  5
3EF
330
E3
100
AcDbEntity
  8
Doc_ Floor
  6
Continuous
100
AcDbPolyline
 90
       15
 70
   128
 43
0.0
 10
171.6339277780785
 20
90.39033533902119
 10
172.7156328689889
 20
88.89818592617348
 10
173.8572861937784
 20
87.52949603117779
 10
175.066976646467
 20
86.28051366785729
 10
176.3527931210746
 20
85.14748685003524
 10
177.7228245116212
 20
84.12666359153484
 10
179.1851597121268
 20
83.21429190617931
 10
180.7478876166113
 20
82.40661980779187
 10
182.4190971190945
 20
81.69989531019576
 10
184.2068771135965
 20
81.09036642721419
 10
186.1193164941373
 20
80.57428117267038
 10
188.1645041547367
 20
80.14788756038755
 10
190.3505289894148
 20
79.8074336041889
 10
195.1774457570865
 20
79.36933671533714
 10
200.664777949312
 20
79.22997461670082
  0
MTEXT
  5
3F0
330
E3
100
AcDbEntity
  8
Doc_ Floor
  6
Continuous
100
AcDbMText
 10
146.2302582861503
 20
66.17184872983815
 30
0.0
 40
2.499999999999999
 41
0.0
 71
     4
 72
     1
  1
{INSULAITON}
  7
GENERATED_STYLE_1
 73
     1
 44
1.0
  0
LINE
  5
3F1
330
E3
100
AcDbEntity
  8
Doc_ Floor
  6
Continuous
100
AcDbLine
 10
87.35320764450636
 20
113.6794814635503
 30
0.0
 11
90.36817583939381
 21
111.2632532755433
 31
0.0
  0
LINE
  5
3F2
330
E3
100
AcDbEntity
  8
Doc_ Floor
  6
Continuous
100
AcDbLine
 10
87.35320764450636
 20
113.6794814635503
 30
0.0
 11
88.75613101040393
 21
110.0794829674519
 31
0.0
  0
LINE
  5
3F3
330
E3
100
AcDbEntity
  8
Doc_ Floor
  6
Continuous
100
AcDbLine
 10
90.36817583939381
 20
111.2632532755433
 30
0.0
 11
88.75613101040393
 21
110.0794829674519
 31
0.0
  0
LWPOLYLINE
  5
3F4
330
E3
100
AcDbEntity
  8
Doc_ Floor
  6
Continuous
100
AcDbPolyline
 90
       17
 70
   128
 43
0.0
 10
89.56215430492837
 20
110.671367828996
 10
94.05646665795861
 20
104.6874202494378
 10
98.32480117792785
 20
99.20502830648648
 10
102.3865800903719
 20
94.20825581508703
 10
106.2612256208266
 20
89.6811665901844
 10
109.9681599948277
 20
85.60782444672355
 10
113.5268054379111
 20
81.97229319964947
 10
116.9565841756126
 20
78.75863666390711
 10
120.2769184334681
 20
75.95091865444145
 10
123.5072304370132
 20
73.53320298619745
 10
126.6669424117838
 20
71.48955347412009
 10
129.7754765833159
 20
69.80403393315432
 10
132.8522551771451
 20
68.46070817824513
 10
135.9167004188074
 20
67.44364002433747
 10
138.9882345338384
 20
66.73689328637633
 10
142.0862797477742
 20
66.32453177930667
 10
145.2302582861503
 20
66.19061931807346
  0
MTEXT
  5
3F5
330
E3
100
AcDbEntity
  8
Doc_ Floor
  6
Continuous
100
AcDbMText
 10
85.36871142231361
 20
57.0203491894791
 30
0.0
 40
2.499999999999999
 41
0.0
 71
     4
 72
     1
  1
{CEILING LINING}
  7
GENERATED_STYLE_1
 73
     1
 44
1.0
  0
LINE
  5
3F6
330
E3
100
AcDbEntity
  8
Doc_ Floor
  6
Continuous
100
AcDbLine
 10
38.1329796282373
 20
95.8711594317427
 30
0.0
 11
40.910863447762
 21
93.18572132881256
 31
0.0
  0
LINE
  5
3F7
330
E3
100
AcDbEntity
  8
Doc_ Floor
  6
Continuous
100
AcDbLine
 10
38.1329796282373
 20
95.8711594317427
 30
0.0
 11
39.19597897350931
 21
92.15656228960596
 31
0.0
  0
LINE
  5
3F8
330
E3
100
AcDbEntity
  8
Doc_ Floor
  6
Continuous
100
AcDbLine
 10
40.910863447762
 20
93.18572132881256
 30
0.0
 11
39.19597897350931
 21
92.15656228960596
 31
0.0
  0
LWPOLYLINE
  5
3F9
330
E3
100
AcDbEntity
  8
Doc_ Floor
  6
Continuous
100
AcDbPolyline
 90
       17
 70
   128
 43
0.0
 10
40.05342073762689
 20
92.67114208551283
 10
43.03784368150693
 20
87.88091056033092
 10
45.92319476840107
 20
83.49160597290921
 10
48.72456890263236
 20
79.49055055461181
 10
51.45706098852388
 20
75.8650665368028
 10
54.13576593039868
 20
72.60247615084627
 10
56.77577863257982
 20
69.69010162810628
 10
59.39219399939036
 20
67.11526519994692
 10
62.00010693515337
 20
64.86528909773226
 10
64.61461234419191
 20
62.92749555282639
 10
67.25080513082904
 20
61.28920679659341
 10
69.9237801993878
 20
59.93774506039739
 10
72.6486324541913
 20
58.8604325756024
 10
75.44045679956257
 20
58.04459157357252
 10
78.31434813982466
 20
57.47754428567184
 10
81.28540137930065
 20
57.14661294326444
 10
84.36871142231361
 20
57.03911977771439
  0
MTEXT
  5
3FA
330
E3
100
AcDbEntity
  8
Doc_ Floor
  6
Continuous
100
AcDbMText
 10
224.0306698962216
 20
179.6661626305493
 30
0.0
 40
2.5
 41
0.0
 71
     6
 72
     1
  1
{15MM PLY SUBSTRATE}
  7
GENERATED_STYLE_1
 73
     1
 44
1.0
  0
LINE
  5
3FB
330
E3
100
AcDbEntity
  8
Doc_ Floor
  6
Continuous
100
AcDbLine
 10
243.5787374938988
 20
156.229710159622
 30
0.0
 11
242.6422853887888
 21
159.9782108056069
 31
0.0
  0
LINE
  5
3FC
330
E3
100
AcDbEntity
  8
Doc_ Floor
  6
Continuous
100
AcDbLine
 10
243.5787374938988
 20
156.229710159622
 30
0.0
 11
244.6419938434873
 21
159.944235677605
 31
0.0
  0
LINE
  5
3FD
330
E3
100
AcDbEntity
  8
Doc_ Floor
  6
Continuous
100
AcDbLine
 10
242.6422853887888
 20
159.9782108056069
 30
0.0
 11
244.6419938434873
 21
159.944235677605
 31
0.0
  0
LWPOLYLINE
  5
3FE
330
E3
100
AcDbEntity
  8
Doc_ Floor
  6
Continuous
100
AcDbPolyline
 90
       17
 70
   128
 43
0.0
 10
243.6421391704618
 20
159.9612236625402
 10
243.5619519674691
 20
162.6051162128139
 10
243.3625018063913
 20
165.0290616084931
 10
243.038401331771
 20
167.2398725054763
 10
242.5842631881509
 20
169.2443615596621
 10
241.9947000200735
 20
171.0493414269491
 10
241.2643244720813
 20
172.661624763236
 10
240.3877491887171
 20
174.0880242244212
 10
239.3595868145233
 20
175.3353524664035
 10
238.1744499940426
 20
176.4104221450813
 10
236.8269513718176
 20
177.3200459163533
 10
235.3117035923908
 20
178.0710364361181
 10
233.6233193003049
 20
178.6702063602743
 10
231.7564111401024
 20
179.1243683447204
 10
229.705591756326
 20
179.4403350453551
 10
227.4654737935182
 20
179.6249191180769
 10
225.0306698962216
 20
179.6849332187846
  0
HATCH
  5
3FF
330
E3
100
AcDbEntity
  8
0
  6
Continuous
 62
   255
370
     0
100
AcDbHatch
 10
0.0
 20
0.0
 30
0.0
210
0.0
220
0.0
230
1.0
  2
SOLID
 70
     1
 71
     0
 91
        1
 92
        3
 72
     0
 73
     1
 93
        8
 10
5.000001010390061
 20
138.5754896126204
 10
5.000001010390061
 20
32.63380369516165
 10
36.72564527195621
 20
32.63380369516165
 10
27.73275173278639
 20
83.63502945620357
 10
21.50122308616054
 20
84.94810595037313
 10
33.26968952699287
 20
86.26118244454271
 10
27.03816088036702
 20
87.57425893871229
 10
18.04526734119719
 20
138.5754896126204
 97
        0
 75
     0
 76
     1
 98
        0
  0
LINE
  5
400
330
E3
100
AcDbEntity
  8
0
  6
Continuous
100
AcDbLine
 10
18.04526524761499
 20
138.5754853880663
 30
0.0
 11
27.03815805708091
 21
87.57425959042564
 31
0.0
  0
LINE
  5
401
330
E3
100
AcDbEntity
  8
0
  6
Continuous
100
AcDbLine
 10
27.73275224763843
 20
83.6350280361263
 30
0.0
 11
36.72564505710435
 21
32.63380223848569
 31
0.0
  0
LINE
  5
402
330
E3
100
AcDbEntity
  8
0
  6
Continuous
100
AcDbLine
 10
27.73275224763843
 20
83.6350280361263
 30
0.0
 11
21.50122335728853
 21
84.94810522089274
 31
0.0
  0
LINE
  5
403
330
E3
100
AcDbEntity
  8
0
  6
Continuous
100
AcDbLine
 10
21.50122335728853
 20
84.94810522089274
 30
0.0
 11
33.26969116061633
 21
86.2611824056592
 31
0.0
  0
LINE
  5
404
330
E3
100
AcDbEntity
  8
0
  6
Continuous
100
AcDbLine
 10
33.26969116061633
 20
86.2611824056592
 30
0.0
 11
27.03815805708091
 21
87.57425959042564
 31
0.0
  0
ENDBLK
  5
E5
330
E3
100
AcDbEntity
  8
0
100
AcDbBlockEnd
  0
BLOCK
  5
40A
330
409
100
AcDbEntity
  8
0
100
AcDbBlockBegin
  2
R-TRSS-02 TYPICAL ROOF LAYOUT -_STORY_MARKER
 70
     0
 10
0.0
 20
0.0
 30
0.0
  3
R-TRSS-02 TYPICAL ROOF LAYOUT -_STORY_MARKER
  1

  0
ENDBLK
  5
40B
330
409
100
AcDbEntity
  8
0
100
AcDbBlockEnd
  0
ENDSEC
  0
SECTION
  2
ENTITIES
  0
HATCH
  5
3F
330
1F
100
AcDbEntity
  8
Doc_ Finishes
  6
Continuous
100
AcDbHatch
 10
0.0
 20
0.0
 30
0.0
210
0.0
220
0.0
230
1.0
  2
SOLID
 70
     1
 71
     0
 91
        1
 92
        3
 72
     0
 73
     1
 93
       54
 10
27.4117749414874
 20
16.87044408857867
 10
26.89356552397386
 20
16.5825499677378
 10
26.5480925789648
 20
16.29465584689693
 10
26.12584786839819
 20
16.02595466744544
 10
25.76118198199976
 20
15.60370995687884
 10
25.39651609560134
 20
15.33500877742737
 10
25.07023609198168
 20
14.89357112547136
 10
24.49444785029994
 20
14.45213347351537
 10
23.93785255000758
 20
14.02988876294876
 10
23.43883607388344
 20
13.81876640766546
 10
22.74789018386533
 20
13.39652169709885
 10
22.09533017662603
 20
12.99346992792163
 10
21.63469958328064
 20
12.55203227596564
 10
20.90536781048376
 20
12.12978756539902
 10
20.59828074825351
 20
11.7459287376112
 10
20.04168544796116
 20
11.28529814426581
 10
19.36993249933246
 20
10.8630534336992
 10
18.73656543348255
 20
10.42161578174319
 10
18.04561954346447
 20
10.15291460229172
 10
17.1051654153843
 20
9.692284008946325
 10
16.39502658397681
 20
9.020531060317637
 10
15.83843128368446
 20
8.598286349751023
 10
15.12829245227699
 20
8.137655756405634
 10
14.84039833143612
 20
7.98411222529051
 10
14.37976773809073
 20
7.81137575278599
 10
14.07268067586046
 20
7.523481631945121
 10
14.0151018516923
 20
7.216394569714853
 10
14.14945244141803
 20
6.890114566095209
 10
14.4373465622589
 20
6.563834562475543
 10
14.8787842142149
 20
6.659799269422514
 10
15.51215128006482
 20
7.06285103859973
 10
16.01116775618899
 20
7.389131042219374
 10
16.33744775980864
 20
7.696218104449641
 10
16.51018423231316
 20
7.907340459732938
 10
17.01303929671522
 20
8.421711288968723
 10
17.33548071205699
 20
8.652026585641417
 10
17.75004824606785
 20
8.99749953065046
 10
18.14158425041142
 20
9.204783297655894
 10
19.24709767444037
 20
9.75754000967037
 10
20.23745345013295
 20
10.47151742935572
 10
21.4120614631637
 20
11.1624633193738
 10
21.84966052684182
 20
11.64612544238645
 10
22.49454335752537
 20
12.06069297639732
 10
23.78430901889248
 20
12.9819541630881
 10
24.3600972605742
 20
13.25833251909534
 10
25.6498629219413
 20
14.24868829478776
 10
25.85714668894673
 20
14.64022429913134
 10
26.68628175696843
 20
15.23904407048036
 10
27.28510152831745
 20
15.72270619349301
 10
27.81482671066464
 20
16.1142421978366
 10
28.27545730401003
 20
16.52880973184745
 10
28.22939424467549
 20
16.7821565581874
 10
28.09120506667188
 20
16.89731420652375
 10
27.56147988432467
 20
16.89731420652375
 97
        0
 75
     0
 76
     1
 98
        0
  0
LINE
  5
41
330
1F
100
AcDbEntity
  8
Doc_ Finishes
  6
Continuous
100
AcDbLine
 10
27.41177566876475
 20
16.87044600708104
 30
0.0
 11
26.89356756490952
 21
16.58254868214004
 31
0.0
  0
LINE
  5
42
330
1F
100
AcDbEntity
  8
Doc_ Finishes
  6
Continuous
100
AcDbLine
 10
26.89356756490952
 20
16.58254868214004
 30
0.0
 11
26.54809254523997
 21
16.29465578284815
 31
0.0
  0
LINE
  5
43
330
1F
100
AcDbEntity
  8
Doc_ Finishes
  6
Continuous
100
AcDbLine
 10
26.54809254523997
 20
16.29465578284815
 30
0.0
 11
26.12584579071597
 21
16.02595249803305
 31
0.0
  0
LINE
  5
44
330
1F
100
AcDbEntity
  8
Doc_ Finishes
  6
Continuous
100
AcDbLine
 10
26.12584579071597
 20
16.02595249803305
 30
0.0
 11
25.76118115656963
 21
15.60371016915814
 31
0.0
  0
LINE
  5
45
330
1F
100
AcDbEntity
  8
Doc_ Finishes
  6
Continuous
100
AcDbLine
 10
25.76118115656963
 20
15.60371016915814
 30
0.0
 11
25.39651652242329
 21
15.33500688434304
 31
0.0
  0
LINE
  5
46
330
1F
100
AcDbEntity
  8
Doc_ Finishes
  6
Continuous
100
AcDbLine
 10
25.39651652242329
 20
15.33500688434304
 30
0.0
 11
25.07023554287962
 21
14.89357051534225
 31
0.0
  0
LINE
  5
47
330
1F
100
AcDbEntity
  8
Doc_ Finishes
  6
Continuous
100
AcDbLine
 10
25.07023554287962
 20
14.89357051534225
 30
0.0
 11
24.49444974429583
 21
14.45213414634146
 31
0.0
  0
LINE
  5
48
330
1F
100
AcDbEntity
  8
Doc_ Finishes
  6
Continuous
100
AcDbLine
 10
24.49444974429583
 20
14.45213414634146
 30
0.0
 11
23.93785356018882
 21
14.02988739181747
 31
0.0
  0
LINE
  5
49
330
1F
100
AcDbEntity
  8
Doc_ Finishes
  6
Continuous
100
AcDbLine
 10
23.93785356018882
 20
14.02988739181747
 30
0.0
 11
23.43883507081038
 21
13.81876622738001
 31
0.0
  0
LINE
  5
4A
330
1F
100
AcDbEntity
  8
Doc_ Finishes
  6
Continuous
100
AcDbLine
 10
23.43883507081038
 20
13.81876622738001
 30
0.0
 11
22.74788945712038
 21
13.39652389850511
 31
0.0
  0
LINE
  5
4B
330
1F
100
AcDbEntity
  8
Doc_ Finishes
  6
Continuous
100
AcDbLine
 10
22.74788945712038
 20
13.39652389850511
 30
0.0
 11
22.09533192368214
 21
12.993471184107
 31
0.0
  0
LINE
  5
4C
330
1F
100
AcDbEntity
  8
Doc_ Finishes
  6
Continuous
100
AcDbLine
 10
22.09533192368214
 20
12.993471184107
 30
0.0
 11
21.63470151455547
 21
12.55203038945712
 31
0.0
  0
LINE
  5
4D
330
1F
100
AcDbEntity
  8
Doc_ Finishes
  6
Continuous
100
AcDbLine
 10
21.63470151455547
 20
12.55203038945712
 30
0.0
 11
20.90536782061369
 21
12.12978806058222
 31
0.0
  0
LINE
  5
4E
330
1F
100
AcDbEntity
  8
Doc_ Finishes
  6
Continuous
100
AcDbLine
 10
20.90536782061369
 20
12.12978806058222
 30
0.0
 11
20.59828088119591
 21
11.74592938630999
 31
0.0
  0
LINE
  5
4F
330
1F
100
AcDbEntity
  8
Doc_ Finishes
  6
Continuous
100
AcDbLine
 10
20.59828088119591
 20
11.74592938630999
 30
0.0
 11
20.0416846970889
 21
11.28529897718332
 31
0.0
  0
LINE
  5
50
330
1F
100
AcDbEntity
  8
Doc_ Finishes
  6
Continuous
100
AcDbLine
 10
20.0416846970889
 20
11.28529897718332
 30
0.0
 11
19.36993312352478
 21
10.86305222265932
 31
0.0
  0
LINE
  5
51
330
1F
100
AcDbEntity
  8
Doc_ Finishes
  6
Continuous
100
AcDbLine
 10
19.36993312352478
 20
10.86305222265932
 30
0.0
 11
18.73656520456333
 21
10.42161585365854
 31
0.0
  0
LINE
  5
52
330
1F
100
AcDbEntity
  8
Doc_ Finishes
  6
Continuous
100
AcDbLine
 10
18.73656520456333
 20
10.42161585365854
 30
0.0
 11
18.04561959087333
 21
10.15291256884343
 31
0.0
  0
LINE
  5
53
330
1F
100
AcDbEntity
  8
Doc_ Finishes
  6
Continuous
100
AcDbLine
 10
18.04561959087333
 20
10.15291256884343
 30
0.0
 11
17.1051647324941
 21
9.692282159716758
 31
0.0
  0
LINE
  5
54
330
1F
100
AcDbEntity
  8
Doc_ Finishes
  6
Continuous
100
AcDbLine
 10
17.1051647324941
 20
9.692282159716758
 30
0.0
 11
16.3950250786782
 21
9.020530586152635
 31
0.0
  0
LINE
  5
55
330
1F
100
AcDbEntity
  8
Doc_ Finishes
  6
Continuous
100
AcDbLine
 10
16.3950250786782
 20
9.020530586152635
 30
0.0
 11
15.8384333202203
 21
8.598288257277733
 31
0.0
  0
LINE
  5
56
330
1F
100
AcDbEntity
  8
Doc_ Finishes
  6
Continuous
100
AcDbLine
 10
15.8384333202203
 20
8.598288257277733
 30
0.0
 11
15.1282936664044
 21
8.137657848151063
 31
0.0
  0
LINE
  5
57
330
1F
100
AcDbEntity
  8
Doc_ Finishes
  6
Continuous
100
AcDbLine
 10
15.1282936664044
 20
8.137657848151063
 30
0.0
 11
14.84039634146341
 21
7.984114378442171
 31
0.0
  0
LINE
  5
58
330
1F
100
AcDbEntity
  8
Doc_ Finishes
  6
Continuous
100
AcDbLine
 10
14.84039634146341
 20
7.984114378442171
 30
0.0
 11
14.37976593233674
 21
7.811376868607396
 31
0.0
  0
LINE
  5
59
330
1F
100
AcDbEntity
  8
Doc_ Finishes
  6
Continuous
100
AcDbLine
 10
14.37976593233674
 20
7.811376868607396
 30
0.0
 11
14.07267899291896
 21
7.523479543666405
 31
0.0
  0
LINE
  5
5A
330
1F
100
AcDbEntity
  8
Doc_ Finishes
  6
Continuous
100
AcDbLine
 10
14.07267899291896
 20
7.523479543666405
 30
0.0
 11
14.0151012981904
 21
7.216392604248622
 31
0.0
  0
LINE
  5
5B
330
1F
100
AcDbEntity
  8
Doc_ Finishes
  6
Continuous
100
AcDbLine
 10
14.0151012981904
 20
7.216392604248622
 30
0.0
 11
14.14945072777341
 21
6.890116050354051
 31
0.0
  0
LINE
  5
5C
330
1F
100
AcDbEntity
  8
Doc_ Finishes
  6
Continuous
100
AcDbLine
 10
14.14945072777341
 20
6.890116050354051
 30
0.0
 11
14.4373480527144
 21
6.563835070810386
 31
0.0
  0
LINE
  5
5D
330
1F
100
AcDbEntity
  8
Doc_ Finishes
  6
Continuous
100
AcDbLine
 10
14.4373480527144
 20
6.563835070810386
 30
0.0
 11
14.87878442171519
 21
6.659800845790715
 31
0.0
  0
LINE
  5
5E
330
1F
100
AcDbEntity
  8
Doc_ Finishes
  6
Continuous
100
AcDbLine
 10
14.87878442171519
 20
6.659800845790715
 30
0.0
 11
15.51215234067663
 21
7.062849134539732
 31
0.0
  0
LINE
  5
5F
330
1F
100
AcDbEntity
  8
Doc_ Finishes
  6
Continuous
100
AcDbLine
 10
15.51215234067663
 20
7.062849134539732
 30
0.0
 11
16.01116640440598
 21
7.389130114083398
 31
0.0
  0
LINE
  5
60
330
1F
100
AcDbEntity
  8
Doc_ Finishes
  6
Continuous
100
AcDbLine
 10
16.01116640440598
 20
7.389130114083398
 30
0.0
 11
16.33744738394964
 21
7.69621705350118
 31
0.0
  0
LINE
  5
61
330
1F
100
AcDbEntity
  8
Doc_ Finishes
  6
Continuous
100
AcDbLine
 10
16.33744738394964
 20
7.69621705350118
 30
0.0
 11
16.51018489378442
 21
7.907342643587726
 31
0.0
  0
LINE
  5
62
330
1F
100
AcDbEntity
  8
Doc_ Finishes
  6
Continuous
100
AcDbLine
 10
16.51018489378442
 20
7.907342643587726
 30
0.0
 11
17.0130404209284
 21
8.421709284028323
 31
0.0
  0
LINE
  5
63
330
1F
100
AcDbEntity
  8
Doc_ Finishes
  6
Continuous
100
AcDbLine
 10
17.0130404209284
 20
8.421709284028323
 30
0.0
 11
17.33547993705743
 21
8.65202448859166
 31
0.0
  0
LINE
  5
64
330
1F
100
AcDbEntity
  8
Doc_ Finishes
  6
Continuous
100
AcDbLine
 10
17.33547993705743
 20
8.65202448859166
 30
0.0
 11
17.75004819040126
 21
8.997499508261212
 31
0.0
  0
LINE
  5
65
330
1F
100
AcDbEntity
  8
Doc_ Finishes
  6
Continuous
100
AcDbLine
 10
17.75004819040126
 20
8.997499508261212
 30
0.0
 11
18.14158536585366
 21
9.204783634933122
 31
0.0
  0
LINE
  5
66
330
1F
100
AcDbEntity
  8
Doc_ Finishes
  6
Continuous
100
AcDbLine
 10
18.14158536585366
 20
9.204783634933122
 30
0.0
 11
19.24709923288749
 21
9.75753835562549
 31
0.0
  0
LINE
  5
67
330
1F
100
AcDbEntity
  8
Doc_ Finishes
  6
Continuous
100
AcDbLine
 10
19.24709923288749
 20
9.75753835562549
 30
0.0
 11
20.23745328481511
 21
10.47151947285602
 31
0.0
  0
LINE
  5
68
330
1F
100
AcDbEntity
  8
Doc_ Finishes
  6
Continuous
100
AcDbLine
 10
20.23745328481511
 20
10.47151947285602
 30
0.0
 11
21.41206038552321
 21
11.16246508654602
 31
0.0
  0
LINE
  5
69
330
1F
100
AcDbEntity
  8
Doc_ Finishes
  6
Continuous
100
AcDbLine
 10
21.41206038552321
 20
11.16246508654602
 30
0.0
 11
21.84965971675846
 21
11.64612657356412
 31
0.0
  0
LINE
  5
6A
330
1F
100
AcDbEntity
  8
Doc_ Finishes
  6
Continuous
100
AcDbLine
 10
21.84965971675846
 20
11.64612657356412
 30
0.0
 11
22.49454317466562
 21
12.06069482690795
 31
0.0
  0
LINE
  5
6B
330
1F
100
AcDbEntity
  8
Doc_ Finishes
  6
Continuous
100
AcDbLine
 10
22.49454317466562
 20
12.06069482690795
 30
0.0
 11
23.78431009047993
 21
12.98195564516129
 31
0.0
  0
LINE
  5
6C
330
1F
100
AcDbEntity
  8
Doc_ Finishes
  6
Continuous
100
AcDbLine
 10
23.78431009047993
 20
12.98195564516129
 30
0.0
 11
24.36009588906373
 21
13.25833300550747
 31
0.0
  0
LINE
  5
6D
330
1F
100
AcDbEntity
  8
Doc_ Finishes
  6
Continuous
100
AcDbLine
 10
24.36009588906373
 20
13.25833300550747
 30
0.0
 11
25.64986280487805
 21
14.24868705743509
 31
0.0
  0
LINE
  5
6E
330
1F
100
AcDbEntity
  8
Doc_ Finishes
  6
Continuous
100
AcDbLine
 10
25.64986280487805
 20
14.24868705743509
 30
0.0
 11
25.85714693154996
 21
14.64022423288749
 31
0.0
  0
LINE
  5
6F
330
1F
100
AcDbEntity
  8
Doc_ Finishes
  6
Continuous
100
AcDbLine
 10
25.85714693154996
 20
14.64022423288749
 30
0.0
 11
26.68628343823761
 21
15.2390455350118
 31
0.0
  0
LINE
  5
70
330
1F
100
AcDbEntity
  8
Doc_ Finishes
  6
Continuous
100
AcDbLine
 10
26.68628343823761
 20
15.2390455350118
 30
0.0
 11
27.28510031471282
 21
15.7227070220299
 31
0.0
  0
LINE
  5
71
330
1F
100
AcDbEntity
  8
Doc_ Finishes
  6
Continuous
100
AcDbLine
 10
27.28510031471282
 20
15.7227070220299
 30
0.0
 11
27.81482838316287
 21
16.1142441974823
 31
0.0
  0
LINE
  5
72
330
1F
100
AcDbEntity
  8
Doc_ Finishes
  6
Continuous
100
AcDbLine
 10
27.81482838316287
 20
16.1142441974823
 30
0.0
 11
28.27545879228953
 21
16.52880802517702
 31
0.0
  0
LINE
  5
73
330
1F
100
AcDbEntity
  8
Doc_ Finishes
  6
Continuous
100
AcDbLine
 10
28.27545879228953
 20
16.52880802517702
 30
0.0
 11
28.22939221085759
 21
16.78215873328088
 31
0.0
  0
LINE
  5
74
330
1F
100
AcDbEntity
  8
Doc_ Finishes
  6
Continuous
100
AcDbLine
 10
28.22939221085759
 20
16.78215873328088
 30
0.0
 11
28.09120574350905
 21
16.897314122738
 31
0.0
  0
LINE
  5
75
330
1F
100
AcDbEntity
  8
Doc_ Finishes
  6
Continuous
100
AcDbLine
 10
28.09120574350905
 20
16.897314122738
 30
0.0
 11
27.56147767505901
 21
16.897314122738
 31
0.0
  0
LINE
  5
76
330
1F
100
AcDbEntity
  8
Doc_ Finishes
  6
Continuous
100
AcDbLine
 10
27.56147767505901
 20
16.897314122738
 30
0.0
 11
27.41177566876475
 21
16.87044600708104
 31
0.0
  0
HATCH
  5
77
330
1F
100
AcDbEntity
  8
Doc_ Finishes
  6
Continuous
100
AcDbHatch
 10
0.0
 20
0.0
 30
0.0
210
0.0
220
0.0
230
1.0
  2
SOLID
 70
     1
 71
     0
 91
        1
 92
        3
 72
     0
 73
     1
 93
       39
 10
27.65360600299377
 20
13.12014334109181
 10
27.21600693931564
 20
12.77467039608275
 10
26.54809257896482
 20
12.24494521373555
 10
25.92624127794851
 20
11.85340920939199
 10
25.32742150659951
 20
11.32368402704478
 10
24.72860173525052
 20
11.04730567103754
 10
24.08371890456698
 20
10.56364354802488
 10
23.62308831122158
 20
10.33332825135219
 10
23.231552306878
 20
10.03391836567767
 10
22.81698477286715
 20
9.619350831666825
 10
22.40241723885631
 20
9.38903553499415
 10
21.91875511584363
 20
9.043562589985086
 10
21.66540828950367
 20
8.859310352646935
 10
21.25084075549282
 20
8.582931996639696
 10
20.09926427212933
 20
7.753796928618002
 10
19.75379132712029
 20
7.477418572610764
 10
19.2931607337749
 20
7.316197864939873
 10
19.22406614477309
 20
6.993756449598113
 10
19.3622553227767
 20
6.717378093590874
 10
19.63863367878394
 20
6.602220445254527
 10
20.00713815346026
 20
6.8325357419272
 10
20.26048497980021
 20
7.131945627601722
 10
20.55989486547472
 20
7.362260924274415
 10
21.31993534449462
 20
7.707733869283458
 10
21.84966052684182
 20
8.122301403294307
 10
22.88607936186895
 20
8.882341882314256
 10
23.20852077721072
 20
9.342972475659646
 10
24.01462431556515
 20
9.734508480003234
 10
24.5673810275796
 20
10.05694989534501
 10
25.46561068460312
 20
10.60970660735953
 10
25.88017821861399
 20
11.07033720070492
 10
26.31777728229212
 20
11.34671555671216
 10
26.70931328663569
 20
11.30065249737762
 10
27.21600693931562
 20
11.55399932371759
 10
28.0681735370046
 20
12.17585062473387
 10
28.41364648201364
 20
12.49829204007566
 10
28.39061495234636
 20
12.77467039608289
 10
28.22939424467547
 20
13.00498569275559
 10
28.04514200733732
 20
13.05104875209013
 97
        0
 75
     0
 76
     1
 98
        0
  0
LINE
  5
78
330
1F
100
AcDbEntity
  8
Doc_ Finishes
  6
Continuous
100
AcDbLine
 10
27.6536064122738
 20
13.12014211250983
 30
0.0
 11
27.21600708103855
 21
12.77467151848938
 31
0.0
  0
LINE
  5
79
330
1F
100
AcDbEntity
  8
Doc_ Finishes
  6
Continuous
100
AcDbLine
 10
27.21600708103855
 20
12.77467151848938
 30
0.0
 11
26.54809254523997
 21
12.24494345003934
 31
0.0
  0
LINE
  5
7A
330
1F
100
AcDbEntity
  8
Doc_ Finishes
  6
Continuous
100
AcDbLine
 10
26.54809254523997
 20
12.24494345003934
 30
0.0
 11
25.92624016522423
 21
11.85341070023603
 31
0.0
  0
LINE
  5
7B
330
1F
100
AcDbEntity
  8
Doc_ Finishes
  6
Continuous
100
AcDbLine
 10
25.92624016522423
 20
11.85341070023603
 30
0.0
 11
25.32742328874902
 21
11.32368263178599
 31
0.0
  0
LINE
  5
7C
330
1F
100
AcDbEntity
  8
Doc_ Finishes
  6
Continuous
100
AcDbLine
 10
25.32742328874902
 20
11.32368263178599
 30
0.0
 11
24.72860198662471
 21
11.04730527143981
 31
0.0
  0
LINE
  5
7D
330
1F
100
AcDbEntity
  8
Doc_ Finishes
  6
Continuous
100
AcDbLine
 10
24.72860198662471
 20
11.04730527143981
 30
0.0
 11
24.08371852871754
 21
10.56364378442171
 31
0.0
  0
LINE
  5
7E
330
1F
100
AcDbEntity
  8
Doc_ Finishes
  6
Continuous
100
AcDbLine
 10
24.08371852871754
 20
10.56364378442171
 30
0.0
 11
23.62308811959087
 21
10.33332857985838
 31
0.0
  0
LINE
  5
7F
330
1F
100
AcDbEntity
  8
Doc_ Finishes
  6
Continuous
100
AcDbLine
 10
23.62308811959087
 20
10.33332857985838
 30
0.0
 11
23.23155094413847
 21
10.03392014162077
 31
0.0
  0
LINE
  5
80
330
1F
100
AcDbEntity
  8
Doc_ Finishes
  6
Continuous
100
AcDbLine
 10
23.23155094413847
 20
10.03392014162077
 30
0.0
 11
22.81698269079465
 21
9.619351888276947
 31
0.0
  0
LINE
  5
81
330
1F
100
AcDbEntity
  8
Doc_ Finishes
  6
Continuous
100
AcDbLine
 10
22.81698269079465
 20
9.619351888276947
 30
0.0
 11
22.40241886309992
 21
9.389036683713611
 31
0.0
  0
LINE
  5
82
330
1F
100
AcDbEntity
  8
Doc_ Finishes
  6
Continuous
100
AcDbLine
 10
22.40241886309992
 20
9.389036683713611
 30
0.0
 11
21.91875295043273
 21
9.04356166404406
 31
0.0
  0
LINE
  5
83
330
1F
100
AcDbEntity
  8
Doc_ Finishes
  6
Continuous
100
AcDbLine
 10
21.91875295043273
 20
9.04356166404406
 30
0.0
 11
21.66540666797797
 21
8.859308615263572
 31
0.0
  0
LINE
  5
84
330
1F
100
AcDbEntity
  8
Doc_ Finishes
  6
Continuous
100
AcDbLine
 10
21.66540666797797
 20
8.859308615263572
 30
0.0
 11
21.25084284028324
 21
8.582931254917387
 31
0.0
  0
LINE
  5
85
330
1F
100
AcDbEntity
  8
Doc_ Finishes
  6
Continuous
100
AcDbLine
 10
21.25084284028324
 20
8.582931254917387
 30
0.0
 11
20.09926239181747
 21
7.75379474822974
 31
0.0
  0
LINE
  5
86
330
1F
100
AcDbEntity
  8
Doc_ Finishes
  6
Continuous
100
AcDbLine
 10
20.09926239181747
 20
7.75379474822974
 30
0.0
 11
19.75379179779701
 21
7.477417387883556
 31
0.0
  0
LINE
  5
87
330
1F
100
AcDbEntity
  8
Doc_ Finishes
  6
Continuous
100
AcDbLine
 10
19.75379179779701
 20
7.477417387883556
 30
0.0
 11
19.29316138867033
 21
7.316199842643588
 31
0.0
  0
LINE
  5
88
330
1F
100
AcDbEntity
  8
Doc_ Finishes
  6
Continuous
100
AcDbLine
 10
19.29316138867033
 20
7.316199842643588
 30
0.0
 11
19.22406815499606
 21
6.993755900865461
 31
0.0
  0
LINE
  5
89
330
1F
100
AcDbEntity
  8
Doc_ Finishes
  6
Continuous
100
AcDbLine
 10
19.22406815499606
 20
6.993755900865461
 30
0.0
 11
19.36225462234461
 21
6.717378540519276
 31
0.0
  0
LINE
  5
8A
330
1F
100
AcDbEntity
  8
Doc_ Finishes
  6
Continuous
100
AcDbLine
 10
19.36225462234461
 20
6.717378540519276
 30
0.0
 11
19.63863198269079
 21
6.602218725413059
 31
0.0
  0
LINE
  5
8B
330
1F
100
AcDbEntity
  8
Doc_ Finishes
  6
Continuous
100
AcDbLine
 10
19.63863198269079
 20
6.602218725413059
 30
0.0
 11
20.00713808025177
 21
6.832533929976396
 31
0.0
  0
LINE
  5
8C
330
1F
100
AcDbEntity
  8
Doc_ Finishes
  6
Continuous
100
AcDbLine
 10
20.00713808025177
 20
6.832533929976396
 30
0.0
 11
20.26048436270653
 21
7.1319467938631
 31
0.0
  0
LINE
  5
8D
330
1F
100
AcDbEntity
  8
Doc_ Finishes
  6
Continuous
100
AcDbLine
 10
20.26048436270653
 20
7.1319467938631
 30
0.0
 11
20.55989280094414
 21
7.362261998426435
 31
0.0
  0
LINE
  5
8E
330
1F
100
AcDbEntity
  8
Doc_ Finishes
  6
Continuous
100
AcDbLine
 10
20.55989280094414
 20
7.362261998426435
 30
0.0
 11
21.31993607395751
 21
7.707732592446892
 31
0.0
  0
LINE
  5
8F
330
1F
100
AcDbEntity
  8
Doc_ Finishes
  6
Continuous
100
AcDbLine
 10
21.31993607395751
 20
7.707732592446892
 30
0.0
 11
21.84965971675846
 21
8.122300845790717
 31
0.0
  0
LINE
  5
90
330
1F
100
AcDbEntity
  8
Doc_ Finishes
  6
Continuous
100
AcDbLine
 10
21.84965971675846
 20
8.122300845790717
 30
0.0
 11
22.88608035011802
 21
8.882339693154996
 31
0.0
  0
LINE
  5
91
330
1F
100
AcDbEntity
  8
Doc_ Finishes
  6
Continuous
100
AcDbLine
 10
22.88608035011802
 20
8.882339693154996
 30
0.0
 11
23.20851986624705
 21
9.342974527930762
 31
0.0
  0
LINE
  5
92
330
1F
100
AcDbEntity
  8
Doc_ Finishes
  6
Continuous
100
AcDbLine
 10
23.20851986624705
 20
9.342974527930762
 30
0.0
 11
24.01462529504327
 21
9.734507277734066
 31
0.0
  0
LINE
  5
93
330
1F
100
AcDbEntity
  8
Doc_ Finishes
  6
Continuous
100
AcDbLine
 10
24.01462529504327
 20
9.734507277734066
 30
0.0
 11
24.56738001573564
 21
10.05695121951219
 31
0.0
  0
LINE
  5
94
330
1F
100
AcDbEntity
  8
Doc_ Finishes
  6
Continuous
100
AcDbLine
 10
24.56738001573564
 20
10.05695121951219
 30
0.0
 11
25.46560975609756
 21
10.60970594020456
 31
0.0
  0
LINE
  5
95
330
1F
100
AcDbEntity
  8
Doc_ Finishes
  6
Continuous
100
AcDbLine
 10
25.46560975609756
 20
10.60970594020456
 30
0.0
 11
25.88017800944139
 21
11.07033634933124
 31
0.0
  0
LINE
  5
96
330
1F
100
AcDbEntity
  8
Doc_ Finishes
  6
Continuous
100
AcDbLine
 10
25.88017800944139
 20
11.07033634933124
 30
0.0
 11
26.31777734067663
 21
11.34671370967742
 31
0.0
  0
LINE
  5
97
330
1F
100
AcDbEntity
  8
Doc_ Finishes
  6
Continuous
100
AcDbLine
 10
26.31777734067663
 20
11.34671370967742
 30
0.0
 11
26.70931451612903
 21
11.30065155389457
 31
0.0
  0
LINE
  5
98
330
1F
100
AcDbEntity
  8
Doc_ Finishes
  6
Continuous
100
AcDbLine
 10
26.70931451612903
 20
11.30065155389457
 30
0.0
 11
27.21600708103855
 21
11.55399783634933
 31
0.0
  0
LINE
  5
99
330
1F
100
AcDbEntity
  8
Doc_ Finishes
  6
Continuous
100
AcDbLine
 10
27.21600708103855
 20
11.55399783634933
 30
0.0
 11
28.06817466561763
 21
12.17585021636507
 31
0.0
  0
LINE
  5
9A
330
1F
100
AcDbEntity
  8
Doc_ Finishes
  6
Continuous
100
AcDbLine
 10
28.06817466561763
 20
12.17585021636507
 30
0.0
 11
28.41364525963808
 21
12.49829415814319
 31
0.0
  0
LINE
  5
9B
330
1F
100
AcDbEntity
  8
Doc_ Finishes
  6
Continuous
100
AcDbLine
 10
28.41364525963808
 20
12.49829415814319
 30
0.0
 11
28.39061418174666
 21
12.77467151848938
 31
0.0
  0
LINE
  5
9C
330
1F
100
AcDbEntity
  8
Doc_ Finishes
  6
Continuous
100
AcDbLine
 10
28.39061418174666
 20
12.77467151848938
 30
0.0
 11
28.22939221085759
 21
13.00498672305271
 31
0.0
  0
LINE
  5
9D
330
1F
100
AcDbEntity
  8
Doc_ Finishes
  6
Continuous
100
AcDbLine
 10
28.22939221085759
 20
13.00498672305271
 30
0.0
 11
28.04514358772619
 21
13.05104887883556
 31
0.0
  0
LINE
  5
9E
330
1F
100
AcDbEntity
  8
Doc_ Finishes
  6
Continuous
100
AcDbLine
 10
28.04514358772619
 20
13.05104887883556
 30
0.0
 11
27.6536064122738
 21
13.12014211250983
 31
0.0
  0
HATCH
  5
9F
330
1F
100
AcDbEntity
  8
Doc_ Finishes
  6
Continuous
100
AcDbHatch
 10
0.0
 20
0.0
 30
0.0
210
0.0
220
0.0
230
1.0
  2
SOLID
 70
     1
 71
     0
 91
        1
 92
        3
 72
     0
 73
     1
 93
       47
 10
28.06817353700456
 20
15.74573772316067
 10
28.30309513961077
 20
15.62136746295728
 10
28.4412843176144
 20
15.4002647781515
 10
28.93876535842742
 20
15.17916209334572
 10
29.82317609765057
 20
14.40530269652538
 10
30.92868952167951
 20
13.74199464210799
 10
31.59199757609689
 20
13.3827027792986
 10
32.20002995931279
 20
13.07868658769064
 10
33.55428390374828
 20
12.08372450606458
 10
34.07940278016201
 20
11.69679480765445
 10
34.88090001258301
 20
11.08876242443854
 10
35.59948373820179
 20
10.50836787682334
 10
36.5668079842271
 20
9.817421986805197
 10
37.06428902504012
 20
9.458130123995785
 10
37.81051058625966
 20
8.933011247582023
 10
38.61200781868061
 20
8.407892371168286
 10
38.77783483228498
 20
8.186789686362482
 10
39.38586721550092
 20
7.744584316750918
 10
40.18736444792187
 20
6.915449248729224
 10
40.7953968311378
 20
6.44560604351692
 10
41.56925622795804
 20
6.169227687509681
 10
42.23256428237543
 20
6.086314180707507
 10
42.48130480278193
 20
6.30741686551329
 10
42.14965077557326
 20
6.611433057121246
 10
41.48634272115586
 20
6.998362755531397
 10
40.76775899553709
 20
7.357654618340788
 10
40.18736444792187
 20
8.048600508358874
 10
38.99893751709079
 20
8.822459905179112
 10
38.47381864067705
 20
9.319940945992132
 10
38.22507812027052
 20
9.734508480003
 10
37.17484036744301
 20
10.31490302761817
 10
36.73263499783144
 20
10.78474623283046
 10
36.2351539570184
 20
11.17167593124059
 10
35.48893239579888
 20
11.61388130085215
 10
34.85326217698223
 20
12.16663801286669
 10
34.35578113616919
 20
12.58120554687754
 10
33.69247308175183
 20
12.99577308088841
 10
33.22262987653953
 20
13.32742710809708
 10
32.7251488357265
 20
13.5761676285036
 10
31.93747052110588
 20
14.06443605744977
 10
31.43077686842594
 20
14.38687747279155
 10
30.92408321574601
 20
14.70931888813342
 10
30.62467333007151
 20
15.100854892477
 10
29.95675896972068
 20
15.67664313415887
 10
29.47309684670803
 20
15.9530214901661
 10
28.82821401602447
 20
16.36758902417695
 10
28.50577260068269
 20
16.22939984617334
 97
        0
 75
     0
 76
     1
 98
        0
  0
LINE
  5
A0
330
1F
100
AcDbEntity
  8
Doc_ Finishes
  6
Continuous
100
AcDbLine
 10
28.30309697088906
 20
15.62136850904799
 30
0.0
 11
28.06817466561763
 21
15.74573809992132
 31
0.0
  0
LINE
  5
A1
330
1F
100
AcDbEntity
  8
Doc_ Finishes
  6
Continuous
100
AcDbLine
 10
28.44128343823761
 20
15.40026308025177
 30
0.0
 11
28.30309697088906
 21
15.62136850904799
 31
0.0
  0
LINE
  5
A2
330
1F
100
AcDbEntity
  8
Doc_ Finishes
  6
Continuous
100
AcDbLine
 10
28.93876622738001
 20
15.17916207710464
 30
0.0
 11
28.44128343823761
 21
15.40026308025177
 31
0.0
  0
LINE
  5
A3
330
1F
100
AcDbEntity
  8
Doc_ Finishes
  6
Continuous
100
AcDbLine
 10
29.82317466561762
 20
14.40530192761605
 30
0.0
 11
28.93876622738001
 21
15.17916207710464
 31
0.0
  0
LINE
  5
A4
330
1F
100
AcDbEntity
  8
Doc_ Finishes
  6
Continuous
100
AcDbLine
 10
30.92868853265146
 20
13.74199449252557
 30
0.0
 11
29.82317466561762
 21
14.40530192761605
 31
0.0
  0
LINE
  5
A5
330
1F
100
AcDbEntity
  8
Doc_ Finishes
  6
Continuous
100
AcDbLine
 10
31.59199596774193
 20
13.3827025963808
 30
0.0
 11
30.92868853265146
 21
13.74199449252557
 31
0.0
  0
LINE
  5
A6
330
1F
100
AcDbEntity
  8
Doc_ Finishes
  6
Continuous
100
AcDbLine
 10
32.20003147128246
 20
13.07868705743509
 30
0.0
 11
31.59199596774193
 21
13.3827025963808
 31
0.0
  0
LINE
  5
A7
330
1F
100
AcDbEntity
  8
Doc_ Finishes
  6
Continuous
100
AcDbLine
 10
33.55428452006294
 20
12.08372590479937
 30
0.0
 11
32.20003147128246
 21
13.07868705743509
 31
0.0
  0
LINE
  5
A8
330
1F
100
AcDbEntity
  8
Doc_ Finishes
  6
Continuous
100
AcDbLine
 10
34.07940106215578
 20
11.69679583005508
 30
0.0
 11
33.55428452006294
 21
12.08372590479937
 31
0.0
  0
LINE
  5
A9
330
1F
100
AcDbEntity
  8
Doc_ Finishes
  6
Continuous
100
AcDbLine
 10
34.8808993902439
 20
11.08876032651456
 30
0.0
 11
34.07940106215578
 21
11.69679583005508
 31
0.0
  0
LINE
  5
AA
330
1F
100
AcDbEntity
  8
Doc_ Finishes
  6
Continuous
100
AcDbLine
 10
35.59948318253343
 20
10.50836742722266
 30
0.0
 11
34.8808993902439
 21
11.08876032651456
 31
0.0
  0
LINE
  5
AB
330
1F
100
AcDbEntity
  8
Doc_ Finishes
  6
Continuous
100
AcDbLine
 10
36.56680615656963
 20
9.817421813532652
 30
0.0
 11
35.59948318253343
 21
10.50836742722266
 31
0.0
  0
LINE
  5
AC
330
1F
100
AcDbEntity
  8
Doc_ Finishes
  6
Continuous
100
AcDbLine
 10
37.06428894571204
 20
9.458129917387884
 30
0.0
 11
36.56680615656963
 21
9.817421813532652
 31
0.0
  0
LINE
  5
AD
330
1F
100
AcDbEntity
  8
Doc_ Finishes
  6
Continuous
100
AcDbLine
 10
37.8105109166011
 20
8.933013375295044
 30
0.0
 11
37.06428894571204
 21
9.458129917387884
 31
0.0
  0
LINE
  5
AE
330
1F
100
AcDbEntity
  8
Doc_ Finishes
  6
Continuous
100
AcDbLine
 10
38.61200924468922
 20
8.407892407553108
 30
0.0
 11
37.8105109166011
 21
8.933013375295044
 31
0.0
  0
LINE
  5
AF
330
1F
100
AcDbEntity
  8
Doc_ Finishes
  6
Continuous
100
AcDbLine
 10
38.77783389063729
 20
8.18679140440598
 30
0.0
 11
38.61200924468922
 21
8.407892407553108
 31
0.0
  0
LINE
  5
B0
330
1F
100
AcDbEntity
  8
Doc_ Finishes
  6
Continuous
100
AcDbLine
 10
39.3858693941778
 20
7.744584972462627
 30
0.0
 11
38.77783389063729
 21
8.18679140440598
 31
0.0
  0
LINE
  5
B1
330
1F
100
AcDbEntity
  8
Doc_ Finishes
  6
Continuous
100
AcDbLine
 10
40.18736329661684
 20
6.915448465774981
 30
0.0
 11
39.3858693941778
 21
7.744584972462627
 31
0.0
  0
LINE
  5
B2
330
1F
100
AcDbEntity
  8
Doc_ Finishes
  6
Continuous
100
AcDbLine
 10
40.79539880015735
 20
6.4456038552321
 30
0.0
 11
40.18736329661684
 21
6.915448465774981
 31
0.0
  0
LINE
  5
B3
330
1F
100
AcDbEntity
  8
Doc_ Finishes
  6
Continuous
100
AcDbLine
 10
41.56925452399685
 20
6.169226494885916
 30
0.0
 11
40.79539880015735
 21
6.4456038552321
 31
0.0
  0
LINE
  5
B4
330
1F
100
AcDbEntity
  8
Doc_ Finishes
  6
Continuous
100
AcDbLine
 10
42.23256638473643
 20
6.086316384736428
 30
0.0
 11
41.56925452399685
 21
6.169226494885916
 31
0.0
  0
LINE
  5
B5
330
1F
100
AcDbEntity
  8
Doc_ Finishes
  6
Continuous
100
AcDbLine
 10
42.48130556648308
 20
6.307417387883556
 30
0.0
 11
42.23256638473643
 21
6.086316384736428
 31
0.0
  0
LINE
  5
B6
330
1F
100
AcDbEntity
  8
Doc_ Finishes
  6
Continuous
100
AcDbLine
 10
42.14965184893784
 20
6.611432926829268
 30
0.0
 11
42.48130556648308
 21
6.307417387883556
 31
0.0
  0
LINE
  5
B7
330
1F
100
AcDbEntity
  8
Doc_ Finishes
  6
Continuous
100
AcDbLine
 10
41.48634441384736
 20
6.998363001573564
 30
0.0
 11
42.14965184893784
 21
6.611432926829268
 31
0.0
  0
LINE
  5
B8
330
1F
100
AcDbEntity
  8
Doc_ Finishes
  6
Continuous
100
AcDbLine
 10
40.76776062155783
 20
7.357654897718332
 30
0.0
 11
41.48634441384736
 21
6.998363001573564
 31
0.0
  0
LINE
  5
B9
330
1F
100
AcDbEntity
  8
Doc_ Finishes
  6
Continuous
100
AcDbLine
 10
40.18736329661684
 20
8.048600511408338
 30
0.0
 11
40.76776062155783
 21
7.357654897718332
 31
0.0
  0
LINE
  5
BA
330
1F
100
AcDbEntity
  8
Doc_ Finishes
  6
Continuous
100
AcDbLine
 10
38.99893931943352
 20
8.822460660896931
 30
0.0
 11
40.18736329661684
 21
8.048600511408338
 31
0.0
  0
LINE
  5
BB
330
1F
100
AcDbEntity
  8
Doc_ Finishes
  6
Continuous
100
AcDbLine
 10
38.47381835169158
 20
9.319939024390242
 30
0.0
 11
38.99893931943352
 21
8.822460660896931
 31
0.0
  0
LINE
  5
BC
330
1F
100
AcDbEntity
  8
Doc_ Finishes
  6
Continuous
100
AcDbLine
 10
38.22507916994492
 20
9.734507277734066
 30
0.0
 11
38.47381835169158
 21
9.319939024390242
 31
0.0
  0
LINE
  5
BD
330
1F
100
AcDbEntity
  8
Doc_ Finishes
  6
Continuous
100
AcDbLine
 10
37.17484166011014
 20
10.31490460267506
 30
0.0
 11
38.22507916994492
 21
9.734507277734066
 31
0.0
  0
LINE
  5
BE
330
1F
100
AcDbEntity
  8
Doc_ Finishes
  6
Continuous
100
AcDbLine
 10
36.7326352281668
 20
10.78474478756884
 30
0.0
 11
37.17484166011014
 21
10.31490460267506
 31
0.0
  0
LINE
  5
BF
330
1F
100
AcDbEntity
  8
Doc_ Finishes
  6
Continuous
100
AcDbLine
 10
36.23515243902439
 20
11.17167486231314
 30
0.0
 11
36.7326352281668
 21
10.78474478756884
 31
0.0
  0
LINE
  5
C0
330
1F
100
AcDbEntity
  8
Doc_ Finishes
  6
Continuous
100
AcDbLine
 10
35.48893046813532
 20
11.61388129425649
 30
0.0
 11
36.23515243902439
 21
11.17167486231314
 31
0.0
  0
LINE
  5
C1
330
1F
100
AcDbEntity
  8
Doc_ Finishes
  6
Continuous
100
AcDbLine
 10
34.85326121164437
 20
12.16663601494886
 30
0.0
 11
35.48893046813532
 21
11.61388129425649
 31
0.0
  0
LINE
  5
C2
330
1F
100
AcDbEntity
  8
Doc_ Finishes
  6
Continuous
100
AcDbLine
 10
34.35578284815106
 20
12.58120426829268
 30
0.0
 11
34.85326121164437
 21
12.16663601494886
 31
0.0
  0
LINE
  5
C3
330
1F
100
AcDbEntity
  8
Doc_ Finishes
  6
Continuous
100
AcDbLine
 10
33.69247098741149
 20
12.99577252163651
 30
0.0
 11
34.35578284815106
 21
12.58120426829268
 31
0.0
  0
LINE
  5
C4
330
1F
100
AcDbEntity
  8
Doc_ Finishes
  6
Continuous
100
AcDbLine
 10
33.2226308025177
 20
13.32742623918175
 30
0.0
 11
33.69247098741149
 21
12.99577252163651
 31
0.0
  0
LINE
  5
C5
330
1F
100
AcDbEntity
  8
Doc_ Finishes
  6
Continuous
100
AcDbLine
 10
32.7251480133753
 20
13.5761654209284
 30
0.0
 11
33.2226308025177
 21
13.32742623918175
 31
0.0
  0
LINE
  5
C6
330
1F
100
AcDbEntity
  8
Doc_ Finishes
  6
Continuous
100
AcDbLine
 10
31.93747098741148
 20
14.0644340086546
 30
0.0
 11
32.7251480133753
 21
13.5761654209284
 31
0.0
  0
LINE
  5
C7
330
1F
100
AcDbEntity
  8
Doc_ Finishes
  6
Continuous
100
AcDbLine
 10
31.43077842250197
 20
14.38687795043273
 30
0.0
 11
31.93747098741148
 21
14.0644340086546
 31
0.0
  0
LINE
  5
C8
330
1F
100
AcDbEntity
  8
Doc_ Finishes
  6
Continuous
100
AcDbLine
 10
30.92408143194335
 20
14.70931746656176
 30
0.0
 11
31.43077842250197
 21
14.38687795043273
 31
0.0
  0
LINE
  5
C9
330
1F
100
AcDbEntity
  8
Doc_ Finishes
  6
Continuous
100
AcDbLine
 10
30.62467299370574
 20
15.10085464201416
 30
0.0
 11
30.92408143194335
 21
14.70931746656176
 31
0.0
  0
LINE
  5
CA
330
1F
100
AcDbEntity
  8
Doc_ Finishes
  6
Continuous
100
AcDbLine
 10
29.95675845790716
 20
15.67664486624705
 30
0.0
 11
30.62467299370574
 21
15.10085464201416
 31
0.0
  0
LINE
  5
CB
330
1F
100
AcDbEntity
  8
Doc_ Finishes
  6
Continuous
100
AcDbLine
 10
29.47309697088906
 20
15.95302222659323
 30
0.0
 11
29.95675845790716
 21
15.67664486624705
 31
0.0
  0
LINE
  5
CC
330
1F
100
AcDbEntity
  8
Doc_ Finishes
  6
Continuous
100
AcDbLine
 10
28.8282135129819
 20
16.36759047993706
 30
0.0
 11
29.47309697088906
 21
15.95302222659323
 31
0.0
  0
LINE
  5
CD
330
1F
100
AcDbEntity
  8
Doc_ Finishes
  6
Continuous
100
AcDbLine
 10
28.50577399685287
 20
16.22939958693942
 30
0.0
 11
28.8282135129819
 21
16.36759047993706
 31
0.0
  0
LINE
  5
CE
330
1F
100
AcDbEntity
  8
Doc_ Finishes
  6
Continuous
100
AcDbLine
 10
28.06817466561763
 20
15.74573809992132
 30
0.0
 11
28.50577399685287
 21
16.22939958693942
 31
0.0
  0
LINE
  5
CF
330
1F
100
AcDbEntity
  8
Doc_ Finishes
  6
Continuous
 62
   254
370
    18
100
AcDbLine
 10
97.43333792289535
 20
5.093360051140834
 30
0.0
 11
97.43333792289535
 21
20.69901750590086
 31
0.0
  0
LINE
  5
D0
330
1F
100
AcDbEntity
  8
Doc_ Finishes
  6
Continuous
 62
   254
370
    18
100
AcDbLine
 10
7.000000491738787
 20
20.69901750590086
 30
0.0
 11
290.2406840086546
 21
20.69901750590086
 31
0.0
  0
LINE
  5
D1
330
1F
100
AcDbEntity
  8
Doc_ Finishes
  6
Continuous
 62
   254
370
    18
100
AcDbLine
 10
290.2406840086546
 20
20.69901750590086
 30
0.0
 11
290.2406840086546
 21
5.000000983477577
 31
0.0
  0
LINE
  5
D2
330
1F
100
AcDbEntity
  8
Doc_ Finishes
  6
Continuous
 62
   254
370
    18
100
AcDbLine
 10
290.2406840086546
 20
5.000000983477577
 30
0.0
 11
7.000000491738787
 21
5.000000983477577
 31
0.0
  0
LINE
  5
D3
330
1F
100
AcDbEntity
  8
Doc_ Finishes
  6
Continuous
 62
   254
370
    18
100
AcDbLine
 10
7.000000491738787
 20
20.69901750590086
 30
0.0
 11
7.000000491738787
 21
5.000000983477577
 31
0.0
  0
LINE
  5
D4
330
1F
100
AcDbEntity
  8
Doc_ Finishes
  6
Continuous
 62
   254
370
    18
100
AcDbLine
 10
190.2919443351691
 20
5.093360051140834
 30
0.0
 11
190.2919443351691
 21
20.69901750590086
 31
0.0
  0
LINE
  5
D5
330
1F
100
AcDbEntity
  8
Doc_ Finishes
  6
Continuous
 62
   254
370
    18
100
AcDbLine
 10
190.2919443351691
 20
12.8961909913454
 30
0.0
 11
290.2406840086546
 21
12.8961909913454
 31
0.0
  0
MTEXT
  5
D7
330
1F
100
AcDbEntity
  8
0
  6
Continuous
100
AcDbMText
 10
210.3494767103412
 20
15.00228412282651
 30
0.0
 40
2.25
 41
0.0
 71
     7
 72
     1
  1
{R-TRSS-02}
  7
GENERATED_STYLE_1
 73
     1
 44
1.0
  0
MTEXT
  5
D8
330
1F
100
AcDbEntity
  8
0
  6
Continuous
100
AcDbMText
 10
210.3494767103412
 20
11.03300550383743
 30
0.0
 40
3.0
 41
79.8912058332902
 71
     1
 72
     1
  1
{TYPICAL ROOF LAYOUT - EXPOSED RAFTERS}
  7
GENERATED_STYLE_1
 73
     1
 44
1.337703652588859
  0
MTEXT
  5
DA
330
1F
100
AcDbEntity
  8
Doc_ Floor
  6
Continuous
100
AcDbMText
 10
29.78353726544612
 20
13.33283672870609
 30
0.0
 40
5.603347280334726
 41
0.0
 71
     1
 72
     1
  1
{The Roofing Store}
  7
GENERATED_STYLE_2
 73
     1
 44
1.0
  0
MTEXT
  5
DC
102
{ACAD_XDICTIONARY
360
437
102
}
330
1F
100
AcDbEntity
  8
0
  6
Continuous
100
AcDbMText
 10
102.7389238446655
 20
6.378784417288154
 30
0.0
 40
1.5
 41
0.0
 71
     7
 72
     1
  1
{P: HEAD OFFICE              09 277 2717\P    ALBANY             09 972 0060\P    KATIKAIT            07 549 5190\P    WELLINGTON              04 974 5792\P    CHRISTCHURCH          03 348 6528}
  7
GENERATED_STYLE_1
 73
     1
 44
1.062946161486498
  0
MTEXT
  5
DD
330
1F
100
AcDbEntity
  8
0
  6
Continuous
100
AcDbMText
 10
149.4184566143587
 20
9.199084231526154
 30
0.0
 40
1.5
 41
0.0
 71
     7
 72
     1
  1
{WEB: www.theroofingstore.co.nz}
  7
GENERATED_STYLE_1
 73
     1
 44
1.0
  0
MTEXT
  5
DE
330
1F
100
AcDbEntity
  8
0
  6
Continuous
100
AcDbMText
 10
149.4184566143587
 20
6.620946023411263
 30
0.0
 40
1.5
 41
0.0
 71
     7
 72
     1
  1
{Copyright \U+00A9 The Roofing Store 2013}
  7
GENERATED_STYLE_1
 73
     1
 44
1.0
  0
MTEXT
  5
DF
330
1F
100
AcDbEntity
  8
0
  6
Continuous
100
AcDbMText
 10
273.9546684065315
 20
15.01595245667184
 30
0.0
 40
2.25
 41
0.0
 71
     7
 72
     1
  1
{1:5}
  7
GENERATED_STYLE_1
 73
     1
 44
1.0
  0
MTEXT
  5
E0
330
1F
100
AcDbEntity
  8
0
  6
Continuous
100
AcDbMText
 10
264.8396605309016
 20
15.51746459162148
 30
0.0
 40
1.5
 41
0.0
 71
     7
 72
     1
  1
{SCALE:}
  7
GENERATED_STYLE_1
 73
     1
 44
1.0
  0
MTEXT
  5
E1
330
1F
100
AcDbEntity
  8
0
  6
Continuous
100
AcDbMText
 10
191.5066235617487
 20
15.48695559872207
 30
0.0
 40
1.5
 41
0.0
 71
     7
 72
     1
  1
{DETAIL NUMBER:}
  7
GENERATED_STYLE_1
 73
     1
 44
1.0
  0
MTEXT
  5
E2
330
1F
100
AcDbEntity
  8
0
  6
Continuous
100
AcDbMText
 10
191.5066235617487
 20
9.005462392315325
 30
0.0
 40
1.5
 41
0.0
 71
     7
 72
     1
  1
{TITLE:}
  7
GENERATED_STYLE_1
 73
     1
 44
1.0
  0
INSERT
  5
405
102
{ACAD_XDICTIONARY
360
406
102
}
330
1F
100
AcDbEntity
  8
0
  6
Continuous
100
AcDbBlockReference
  2
Drawing_1_2
 10
-638.383264183377
 20
293.9742688676208
 30
0.0
  0
ENDSEC
  0
SECTION
  2
OBJECTS
  0
DICTIONARY
  5
C
330
0
100
AcDbDictionary
281
     1
  3
ACAD_GROUP
350
D
  3
ACAD_LAYOUT
350
1A
  3
ACAD_MATERIAL
350
3B
  3
ACAD_MLEADERSTYLE
350
432
  3
ACAD_MLINESTYLE
350
17
  3
ACAD_PLOTSETTINGS
350
19
  3
ACAD_PLOTSTYLENAME
350
E
  3
ACAD_SCALELIST
350
40C
  3
ACAD_VISUALSTYLE
350
2A
  3
AcDbVariableDictionary
350
430
  3
WATERMARKS
350
42E
  0
DICTIONARY
  5
439
330
3DC
100
AcDbDictionary
280
     1
281
     1
  3
ACAD_MTEXT_RT
360
43A
  0
DICTIONARY
  5
437
330
DC
100
AcDbDictionary
280
     1
281
     1
  3
ACAD_MTEXT_RT
360
438
  0
DICTIONARY
  5
406
330
405
100
AcDbDictionary
280
     1
281
     1
  3
ACAD_FILTER
360
407
  0
DICTIONARY
  5
D
102
{ACAD_REACTORS
330
C
102
}
330
C
100
AcDbDictionary
281
     1
  0
DICTIONARY
  5
1A
102
{ACAD_REACTORS
330
C
102
}
330
C
100
AcDbDictionary
281
     1
  3
Layout1
350
1E
  3
Model
350
22
  0
DICTIONARY
  5
3B
102
{ACAD_REACTORS
330
C
102
}
330
C
100
AcDbDictionary
281
     1
  3
ByBlock
350
3D
  3
ByLayer
350
3C
  3
Global
350
3E
  0
DICTIONARY
  5
432
102
{ACAD_REACTORS
330
C
102
}
330
C
100
AcDbDictionary
281
     1
  0
DICTIONARY
  5
17
102
{ACAD_REACTORS
330
C
102
}
330
C
100
AcDbDictionary
281
     1
  3
Standard
350
18
  0
DICTIONARY
  5
19
102
{ACAD_REACTORS
330
C
102
}
330
C
100
AcDbDictionary
281
     1
  0
ACDBDICTIONARYWDFLT
  5
E
102
{ACAD_REACTORS
330
C
102
}
330
C
100
AcDbDictionary
281
     1
  3
Normal
350
F
100
AcDbDictionaryWithDefault
340
F
  0
DICTIONARY
  5
40C
102
{ACAD_REACTORS
330
C
102
}
330
C
100
AcDbDictionary
281
     1
  3
A0
350
40D
  3
A1
350
40E
  3
A2
350
40F
  3
A3
350
410
  3
A4
350
411
  3
A5
350
412
  3
A6
350
413
  3
A7
350
414
  3
A8
350
415
  3
A9
350
416
  3
B0
350
417
  3
B1
350
418
  3
B2
350
419
  3
B3
350
41A
  3
B4
350
41B
  3
B5
350
41C
  3
B6
350
41D
  3
B7
350
41E
  3
B8
350
41F
  3
B9
350
420
  3
C0
350
421
  3
C1
350
422
  3
C2
350
423
  3
C3
350
424
  3
C4
350
425
  3
C5
350
426
  3
C6
350
427
  3
C7
350
428
  3
C8
350
429
  3
C9
350
42A
  3
D0
350
42B
  3
D1
350
42C
  3
D2
350
42D
  0
DICTIONARY
  5
2A
102
{ACAD_REACTORS
330
C
102
}
330
C
100
AcDbDictionary
281
     1
  3
2dWireframe
350
2F
  3
3D Hidden
350
31
  3
3dWireframe
350
30
  3
Basic
350
32
  3
Brighten
350
36
  3
ColorChange
350
3A
  3
Conceptual
350
34
  3
Dim
350
35
  3
Facepattern
350
39
  3
Flat
350
2B
  3
FlatWithEdges
350
2C
  3
Gouraud
350
2D
  3
GouraudWithEdges
350
2E
  3
Linepattern
350
38
  3
Realistic
350
33
  3
Thicken
350
37
  0
DICTIONARY
  5
430
102
{ACAD_REACTORS
330
C
102
}
330
C
100
AcDbDictionary
281
     1
  3
CANNOSCALE
350
434
  3
DIMASSOC
350
435
  3
HIDETEXT
350
436
  3
XCLIPFRAME
350
433
  0
DICTIONARY
  5
42E
102
{ACAD_REACTORS
330
C
102
}
330
C
100
AcDbDictionary
281
     1
  3
AC_WATERMARK
350
42F
  0
XRECORD
  5
43A
102
{ACAD_REACTORS
330
439
102
}
330
439
100
AcDbXrecord
280
     1
 40
326192.0
  1
{TRS SEAM\P\pt37.7485;MIN. ROOF PITCH 5° FOR ANGLE SEAM\P\pt37.7485;MIN. ROOF PITCH 3° FOR DOUBLE STANDING SEAM}
  0
XRECORD
  5
438
102
{ACAD_REACTORS
330
437
102
}
330
437
100
AcDbXrecord
280
     1
 40
956118.0
  1
{P: HEAD OFFICE ^I^I09 277 2717\P    ALBANY ^I^I09 972 0060\P    KATIKAIT^I^I07 549 5190\P    WELLINGTON^I^I04 974 5792\P    CHRISTCHURCH^I^I03 348 6528}
  0
DICTIONARY
  5
407
102
{ACAD_REACTORS
330
406
102
}
330
406
100
AcDbDictionary
280
     1
281
     1
  3
SPATIAL
360
408
  0
LAYOUT
  5
1E
102
{ACAD_REACTORS
330
1A
102
}
330
1A
100
AcDbPlotSettings
  1

  2
none_device
  4

  6

 40
0.0
 41
0.0
 42
0.0
 43
0.0
 44
0.0
 45
0.0
 46
0.0
 47
0.0
 48
0.0
 49
0.0
140
0.0
141
0.0
142
1.0
143
1.0
 70
   688
 72
     0
 73
     0
 74
     5
  7

 75
    16
147
1.0
148
0.0
149
0.0
100
AcDbLayout
  1
Layout1
 70
     1
 71
     1
 10
0.0
 20
0.0
 11
12.0
 21
9.0
 12
0.0
 22
0.0
 32
0.0
 14
1.000000000000000E+20
 24
1.000000000000000E+20
 34
1.000000000000000E+20
 15
-1.000000000000000E+20
 25
-1.000000000000000E+20
 35
-1.000000000000000E+20
146
0.0
 13
0.0
 23
0.0
 33
0.0
 16
1.0
 26
0.0
 36
0.0
 17
0.0
 27
1.0
 37
0.0
 76
     0
330
1B
  0
LAYOUT
  5
22
102
{ACAD_REACTORS
330
1A
102
}
330
1A
100
AcDbPlotSettings
  1

  2
none_device
  4

  6

 40
0.0
 41
0.0
 42
0.0
 43
0.0
 44
0.0
 45
0.0
 46
0.0
 47
0.0
 48
0.0
 49
0.0
140
0.0
141
0.0
142
1.0
143
1.0
 70
  1712
 72
     0
 73
     0
 74
     0
  7

 75
     0
147
1.0
148
0.0
149
0.0
100
AcDbLayout
  1
Model
 70
     1
 71
     0
 10
0.0
 20
0.0
 11
12.0
 21
9.0
 12
0.0
 22
0.0
 32
0.0
 14
1.000000000000000E+20
 24
1.000000000000000E+20
 34
1.000000000000000E+20
 15
-1.000000000000000E+20
 25
-1.000000000000000E+20
 35
-1.000000000000000E+20
146
0.0
 13
0.0
 23
0.0
 33
0.0
 16
1.0
 26
0.0
 36
0.0
 17
0.0
 27
1.0
 37
0.0
 76
     0
330
1F
331
29
  0
MATERIAL
  5
3D
102
{ACAD_REACTORS
330
3B
102
}
102
{ACAD_XDICTIONARY
360
45D
102
}
330
3B
100
AcDbMaterial
  1
ByBlock
  0
MATERIAL
  5
3C
102
{ACAD_REACTORS
330
3B
102
}
102
{ACAD_XDICTIONARY
360
45B
102
}
330
3B
100
AcDbMaterial
  1
ByLayer
  0
MATERIAL
  5
3E
102
{ACAD_REACTORS
330
3B
102
}
102
{ACAD_XDICTIONARY
360
45F
102
}
330
3B
100
AcDbMaterial
  1
Global
  0
MLINESTYLE
  5
18
102
{ACAD_REACTORS
330
17
102
}
330
17
100
AcDbMlineStyle
  2
Standard
 70
     0
  3

 62
   256
 51
90.0
 52
90.0
 71
     2
 49
0.5
 62
   256
  6
BYLAYER
 49
-0.5
 62
   256
  6
BYLAYER
  0
ACDBPLACEHOLDER
  5
F
102
{ACAD_REACTORS
330
E
102
}
330
E
  0
SCALE
  5
40D
102
{ACAD_REACTORS
330
40C
102
}
330
40C
100
AcDbScale
 70
     0
300
1:1
140
1.0
141
1.0
290
     1
  0
SCALE
  5
40E
102
{ACAD_REACTORS
330
40C
102
}
330
40C
100
AcDbScale
 70
     0
300
1:2
140
1.0
141
2.0
290
     0
  0
SCALE
  5
40F
102
{ACAD_REACTORS
330
40C
102
}
330
40C
100
AcDbScale
 70
     0
300
1:4
140
1.0
141
4.0
290
     0
  0
SCALE
  5
410
102
{ACAD_REACTORS
330
40C
102
}
330
40C
100
AcDbScale
 70
     0
300
1:5
140
1.0
141
5.0
290
     0
  0
SCALE
  5
411
102
{ACAD_REACTORS
330
40C
102
}
330
40C
100
AcDbScale
 70
     0
300
1:8
140
1.0
141
8.0
290
     0
  0
SCALE
  5
412
102
{ACAD_REACTORS
330
40C
102
}
330
40C
100
AcDbScale
 70
     0
300
1:10
140
1.0
141
10.0
290
     0
  0
SCALE
  5
413
102
{ACAD_REACTORS
330
40C
102
}
330
40C
100
AcDbScale
 70
     0
300
1:16
140
1.0
141
16.0
290
     0
  0
SCALE
  5
414
102
{ACAD_REACTORS
330
40C
102
}
330
40C
100
AcDbScale
 70
     0
300
1:20
140
1.0
141
20.0
290
     0
  0
SCALE
  5
415
102
{ACAD_REACTORS
330
40C
102
}
330
40C
100
AcDbScale
 70
     0
300
1:30
140
1.0
141
30.0
290
     0
  0
SCALE
  5
416
102
{ACAD_REACTORS
330
40C
102
}
330
40C
100
AcDbScale
 70
     0
300
1:40
140
1.0
141
40.0
290
     0
  0
SCALE
  5
417
102
{ACAD_REACTORS
330
40C
102
}
330
40C
100
AcDbScale
 70
     0
300
1:50
140
1.0
141
50.0
290
     0
  0
SCALE
  5
418
102
{ACAD_REACTORS
330
40C
102
}
330
40C
100
AcDbScale
 70
     0
300
1:100
140
1.0
141
100.0
290
     0
  0
SCALE
  5
419
102
{ACAD_REACTORS
330
40C
102
}
330
40C
100
AcDbScale
 70
     0
300
2:1
140
2.0
141
1.0
290
     0
  0
SCALE
  5
41A
102
{ACAD_REACTORS
330
40C
102
}
330
40C
100
AcDbScale
 70
     0
300
4:1
140
4.0
141
1.0
290
     0
  0
SCALE
  5
41B
102
{ACAD_REACTORS
330
40C
102
}
330
40C
100
AcDbScale
 70
     0
300
8:1
140
8.0
141
1.0
290
     0
  0
SCALE
  5
41C
102
{ACAD_REACTORS
330
40C
102
}
330
40C
100
AcDbScale
 70
     0
300
10:1
140
10.0
141
1.0
290
     0
  0
SCALE
  5
41D
102
{ACAD_REACTORS
330
40C
102
}
330
40C
100
AcDbScale
 70
     0
300
100:1
140
100.0
141
1.0
290
     0
  0
SCALE
  5
41E
102
{ACAD_REACTORS
330
40C
102
}
330
40C
100
AcDbScale
 70
     0
300
1/128" = 1'-0"
140
0.0078125
141
12.0
290
     0
  0
SCALE
  5
41F
102
{ACAD_REACTORS
330
40C
102
}
330
40C
100
AcDbScale
 70
     0
300
1/64" = 1'-0"
140
0.015625
141
12.0
290
     0
  0
SCALE
  5
420
102
{ACAD_REACTORS
330
40C
102
}
330
40C
100
AcDbScale
 70
     0
300
1/32" = 1'-0"
140
0.03125
141
12.0
290
     0
  0
SCALE
  5
421
102
{ACAD_REACTORS
330
40C
102
}
330
40C
100
AcDbScale
 70
     0
300
1/16" = 1'-0"
140
0.0625
141
12.0
290
     0
  0
SCALE
  5
422
102
{ACAD_REACTORS
330
40C
102
}
330
40C
100
AcDbScale
 70
     0
300
3/32" = 1'-0"
140
0.09375
141
12.0
290
     0
  0
SCALE
  5
423
102
{ACAD_REACTORS
330
40C
102
}
330
40C
100
AcDbScale
 70
     0
300
1/8" = 1'-0"
140
0.125
141
12.0
290
     0
  0
SCALE
  5
424
102
{ACAD_REACTORS
330
40C
102
}
330
40C
100
AcDbScale
 70
     0
300
3/16" = 1'-0"
140
0.1875
141
12.0
290
     0
  0
SCALE
  5
425
102
{ACAD_REACTORS
330
40C
102
}
330
40C
100
AcDbScale
 70
     0
300
1/4" = 1'-0"
140
0.25
141
12.0
290
     0
  0
SCALE
  5
426
102
{ACAD_REACTORS
330
40C
102
}
330
40C
100
AcDbScale
 70
     0
300
3/8" = 1'-0"
140
0.375
141
12.0
290
     0
  0
SCALE
  5
427
102
{ACAD_REACTORS
330
40C
102
}
330
40C
100
AcDbScale
 70
     0
300
1/2" = 1'-0"
140
0.5
141
12.0
290
     0
  0
SCALE
  5
428
102
{ACAD_REACTORS
330
40C
102
}
330
40C
100
AcDbScale
 70
     0
300
3/4" = 1'-0"
140
0.75
141
12.0
290
     0
  0
SCALE
  5
429
102
{ACAD_REACTORS
330
40C
102
}
330
40C
100
AcDbScale
 70
     0
300
1" = 1'-0"
140
1.0
141
12.0
290
     0
  0
SCALE
  5
42A
102
{ACAD_REACTORS
330
40C
102
}
330
40C
100
AcDbScale
 70
     0
300
1-1/2" = 1'-0"
140
1.5
141
12.0
290
     0
  0
SCALE
  5
42B
102
{ACAD_REACTORS
330
40C
102
}
330
40C
100
AcDbScale
 70
     0
300
3" = 1'-0"
140
3.0
141
12.0
290
     0
  0
SCALE
  5
42C
102
{ACAD_REACTORS
330
40C
102
}
330
40C
100
AcDbScale
 70
     0
300
6" = 1'-0"
140
6.0
141
12.0
290
     0
  0
SCALE
  5
42D
102
{ACAD_REACTORS
330
40C
102
}
330
40C
100
AcDbScale
 70
     0
300
1'-0" = 1'-0"
140
12.0
141
12.0
290
     0
  0
VISUALSTYLE
  5
2F
102
{ACAD_REACTORS
330
2A
102
}
102
{ACAD_XDICTIONARY
360
443
102
}
330
2A
100
AcDbVisualStyle
  2
2dWireframe
 70
     4
 71
     0
 72
     2
 73
     0
 90
        0
 40
-0.6
 41
-30.0
 62
     5
 63
     7
 74
     1
 91
        4
 64
     7
 65
   257
 75
     1
175
     1
 42
1.0
 92
        0
 66
   257
 43
1.0
 76
     1
 77
     6
 78
     2
 67
     7
 79
     5
170
     0
171
     0
290
     0
174
     0
 93
        1
 44
0.0
173
     0
291
     0
 45
0.0
1001
ACAD
1000
AcDbSavedByObjectVersion
1070
     0
  0
VISUALSTYLE
  5
31
102
{ACAD_REACTORS
330
2A
102
}
102
{ACAD_XDICTIONARY
360
447
102
}
330
2A
100
AcDbVisualStyle
  2
3D Hidden
 70
     6
 71
     1
 72
     2
 73
     2
 90
        0
 40
-0.6
 41
-30.0
 62
     5
 63
     7
 74
     2
 91
        2
 64
     7
 65
   257
 75
     2
175
     1
 42
40.0
 92
        0
 66
   257
 43
1.0
 76
     1
 77
     6
 78
     2
 67
     7
 79
     3
170
     0
171
     0
290
     0
174
     0
 93
        1
 44
0.0
173
     0
291
     0
 45
0.0
1001
ACAD
1000
AcDbSavedByObjectVersion
1070
     0
  0
VISUALSTYLE
  5
30
102
{ACAD_REACTORS
330
2A
102
}
102
{ACAD_XDICTIONARY
360
445
102
}
330
2A
100
AcDbVisualStyle
  2
3dWireframe
 70
     5
 71
     0
 72
     2
 73
     0
 90
        0
 40
-0.6
 41
-30.0
 62
     5
 63
     7
 74
     1
 91
        4
 64
     7
 65
   257
 75
     1
175
     1
 42
1.0
 92
        0
 66
   257
 43
1.0
 76
     1
 77
     6
 78
     2
 67
     7
 79
     5
170
     0
171
     0
290
     0
174
     0
 93
        1
 44
0.0
173
     0
291
     0
 45
0.0
1001
ACAD
1000
AcDbSavedByObjectVersion
1070
     0
  0
VISUALSTYLE
  5
32
102
{ACAD_REACTORS
330
2A
102
}
102
{ACAD_XDICTIONARY
360
449
102
}
330
2A
100
AcDbVisualStyle
  2
Basic
 70
     7
 71
     1
 72
     0
 73
     1
 90
        0
 40
-0.6
 41
-30.0
 62
     5
 63
     7
 74
     0
 91
        4
 64
     7
 65
   257
 75
     1
175
     1
 42
1.0
 92
        8
 66
     7
 43
1.0
 76
     1
 77
     6
 78
     2
 67
     7
 79
     5
170
     0
171
     0
290
     0
174
     0
 93
        1
 44
0.0
173
     0
291
     1
 45
0.0
1001
ACAD
1000
AcDbSavedByObjectVersion
1070
     0
  0
VISUALSTYLE
  5
36
102
{ACAD_REACTORS
330
2A
102
}
102
{ACAD_XDICTIONARY
360
451
102
}
330
2A
100
AcDbVisualStyle
  2
Brighten
 70
    12
 71
     2
 72
     2
 73
     0
 90
        0
 40
-0.6
 41
-30.0
 62
     5
 63
     7
 74
     1
 91
        4
 64
     7
 65
   257
 75
     1
175
     1
 42
1.0
 92
        8
 66
     7
 43
1.0
 76
     1
 77
     6
 78
     2
 67
     7
 79
     5
170
     0
171
     0
290
     0
174
     0
 93
        1
 44
50.0
173
     0
291
     1
 45
0.0
1001
ACAD
1000
AcDbSavedByObjectVersion
1070
     0
  0
VISUALSTYLE
  5
3A
102
{ACAD_REACTORS
330
2A
102
}
102
{ACAD_XDICTIONARY
360
459
102
}
330
2A
100
AcDbVisualStyle
  2
ColorChange
 70
    16
 71
     2
 72
     2
 73
     3
 90
        0
 40
-0.6
 41
-30.0
 62
     5
 63
     8
 74
     1
 91
        4
 64
     7
 65
   257
 75
     1
175
     1
 42
1.0
 92
        8
 66
     8
 43
1.0
 76
     1
 77
     6
 78
     2
 67
     7
 79
     5
170
     0
171
     0
290
     0
174
     0
 93
        1
 44
0.0
173
     0
291
     1
 45
0.0
1001
ACAD
1000
AcDbSavedByObjectVersion
1070
     0
  0
VISUALSTYLE
  5
34
102
{ACAD_REACTORS
330
2A
102
}
102
{ACAD_XDICTIONARY
360
44D
102
}
330
2A
100
AcDbVisualStyle
  2
Conceptual
 70
     9
 71
     3
 72
     2
 73
     0
 90
        0
 40
-0.6
 41
-30.0
 62
     5
 63
     7
 74
     2
 91
        2
 64
     7
 65
   257
 75
     1
175
     1
 42
40.0
 92
        8
 66
     7
 43
1.0
 76
     1
 77
     6
 78
     2
 67
     7
 79
     3
170
     0
171
     0
290
     0
174
     0
 93
        1
 44
0.0
173
     0
291
     0
 45
0.0
1001
ACAD
1000
AcDbSavedByObjectVersion
1070
     0
  0
VISUALSTYLE
  5
35
102
{ACAD_REACTORS
330
2A
102
}
102
{ACAD_XDICTIONARY
360
44F
102
}
330
2A
100
AcDbVisualStyle
  2
Dim
 70
    11
 71
     2
 72
     2
 73
     0
 90
        0
 40
-0.6
 41
-30.0
 62
     5
 63
     7
 74
     1
 91
        4
 64
     7
 65
   257
 75
     1
175
     1
 42
1.0
 92
        8
 66
     7
 43
1.0
 76
     1
 77
     6
 78
     2
 67
     7
 79
     5
170
     0
171
     0
290
     0
174
     0
 93
        1
 44
-50.0
173
     0
291
     1
 45
0.0
1001
ACAD
1000
AcDbSavedByObjectVersion
1070
     0
  0
VISUALSTYLE
  5
39
102
{ACAD_REACTORS
330
2A
102
}
102
{ACAD_XDICTIONARY
360
457
102
}
330
2A
100
AcDbVisualStyle
  2
Facepattern
 70
    15
 71
     2
 72
     2
 73
     0
 90
        0
 40
-0.6
 41
-30.0
 62
     5
 63
     7
 74
     1
 91
        4
 64
     7
 65
   257
 75
     1
175
     1
 42
1.0
 92
        8
 66
     7
 43
1.0
 76
     1
 77
     6
 78
     2
 67
     7
 79
     5
170
     0
171
     0
290
     0
174
     0
 93
        1
 44
0.0
173
     0
291
     1
 45
0.0
1001
ACAD
1000
AcDbSavedByObjectVersion
1070
     0
  0
VISUALSTYLE
  5
2B
102
{ACAD_REACTORS
330
2A
102
}
102
{ACAD_XDICTIONARY
360
43B
102
}
330
2A
100
AcDbVisualStyle
  2
Flat
 70
     0
 71
     2
 72
     1
 73
     1
 90
        2
 40
-0.6
 41
30.0
 62
     5
 63
     7
 74
     0
 91
        4
 64
     7
 65
   257
 75
     1
175
     1
 42
1.0
 92
        8
 66
     7
 43
1.0
 76
     1
 77
     6
 78
     2
 67
     7
 79
     5
170
     0
171
     0
290
     0
174
     0
 93
       13
 44
0.0
173
     0
291
     1
 45
0.0
1001
ACAD
1000
AcDbSavedByObjectVersion
1070
     0
  0
VISUALSTYLE
  5
2C
102
{ACAD_REACTORS
330
2A
102
}
102
{ACAD_XDICTIONARY
360
43D
102
}
330
2A
100
AcDbVisualStyle
  2
FlatWithEdges
 70
     1
 71
     2
 72
     1
 73
     1
 90
        2
 40
-0.6
 41
30.0
 62
     5
 63
     7
 74
     1
 91
        4
 64
     7
 65
   257
 75
     1
175
     1
 42
1.0
 92
        0
 66
   257
 43
1.0
 76
     1
 77
     6
 78
     2
 67
     7
 79
     5
170
     0
171
     0
290
     0
174
     0
 93
       13
 44
0.0
173
     0
291
     1
 45
0.0
1001
ACAD
1000
AcDbSavedByObjectVersion
1070
     0
  0
VISUALSTYLE
  5
2D
102
{ACAD_REACTORS
330
2A
102
}
102
{ACAD_XDICTIONARY
360
43F
102
}
330
2A
100
AcDbVisualStyle
  2
Gouraud
 70
     2
 71
     2
 72
     2
 73
     1
 90
        2
 40
-0.6
 41
30.0
 62
     5
 63
     7
 74
     0
 91
        4
 64
     7
 65
   257
 75
     1
175
     1
 42
1.0
 92
        0
 66
     7
 43
1.0
 76
     1
 77
     6
 78
     2
 67
     7
 79
     5
170
     0
171
     0
290
     0
174
     0
 93
       13
 44
0.0
173
     0
291
     1
 45
0.0
1001
ACAD
1000
AcDbSavedByObjectVersion
1070
     0
  0
VISUALSTYLE
  5
2E
102
{ACAD_REACTORS
330
2A
102
}
102
{ACAD_XDICTIONARY
360
441
102
}
330
2A
100
AcDbVisualStyle
  2
GouraudWithEdges
 70
     3
 71
     2
 72
     2
 73
     1
 90
        2
 40
-0.6
 41
30.0
 62
     5
 63
     7
 74
     1
 91
        4
 64
     7
 65
   257
 75
     1
175
     1
 42
1.0
 92
        0
 66
   257
 43
1.0
 76
     1
 77
     6
 78
     2
 67
     7
 79
     5
170
     0
171
     0
290
     0
174
     0
 93
       13
 44
0.0
173
     0
291
     1
 45
0.0
1001
ACAD
1000
AcDbSavedByObjectVersion
1070
     0
  0
VISUALSTYLE
  5
38
102
{ACAD_REACTORS
330
2A
102
}
102
{ACAD_XDICTIONARY
360
455
102
}
330
2A
100
AcDbVisualStyle
  2
Linepattern
 70
    14
 71
     2
 72
     2
 73
     0
 90
        0
 40
-0.6
 41
-30.0
 62
     5
 63
     7
 74
     1
 91
        4
 64
     7
 65
   257
 75
     7
175
     7
 42
1.0
 92
        8
 66
     7
 43
1.0
 76
     1
 77
     6
 78
     2
 67
     7
 79
     5
170
     0
171
     0
290
     0
174
     0
 93
        1
 44
0.0
173
     0
291
     1
 45
0.0
1001
ACAD
1000
AcDbSavedByObjectVersion
1070
     0
  0
VISUALSTYLE
  5
33
102
{ACAD_REACTORS
330
2A
102
}
102
{ACAD_XDICTIONARY
360
44B
102
}
330
2A
100
AcDbVisualStyle
  2
Realistic
 70
     8
 71
     2
 72
     2
 73
     0
 90
        0
 40
-0.6
 41
-30.0
 62
     5
 63
     7
 74
     1
 91
        0
 64
     7
 65
   257
 75
     1
175
     1
 42
1.0
 92
        8
 66
     8
 43
1.0
 76
     1
 77
     6
 78
     2
 67
     7
 79
     5
170
     0
171
     0
290
     0
174
     0
 93
       13
 44
0.0
173
     0
291
     0
 45
0.0
1001
ACAD
1000
AcDbSavedByObjectVersion
1070
     0
  0
VISUALSTYLE
  5
37
102
{ACAD_REACTORS
330
2A
102
}
102
{ACAD_XDICTIONARY
360
453
102
}
330
2A
100
AcDbVisualStyle
  2
Thicken
 70
    13
 71
     2
 72
     2
 73
     0
 90
        0
 40
-0.6
 41
-30.0
 62
     5
 63
     7
 74
     1
 91
        4
 64
     7
 65
   257
 75
     1
175
     1
 42
1.0
 92
       12
 66
     7
 43
1.0
 76
     1
 77
     6
 78
     2
 67
     7
 79
     5
170
     0
171
     0
290
     0
174
     0
 93
        1
 44
0.0
173
     0
291
     1
 45
0.0
1001
ACAD
1000
AcDbSavedByObjectVersion
1070
     0
  0
DICTIONARYVAR
  5
434
102
{ACAD_REACTORS
330
430
102
}
330
430
100
DictionaryVariables
280
     0
  1
1:1
  0
DICTIONARYVAR
  5
435
102
{ACAD_REACTORS
330
430
102
}
330
430
100
DictionaryVariables
280
     0
  1
2
  0
DICTIONARYVAR
  5
436
102
{ACAD_REACTORS
330
430
102
}
330
430
100
DictionaryVariables
280
     0
  1
1
  0
DICTIONARYVAR
  5
433
102
{ACAD_REACTORS
330
430
102
}
330
430
100
DictionaryVariables
280
     0
  1
0
  0
XRECORD
  5
42F
102
{ACAD_REACTORS
330
42E
102
}
330
42E
100
AcDbXrecord
280
     1
1000
This DWG file was created in ArchiCAD(TM)®
  0
SPATIAL_FILTER
  5
408
102
{ACAD_REACTORS
330
407
102
}
330
407
100
AcDbFilter
100
AcDbSpatialFilter
 70
     4
 10
5.0
 20
23.89316127224052
 10
287.741824163765
 20
23.89316127224052
 10
287.741824163765
 20
195.7316143902661
 10
5.0
 20
195.7316143902661
210
0.0
220
0.0
230
1.0
 11
0.0
 21
0.0
 31
0.0
 71
     1
 72
     0
 73
     0
 40
1.0
 40
0.0
 40
0.0
 40
0.0
 40
0.0
 40
1.0
 40
0.0
 40
0.0
 40
0.0
 40
0.0
 40
1.0
 40
0.0
 40
1.0
 40
0.0
 40
0.0
 40
0.0
 40
0.0
 40
1.0
 40
0.0
 40
0.0
 40
0.0
 40
0.0
 40
1.0
 40
0.0
  0
DICTIONARY
  5
45D
330
3D
100
AcDbDictionary
280
     1
281
     1
  3
ACAD_XREC_ROUNDTRIP
360
45E
  0
DICTIONARY
  5
45B
330
3C
100
AcDbDictionary
280
     1
281
     1
  3
ACAD_XREC_ROUNDTRIP
360
45C
  0
DICTIONARY
  5
45F
330
3E
100
AcDbDictionary
280
     1
281
     1
  3
ACAD_XREC_ROUNDTRIP
360
460
  0
DICTIONARY
  5
443
330
2F
100
AcDbDictionary
280
     1
281
     1
  3
ACAD_XREC_ROUNDTRIP
360
444
  0
DICTIONARY
  5
447
330
31
100
AcDbDictionary
280
     1
281
     1
  3
ACAD_XREC_ROUNDTRIP
360
448
  0
DICTIONARY
  5
445
330
30
100
AcDbDictionary
280
     1
281
     1
  3
ACAD_XREC_ROUNDTRIP
360
446
  0
DICTIONARY
  5
449
330
32
100
AcDbDictionary
280
     1
281
     1
  3
ACAD_XREC_ROUNDTRIP
360
44A
  0
DICTIONARY
  5
451
330
36
100
AcDbDictionary
280
     1
281
     1
  3
ACAD_XREC_ROUNDTRIP
360
452
  0
DICTIONARY
  5
459
330
3A
100
AcDbDictionary
280
     1
281
     1
  3
ACAD_XREC_ROUNDTRIP
360
45A
  0
DICTIONARY
  5
44D
330
34
100
AcDbDictionary
280
     1
281
     1
  3
ACAD_XREC_ROUNDTRIP
360
44E
  0
DICTIONARY
  5
44F
330
35
100
AcDbDictionary
280
     1
281
     1
  3
ACAD_XREC_ROUNDTRIP
360
450
  0
DICTIONARY
  5
457
330
39
100
AcDbDictionary
280
     1
281
     1
  3
ACAD_XREC_ROUNDTRIP
360
458
  0
DICTIONARY
  5
43B
330
2B
100
AcDbDictionary
280
     1
281
     1
  3
ACAD_XREC_ROUNDTRIP
360
43C
  0
DICTIONARY
  5
43D
330
2C
100
AcDbDictionary
280
     1
281
     1
  3
ACAD_XREC_ROUNDTRIP
360
43E
  0
DICTIONARY
  5
43F
330
2D
100
AcDbDictionary
280
     1
281
     1
  3
ACAD_XREC_ROUNDTRIP
360
440
  0
DICTIONARY
  5
441
330
2E
100
AcDbDictionary
280
     1
281
     1
  3
ACAD_XREC_ROUNDTRIP
360
442
  0
DICTIONARY
  5
455
330
38
100
AcDbDictionary
280
     1
281
     1
  3
ACAD_XREC_ROUNDTRIP
360
456
  0
DICTIONARY
  5
44B
330
33
100
AcDbDictionary
280
     1
281
     1
  3
ACAD_XREC_ROUNDTRIP
360
44C
  0
DICTIONARY
  5
453
330
37
100
AcDbDictionary
280
     1
281
     1
  3
ACAD_XREC_ROUNDTRIP
360
454
  0
XRECORD
  5
45E
102
{ACAD_REACTORS
330
45D
102
}
330
45D
100
AcDbXrecord
280
     1
102
MATERIAL
148
0.0
149
0.0
149
0.0
 93
        0
 94
      127
282
     0
 72
     1
 77
     1
171
     1
175
     1
179
     1
273
     0
  0
XRECORD
  5
45C
102
{ACAD_REACTORS
330
45B
102
}
330
45B
100
AcDbXrecord
280
     1
102
MATERIAL
148
0.0
149
0.0
149
0.0
 93
        0
 94
      127
282
     0
 72
     1
 77
     1
171
     1
175
     1
179
     1
273
     0
  0
XRECORD
  5
460
102
{ACAD_REACTORS
330
45F
102
}
330
45F
100
AcDbXrecord
280
     1
102
MATERIAL
148
0.0
149
0.0
149
0.0
 93
        0
 94
      127
282
     0
 72
     1
 77
     1
171
     1
175
     1
179
     1
273
     0
  0
XRECORD
  5
444
102
{ACAD_REACTORS
330
443
102
}
330
443
100
AcDbXrecord
280
     1
102
RTVSPropertyOp0
 70
     1
102
RTVSPropertyOp1
 70
     1
102
RTVSPropertyOp2
 70
     1
102
RTVSPropertyOp3
 70
     1
102
RTVSPropertyOp4
 70
     1
102
RTVSPropertyOp5
 70
     1
102
RTVSPropertyOp6
 70
     1
102
RTVSPropertyOp7
 70
     1
102
RTVSPropertyOp8
 70
     1
102
RTVSPropertyOp9
 70
     1
102
RTVSPropertyOp10
 70
     1
102
RTVSPropertyOp11
 70
     1
102
RTVSPropertyOp12
 70
     1
102
RTVSPropertyOp13
 70
     1
102
RTVSPropertyOp14
 70
     1
102
RTVSPropertyOp15
 70
     1
102
RTVSPropertyOp16
 70
     1
102
RTVSPropertyOp17
 70
     1
102
RTVSPropertyOp18
 70
     1
102
RTVSPropertyOp19
 70
     1
102
RTVSPropertyOp20
 70
     1
102
RTVSPropertyOp21
 70
     1
102
RTVSPropertyOp22
 70
     1
102
RTVSPropertyOp23
 70
     1
102
RTVSPropertyOp24
 70
     1
102
RTVSPropertyOp25
 70
     1
102
RTVSPropertyOp26
 70
     1
102
RTVSPropertyOp27
 70
     1
102
RTVSPropertyOp28
 70
     1
102
RTVSPropertyOp29
 70
     1
102
RTVSPropertyOp30
 70
     1
102
RTVSPropertyOp31
 70
     1
102
RTVSPropertyOp32
 70
     1
  0
XRECORD
  5
448
102
{ACAD_REACTORS
330
447
102
}
330
447
100
AcDbXrecord
280
     1
102
RTVSPropertyOp0
 70
     1
102
RTVSPropertyOp1
 70
     1
102
RTVSPropertyOp2
 70
     1
102
RTVSPropertyOp3
 70
     1
102
RTVSPropertyOp4
 70
     1
102
RTVSPropertyOp5
 70
     1
102
RTVSPropertyOp6
 70
     1
102
RTVSPropertyOp7
 70
     1
102
RTVSPropertyOp8
 70
     1
102
RTVSPropertyOp9
 70
     1
102
RTVSPropertyOp10
 70
     1
102
RTVSPropertyOp11
 70
     1
102
RTVSPropertyOp12
 70
     1
102
RTVSPropertyOp13
 70
     1
102
RTVSPropertyOp14
 70
     1
102
RTVSPropertyOp15
 70
     1
102
RTVSPropertyOp16
 70
     1
102
RTVSPropertyOp17
 70
     1
102
RTVSPropertyOp18
 70
     1
102
RTVSPropertyOp19
 70
     1
102
RTVSPropertyOp20
 70
     1
102
RTVSPropertyOp21
 70
     1
102
RTVSPropertyOp22
 70
     1
102
RTVSPropertyOp23
 70
     1
102
RTVSPropertyOp24
 70
     1
102
RTVSPropertyOp25
 70
     1
102
RTVSPropertyOp26
 70
     1
102
RTVSPropertyOp27
 70
     1
102
RTVSPropertyOp28
 70
     1
102
RTVSPropertyOp29
 70
     1
102
RTVSPropertyOp30
 70
     1
102
RTVSPropertyOp31
 70
     1
102
RTVSPropertyOp32
 70
     1
  0
XRECORD
  5
446
102
{ACAD_REACTORS
330
445
102
}
330
445
100
AcDbXrecord
280
     1
102
RTVSPropertyOp0
 70
     1
102
RTVSPropertyOp1
 70
     1
102
RTVSPropertyOp2
 70
     1
102
RTVSPropertyOp3
 70
     1
102
RTVSPropertyOp4
 70
     1
102
RTVSPropertyOp5
 70
     1
102
RTVSPropertyOp6
 70
     1
102
RTVSPropertyOp7
 70
     1
102
RTVSPropertyOp8
 70
     1
102
RTVSPropertyOp9
 70
     1
102
RTVSPropertyOp10
 70
     1
102
RTVSPropertyOp11
 70
     1
102
RTVSPropertyOp12
 70
     1
102
RTVSPropertyOp13
 70
     1
102
RTVSPropertyOp14
 70
     1
102
RTVSPropertyOp15
 70
     1
102
RTVSPropertyOp16
 70
     1
102
RTVSPropertyOp17
 70
     1
102
RTVSPropertyOp18
 70
     1
102
RTVSPropertyOp19
 70
     1
102
RTVSPropertyOp20
 70
     1
102
RTVSPropertyOp21
 70
     1
102
RTVSPropertyOp22
 70
     1
102
RTVSPropertyOp23
 70
     1
102
RTVSPropertyOp24
 70
     1
102
RTVSPropertyOp25
 70
     1
102
RTVSPropertyOp26
 70
     1
102
RTVSPropertyOp27
 70
     1
102
RTVSPropertyOp28
 70
     1
102
RTVSPropertyOp29
 70
     1
102
RTVSPropertyOp30
 70
     1
102
RTVSPropertyOp31
 70
     1
102
RTVSPropertyOp32
 70
     1
  0
XRECORD
  5
44A
102
{ACAD_REACTORS
330
449
102
}
330
449
100
AcDbXrecord
280
     1
102
RTVSPropertyOp0
 70
     1
102
RTVSPropertyOp1
 70
     1
102
RTVSPropertyOp2
 70
     1
102
RTVSPropertyOp3
 70
     1
102
RTVSPropertyOp4
 70
     1
102
RTVSPropertyOp5
 70
     1
102
RTVSPropertyOp6
 70
     1
102
RTVSPropertyOp7
 70
     1
102
RTVSPropertyOp8
 70
     1
102
RTVSPropertyOp9
 70
     1
102
RTVSPropertyOp10
 70
     1
102
RTVSPropertyOp11
 70
     1
102
RTVSPropertyOp12
 70
     1
102
RTVSPropertyOp13
 70
     1
102
RTVSPropertyOp14
 70
     1
102
RTVSPropertyOp15
 70
     1
102
RTVSPropertyOp16
 70
     1
102
RTVSPropertyOp17
 70
     1
102
RTVSPropertyOp18
 70
     1
102
RTVSPropertyOp19
 70
     1
102
RTVSPropertyOp20
 70
     1
102
RTVSPropertyOp21
 70
     1
102
RTVSPropertyOp22
 70
     1
102
RTVSPropertyOp23
 70
     1
102
RTVSPropertyOp24
 70
     1
102
RTVSPropertyOp25
 70
     1
102
RTVSPropertyOp26
 70
     1
102
RTVSPropertyOp27
 70
     1
102
RTVSPropertyOp28
 70
     1
102
RTVSPropertyOp29
 70
     1
102
RTVSPropertyOp30
 70
     1
102
RTVSPropertyOp31
 70
     1
102
RTVSPropertyOp32
 70
     1
  0
XRECORD
  5
452
102
{ACAD_REACTORS
330
451
102
}
330
451
100
AcDbXrecord
280
     1
102
RTVSPropertyOp0
 70
     1
102
RTVSPropertyOp1
 70
     1
102
RTVSPropertyOp2
 70
     1
102
RTVSPropertyOp3
 70
     1
102
RTVSPropertyOp4
 70
     1
102
RTVSPropertyOp5
 70
     1
102
RTVSPropertyOp6
 70
     1
102
RTVSPropertyOp7
 70
     1
102
RTVSPropertyOp8
 70
     1
102
RTVSPropertyOp9
 70
     1
102
RTVSPropertyOp10
 70
     1
102
RTVSPropertyOp11
 70
     1
102
RTVSPropertyOp12
 70
     1
102
RTVSPropertyOp13
 70
     1
102
RTVSPropertyOp14
 70
     1
102
RTVSPropertyOp15
 70
     1
102
RTVSPropertyOp16
 70
     1
102
RTVSPropertyOp17
 70
     1
102
RTVSPropertyOp18
 70
     1
102
RTVSPropertyOp19
 70
     1
102
RTVSPropertyOp20
 70
     1
102
RTVSPropertyOp21
 70
     1
102
RTVSPropertyOp22
 70
     1
102
RTVSPropertyOp23
 70
     1
102
RTVSPropertyOp24
 70
     1
102
RTVSPropertyOp25
 70
     1
102
RTVSPropertyOp26
 70
     1
102
RTVSPropertyOp27
 70
     1
102
RTVSPropertyOp28
 70
     1
102
RTVSPropertyOp29
 70
     1
102
RTVSPropertyOp30
 70
     1
102
RTVSPropertyOp31
 70
     1
102
RTVSPropertyOp32
 70
     1
  0
XRECORD
  5
45A
102
{ACAD_REACTORS
330
459
102
}
330
459
100
AcDbXrecord
280
     1
102
RTVSPropertyOp0
 70
     1
102
RTVSPropertyOp1
 70
     1
102
RTVSPropertyOp2
 70
     1
102
RTVSPropertyOp3
 70
     1
102
RTVSPropertyOp4
 70
     1
102
RTVSPropertyOp5
 70
     1
102
RTVSPropertyOp6
 70
     1
102
RTVSPropertyOp7
 70
     1
102
RTVSPropertyOp8
 70
     1
102
RTVSPropertyOp9
 70
     1
102
RTVSPropertyOp10
 70
     1
102
RTVSPropertyOp11
 70
     1
102
RTVSPropertyOp12
 70
     1
102
RTVSPropertyOp13
 70
     1
102
RTVSPropertyOp14
 70
     1
102
RTVSPropertyOp15
 70
     1
102
RTVSPropertyOp16
 70
     1
102
RTVSPropertyOp17
 70
     1
102
RTVSPropertyOp18
 70
     1
102
RTVSPropertyOp19
 70
     1
102
RTVSPropertyOp20
 70
     1
102
RTVSPropertyOp21
 70
     1
102
RTVSPropertyOp22
 70
     1
102
RTVSPropertyOp23
 70
     1
102
RTVSPropertyOp24
 70
     1
102
RTVSPropertyOp25
 70
     1
102
RTVSPropertyOp26
 70
     1
102
RTVSPropertyOp27
 70
     1
102
RTVSPropertyOp28
 70
     1
102
RTVSPropertyOp29
 70
     1
102
RTVSPropertyOp30
 70
     1
102
RTVSPropertyOp31
 70
     1
102
RTVSPropertyOp32
 70
     1
  0
XRECORD
  5
44E
102
{ACAD_REACTORS
330
44D
102
}
330
44D
100
AcDbXrecord
280
     1
102
RTVSPropertyOp0
 70
     1
102
RTVSPropertyOp1
 70
     1
102
RTVSPropertyOp2
 70
     1
102
RTVSPropertyOp3
 70
     1
102
RTVSPropertyOp4
 70
     1
102
RTVSPropertyOp5
 70
     1
102
RTVSPropertyOp6
 70
     1
102
RTVSPropertyOp7
 70
     1
102
RTVSPropertyOp8
 70
     1
102
RTVSPropertyOp9
 70
     1
102
RTVSPropertyOp10
 70
     1
102
RTVSPropertyOp11
 70
     1
102
RTVSPropertyOp12
 70
     1
102
RTVSPropertyOp13
 70
     1
102
RTVSPropertyOp14
 70
     1
102
RTVSPropertyOp15
 70
     1
102
RTVSPropertyOp16
 70
     1
102
RTVSPropertyOp17
 70
     1
102
RTVSPropertyOp18
 70
     1
102
RTVSPropertyOp19
 70
     1
102
RTVSPropertyOp20
 70
     1
102
RTVSPropertyOp21
 70
     1
102
RTVSPropertyOp22
 70
     1
102
RTVSPropertyOp23
 70
     1
102
RTVSPropertyOp24
 70
     1
102
RTVSPropertyOp25
 70
     1
102
RTVSPropertyOp26
 70
     1
102
RTVSPropertyOp27
 70
     1
102
RTVSPropertyOp28
 70
     1
102
RTVSPropertyOp29
 70
     1
102
RTVSPropertyOp30
 70
     1
102
RTVSPropertyOp31
 70
     1
102
RTVSPropertyOp32
 70
     1
  0
XRECORD
  5
450
102
{ACAD_REACTORS
330
44F
102
}
330
44F
100
AcDbXrecord
280
     1
102
RTVSPropertyOp0
 70
     1
102
RTVSPropertyOp1
 70
     1
102
RTVSPropertyOp2
 70
     1
102
RTVSPropertyOp3
 70
     1
102
RTVSPropertyOp4
 70
     1
102
RTVSPropertyOp5
 70
     1
102
RTVSPropertyOp6
 70
     1
102
RTVSPropertyOp7
 70
     1
102
RTVSPropertyOp8
 70
     1
102
RTVSPropertyOp9
 70
     1
102
RTVSPropertyOp10
 70
     1
102
RTVSPropertyOp11
 70
     1
102
RTVSPropertyOp12
 70
     1
102
RTVSPropertyOp13
 70
     1
102
RTVSPropertyOp14
 70
     1
102
RTVSPropertyOp15
 70
     1
102
RTVSPropertyOp16
 70
     1
102
RTVSPropertyOp17
 70
     1
102
RTVSPropertyOp18
 70
     1
102
RTVSPropertyOp19
 70
     1
102
RTVSPropertyOp20
 70
     1
102
RTVSPropertyOp21
 70
     1
102
RTVSPropertyOp22
 70
     1
102
RTVSPropertyOp23
 70
     1
102
RTVSPropertyOp24
 70
     1
102
RTVSPropertyOp25
 70
     1
102
RTVSPropertyOp26
 70
     1
102
RTVSPropertyOp27
 70
     1
102
RTVSPropertyOp28
 70
     1
102
RTVSPropertyOp29
 70
     1
102
RTVSPropertyOp30
 70
     1
102
RTVSPropertyOp31
 70
     1
102
RTVSPropertyOp32
 70
     1
  0
XRECORD
  5
458
102
{ACAD_REACTORS
330
457
102
}
330
457
100
AcDbXrecord
280
     1
102
RTVSPropertyOp0
 70
     1
102
RTVSPropertyOp1
 70
     1
102
RTVSPropertyOp2
 70
     1
102
RTVSPropertyOp3
 70
     1
102
RTVSPropertyOp4
 70
     1
102
RTVSPropertyOp5
 70
     1
102
RTVSPropertyOp6
 70
     1
102
RTVSPropertyOp7
 70
     1
102
RTVSPropertyOp8
 70
     1
102
RTVSPropertyOp9
 70
     1
102
RTVSPropertyOp10
 70
     1
102
RTVSPropertyOp11
 70
     1
102
RTVSPropertyOp12
 70
     1
102
RTVSPropertyOp13
 70
     1
102
RTVSPropertyOp14
 70
     1
102
RTVSPropertyOp15
 70
     1
102
RTVSPropertyOp16
 70
     1
102
RTVSPropertyOp17
 70
     1
102
RTVSPropertyOp18
 70
     1
102
RTVSPropertyOp19
 70
     1
102
RTVSPropertyOp20
 70
     1
102
RTVSPropertyOp21
 70
     1
102
RTVSPropertyOp22
 70
     1
102
RTVSPropertyOp23
 70
     1
102
RTVSPropertyOp24
 70
     1
102
RTVSPropertyOp25
 70
     1
102
RTVSPropertyOp26
 70
     1
102
RTVSPropertyOp27
 70
     1
102
RTVSPropertyOp28
 70
     1
102
RTVSPropertyOp29
 70
     1
102
RTVSPropertyOp30
 70
     1
102
RTVSPropertyOp31
 70
     1
102
RTVSPropertyOp32
 70
     1
  0
XRECORD
  5
43C
102
{ACAD_REACTORS
330
43B
102
}
330
43B
100
AcDbXrecord
280
     1
102
RTVSPropertyOp0
 70
     1
102
RTVSPropertyOp1
 70
     1
102
RTVSPropertyOp2
 70
     1
102
RTVSPropertyOp3
 70
     1
102
RTVSPropertyOp4
 70
     1
102
RTVSPropertyOp5
 70
     1
102
RTVSPropertyOp6
 70
     1
102
RTVSPropertyOp7
 70
     1
102
RTVSPropertyOp8
 70
     1
102
RTVSPropertyOp9
 70
     1
102
RTVSPropertyOp10
 70
     1
102
RTVSPropertyOp11
 70
     1
102
RTVSPropertyOp12
 70
     1
102
RTVSPropertyOp13
 70
     1
102
RTVSPropertyOp14
 70
     1
102
RTVSPropertyOp15
 70
     1
102
RTVSPropertyOp16
 70
     1
102
RTVSPropertyOp17
 70
     1
102
RTVSPropertyOp18
 70
     1
102
RTVSPropertyOp19
 70
     1
102
RTVSPropertyOp20
 70
     1
102
RTVSPropertyOp21
 70
     1
102
RTVSPropertyOp22
 70
     1
102
RTVSPropertyOp23
 70
     1
102
RTVSPropertyOp24
 70
     1
102
RTVSPropertyOp25
 70
     1
102
RTVSPropertyOp26
 70
     1
102
RTVSPropertyOp27
 70
     1
102
RTVSPropertyOp28
 70
     1
102
RTVSPropertyOp29
 70
     1
102
RTVSPropertyOp30
 70
     1
102
RTVSPropertyOp31
 70
     1
102
RTVSPropertyOp32
 70
     1
  0
XRECORD
  5
43E
102
{ACAD_REACTORS
330
43D
102
}
330
43D
100
AcDbXrecord
280
     1
102
RTVSPropertyOp0
 70
     1
102
RTVSPropertyOp1
 70
     1
102
RTVSPropertyOp2
 70
     1
102
RTVSPropertyOp3
 70
     1
102
RTVSPropertyOp4
 70
     1
102
RTVSPropertyOp5
 70
     1
102
RTVSPropertyOp6
 70
     1
102
RTVSPropertyOp7
 70
     1
102
RTVSPropertyOp8
 70
     1
102
RTVSPropertyOp9
 70
     1
102
RTVSPropertyOp10
 70
     1
102
RTVSPropertyOp11
 70
     1
102
RTVSPropertyOp12
 70
     1
102
RTVSPropertyOp13
 70
     1
102
RTVSPropertyOp14
 70
     1
102
RTVSPropertyOp15
 70
     1
102
RTVSPropertyOp16
 70
     1
102
RTVSPropertyOp17
 70
     1
102
RTVSPropertyOp18
 70
     1
102
RTVSPropertyOp19
 70
     1
102
RTVSPropertyOp20
 70
     1
102
RTVSPropertyOp21
 70
     1
102
RTVSPropertyOp22
 70
     1
102
RTVSPropertyOp23
 70
     1
102
RTVSPropertyOp24
 70
     1
102
RTVSPropertyOp25
 70
     1
102
RTVSPropertyOp26
 70
     1
102
RTVSPropertyOp27
 70
     1
102
RTVSPropertyOp28
 70
     1
102
RTVSPropertyOp29
 70
     1
102
RTVSPropertyOp30
 70
     1
102
RTVSPropertyOp31
 70
     1
102
RTVSPropertyOp32
 70
     1
  0
XRECORD
  5
440
102
{ACAD_REACTORS
330
43F
102
}
330
43F
100
AcDbXrecord
280
     1
102
RTVSPropertyOp0
 70
     1
102
RTVSPropertyOp1
 70
     1
102
RTVSPropertyOp2
 70
     1
102
RTVSPropertyOp3
 70
     1
102
RTVSPropertyOp4
 70
     1
102
RTVSPropertyOp5
 70
     1
102
RTVSPropertyOp6
 70
     1
102
RTVSPropertyOp7
 70
     1
102
RTVSPropertyOp8
 70
     1
102
RTVSPropertyOp9
 70
     1
102
RTVSPropertyOp10
 70
     1
102
RTVSPropertyOp11
 70
     1
102
RTVSPropertyOp12
 70
     1
102
RTVSPropertyOp13
 70
     1
102
RTVSPropertyOp14
 70
     1
102
RTVSPropertyOp15
 70
     1
102
RTVSPropertyOp16
 70
     1
102
RTVSPropertyOp17
 70
     1
102
RTVSPropertyOp18
 70
     1
102
RTVSPropertyOp19
 70
     1
102
RTVSPropertyOp20
 70
     1
102
RTVSPropertyOp21
 70
     1
102
RTVSPropertyOp22
 70
     1
102
RTVSPropertyOp23
 70
     1
102
RTVSPropertyOp24
 70
     1
102
RTVSPropertyOp25
 70
     1
102
RTVSPropertyOp26
 70
     1
102
RTVSPropertyOp27
 70
     1
102
RTVSPropertyOp28
 70
     1
102
RTVSPropertyOp29
 70
     1
102
RTVSPropertyOp30
 70
     1
102
RTVSPropertyOp31
 70
     1
102
RTVSPropertyOp32
 70
     1
  0
XRECORD
  5
442
102
{ACAD_REACTORS
330
441
102
}
330
441
100
AcDbXrecord
280
     1
102
RTVSPropertyOp0
 70
     1
102
RTVSPropertyOp1
 70
     1
102
RTVSPropertyOp2
 70
     1
102
RTVSPropertyOp3
 70
     1
102
RTVSPropertyOp4
 70
     1
102
RTVSPropertyOp5
 70
     1
102
RTVSPropertyOp6
 70
     1
102
RTVSPropertyOp7
 70
     1
102
RTVSPropertyOp8
 70
     1
102
RTVSPropertyOp9
 70
     1
102
RTVSPropertyOp10
 70
     1
102
RTVSPropertyOp11
 70
     1
102
RTVSPropertyOp12
 70
     1
102
RTVSPropertyOp13
 70
     1
102
RTVSPropertyOp14
 70
     1
102
RTVSPropertyOp15
 70
     1
102
RTVSPropertyOp16
 70
     1
102
RTVSPropertyOp17
 70
     1
102
RTVSPropertyOp18
 70
     1
102
RTVSPropertyOp19
 70
     1
102
RTVSPropertyOp20
 70
     1
102
RTVSPropertyOp21
 70
     1
102
RTVSPropertyOp22
 70
     1
102
RTVSPropertyOp23
 70
     1
102
RTVSPropertyOp24
 70
     1
102
RTVSPropertyOp25
 70
     1
102
RTVSPropertyOp26
 70
     1
102
RTVSPropertyOp27
 70
     1
102
RTVSPropertyOp28
 70
     1
102
RTVSPropertyOp29
 70
     1
102
RTVSPropertyOp30
 70
     1
102
RTVSPropertyOp31
 70
     1
102
RTVSPropertyOp32
 70
     1
  0
XRECORD
  5
456
102
{ACAD_REACTORS
330
455
102
}
330
455
100
AcDbXrecord
280
     1
102
RTVSPropertyOp0
 70
     1
102
RTVSPropertyOp1
 70
     1
102
RTVSPropertyOp2
 70
     1
102
RTVSPropertyOp3
 70
     1
102
RTVSPropertyOp4
 70
     1
102
RTVSPropertyOp5
 70
     1
102
RTVSPropertyOp6
 70
     1
102
RTVSPropertyOp7
 70
     1
102
RTVSPropertyOp8
 70
     1
102
RTVSPropertyOp9
 70
     1
102
RTVSPropertyOp10
 70
     1
102
RTVSPropertyOp11
 70
     1
102
RTVSPropertyOp12
 70
     1
102
RTVSPropertyOp13
 70
     1
102
RTVSPropertyOp14
 70
     1
102
RTVSPropertyOp15
 70
     1
102
RTVSPropertyOp16
 70
     1
102
RTVSPropertyOp17
 70
     1
102
RTVSPropertyOp18
 70
     1
102
RTVSPropertyOp19
 70
     1
102
RTVSPropertyOp20
 70
     1
102
RTVSPropertyOp21
 70
     1
102
RTVSPropertyOp22
 70
     1
102
RTVSPropertyOp23
 70
     1
102
RTVSPropertyOp24
 70
     1
102
RTVSPropertyOp25
 70
     1
102
RTVSPropertyOp26
 70
     1
102
RTVSPropertyOp27
 70
     1
102
RTVSPropertyOp28
 70
     1
102
RTVSPropertyOp29
 70
     1
102
RTVSPropertyOp30
 70
     1
102
RTVSPropertyOp31
 70
     1
102
RTVSPropertyOp32
 70
     1
  0
XRECORD
  5
44C
102
{ACAD_REACTORS
330
44B
102
}
330
44B
100
AcDbXrecord
280
     1
102
RTVSPropertyOp0
 70
     1
102
RTVSPropertyOp1
 70
     1
102
RTVSPropertyOp2
 70
     1
102
RTVSPropertyOp3
 70
     1
102
RTVSPropertyOp4
 70
     1
102
RTVSPropertyOp5
 70
     1
102
RTVSPropertyOp6
 70
     1
102
RTVSPropertyOp7
 70
     1
102
RTVSPropertyOp8
 70
     1
102
RTVSPropertyOp9
 70
     1
102
RTVSPropertyOp10
 70
     1
102
RTVSPropertyOp11
 70
     1
102
RTVSPropertyOp12
 70
     1
102
RTVSPropertyOp13
 70
     1
102
RTVSPropertyOp14
 70
     1
102
RTVSPropertyOp15
 70
     1
102
RTVSPropertyOp16
 70
     1
102
RTVSPropertyOp17
 70
     1
102
RTVSPropertyOp18
 70
     1
102
RTVSPropertyOp19
 70
     1
102
RTVSPropertyOp20
 70
     1
102
RTVSPropertyOp21
 70
     1
102
RTVSPropertyOp22
 70
     1
102
RTVSPropertyOp23
 70
     1
102
RTVSPropertyOp24
 70
     1
102
RTVSPropertyOp25
 70
     1
102
RTVSPropertyOp26
 70
     1
102
RTVSPropertyOp27
 70
     1
102
RTVSPropertyOp28
 70
     1
102
RTVSPropertyOp29
 70
     1
102
RTVSPropertyOp30
 70
     1
102
RTVSPropertyOp31
 70
     1
102
RTVSPropertyOp32
 70
     1
  0
XRECORD
  5
454
102
{ACAD_REACTORS
330
453
102
}
330
453
100
AcDbXrecord
280
     1
102
RTVSPropertyOp0
 70
     1
102
RTVSPropertyOp1
 70
     1
102
RTVSPropertyOp2
 70
     1
102
RTVSPropertyOp3
 70
     1
102
RTVSPropertyOp4
 70
     1
102
RTVSPropertyOp5
 70
     1
102
RTVSPropertyOp6
 70
     1
102
RTVSPropertyOp7
 70
     1
102
RTVSPropertyOp8
 70
     1
102
RTVSPropertyOp9
 70
     1
102
RTVSPropertyOp10
 70
     1
102
RTVSPropertyOp11
 70
     1
102
RTVSPropertyOp12
 70
     1
102
RTVSPropertyOp13
 70
     1
102
RTVSPropertyOp14
 70
     1
102
RTVSPropertyOp15
 70
     1
102
RTVSPropertyOp16
 70
     1
102
RTVSPropertyOp17
 70
     1
102
RTVSPropertyOp18
 70
     1
102
RTVSPropertyOp19
 70
     1
102
RTVSPropertyOp20
 70
     1
102
RTVSPropertyOp21
 70
     1
102
RTVSPropertyOp22
 70
     1
102
RTVSPropertyOp23
 70
     1
102
RTVSPropertyOp24
 70
     1
102
RTVSPropertyOp25
 70
     1
102
RTVSPropertyOp26
 70
     1
102
RTVSPropertyOp27
 70
     1
102
RTVSPropertyOp28
 70
     1
102
RTVSPropertyOp29
 70
     1
102
RTVSPropertyOp30
 70
     1
102
RTVSPropertyOp31
 70
     1
102
RTVSPropertyOp32
 70
     1
  0
ENDSEC
  0
EOF
