  0
SECTION
  2
HEADER
  9
$ACADVER
  1
AC1024
  9
$ACADMAINTVER
 70
   226
  9
$DWGCODEPAGE
  3
ANSI_1252
  9
$INSBASE
 10
0.0
 20
0.0
 30
0.0
  9
$EXTMIN
 10
3495.232191138017
 20
3436.82549522824
 30
0.0
  9
$EXTMAX
 10
4367.096991819886
 20
4048.4858500187
 30
0.0
  9
$LIMMIN
 10
0.0
 20
0.0
  9
$LIMMAX
 10
12.0
 20
9.0
  9
$ORTHOMODE
 70
     0
  9
$REGENMODE
 70
     1
  9
$FILLMODE
 70
     1
  9
$QTEXTMODE
 70
     0
  9
$MIRRTEXT
 70
     0
  9
$LTSCALE
 40
1.0
  9
$ATTMODE
 70
     1
  9
$TEXTSIZE
 40
0.2
  9
$TRACEWID
 40
0.05
  9
$TEXTSTYLE
  7
Standard
  9
$CLAYER
  8
0
  9
$CELTYPE
  6
ByLayer
  9
$CECOLOR
 62
   256
  9
$CELTSCALE
 40
1.0
  9
$DISPSILH
 70
     0
  9
$DIMSCALE
 40
1.0
  9
$DIMASZ
 40
0.18
  9
$DIMEXO
 40
0.0625
  9
$DIMDLI
 40
0.38
  9
$DIMRND
 40
0.0
  9
$DIMDLE
 40
0.0
  9
$DIMEXE
 40
0.18
  9
$DIMTP
 40
0.0
  9
$DIMTM
 40
0.0
  9
$DIMTXT
 40
0.18
  9
$DIMCEN
 40
0.09
  9
$DIMTSZ
 40
0.0
  9
$DIMTOL
 70
     0
  9
$DIMLIM
 70
     0
  9
$DIMTIH
 70
     1
  9
$DIMTOH
 70
     1
  9
$DIMSE1
 70
     0
  9
$DIMSE2
 70
     0
  9
$DIMTAD
 70
     0
  9
$DIMZIN
 70
     0
  9
$DIMBLK
  1

  9
$DIMASO
 70
     1
  9
$DIMSHO
 70
     1
  9
$DIMPOST
  1

  9
$DIMAPOST
  1

  9
$DIMALT
 70
     0
  9
$DIMALTD
 70
     2
  9
$DIMALTF
 40
25.4
  9
$DIMLFAC
 40
1.0
  9
$DIMTOFL
 70
     0
  9
$DIMTVP
 40
0.0
  9
$DIMTIX
 70
     0
  9
$DIMSOXD
 70
     0
  9
$DIMSAH
 70
     0
  9
$DIMBLK1
  1

  9
$DIMBLK2
  1

  9
$DIMSTYLE
  2
Standard
  9
$DIMCLRD
 70
     0
  9
$DIMCLRE
 70
     0
  9
$DIMCLRT
 70
     0
  9
$DIMTFAC
 40
1.0
  9
$DIMGAP
 40
0.09
  9
$DIMJUST
 70
     0
  9
$DIMSD1
 70
     0
  9
$DIMSD2
 70
     0
  9
$DIMTOLJ
 70
     1
  9
$DIMTZIN
 70
     0
  9
$DIMALTZ
 70
     0
  9
$DIMALTTZ
 70
     0
  9
$DIMUPT
 70
     0
  9
$DIMDEC
 70
     4
  9
$DIMTDEC
 70
     4
  9
$DIMALTU
 70
     2
  9
$DIMALTTD
 70
     2
  9
$DIMTXSTY
  7
Standard
  9
$DIMAUNIT
 70
     0
  9
$DIMADEC
 70
     0
  9
$DIMALTRND
 40
0.0
  9
$DIMAZIN
 70
     0
  9
$DIMDSEP
 70
    46
  9
$DIMATFIT
 70
     3
  9
$DIMFRAC
 70
     0
  9
$DIMLDRBLK
  1

  9
$DIMLUNIT
 70
     2
  9
$DIMLWD
 70
    -2
  9
$DIMLWE
 70
    -2
  9
$DIMTMOVE
 70
     0
  9
$DIMFXL
 40
1.0
  9
$DIMFXLON
 70
     0
  9
$DIMJOGANG
 40
0.7853981633974483
  9
$DIMTFILL
 70
     0
  9
$DIMTFILLCLR
 70
     0
  9
$DIMARCSYM
 70
     0
  9
$DIMLTYPE
  6

  9
$DIMLTEX1
  6

  9
$DIMLTEX2
  6

  9
$DIMTXTDIRECTION
 70
     0
  9
$LUNITS
 70
     2
  9
$LUPREC
 70
     4
  9
$SKETCHINC
 40
0.1
  9
$FILLETRAD
 40
0.0
  9
$AUNITS
 70
     0
  9
$AUPREC
 70
     0
  9
$MENU
  1
.
  9
$ELEVATION
 40
0.0
  9
$PELEVATION
 40
0.0
  9
$THICKNESS
 40
0.0
  9
$LIMCHECK
 70
     0
  9
$CHAMFERA
 40
0.0
  9
$CHAMFERB
 40
0.0
  9
$CHAMFERC
 40
0.0
  9
$CHAMFERD
 40
0.0
  9
$SKPOLY
 70
     0
  9
$TDCREATE
 40
2459165.014108796
  9
$TDUCREATE
 40
2459164.472442130
  9
$TDUPDATE
 40
2459165.014108796
  9
$TDUUPDATE
 40
2459164.472442130
  9
$TDINDWG
 40
0.0000115741
  9
$TDUSRTIMER
 40
0.0000115741
  9
$USRTIMER
 70
     1
  9
$ANGBASE
 50
0.0
  9
$ANGDIR
 70
     0
  9
$PDMODE
 70
     0
  9
$PDSIZE
 40
0.0
  9
$PLINEWID
 40
0.0
  9
$SPLFRAME
 70
     0
  9
$SPLINETYPE
 70
     6
  9
$SPLINESEGS
 70
     8
  9
$HANDSEED
  5
2D1
  9
$SURFTAB1
 70
     6
  9
$SURFTAB2
 70
     6
  9
$SURFTYPE
 70
     6
  9
$SURFU
 70
     6
  9
$SURFV
 70
     6
  9
$UCSBASE
  2

  9
$UCSNAME
  2

  9
$UCSORG
 10
0.0
 20
0.0
 30
0.0
  9
$UCSXDIR
 10
1.0
 20
0.0
 30
0.0
  9
$UCSYDIR
 10
0.0
 20
1.0
 30
0.0
  9
$UCSORTHOREF
  2

  9
$UCSORTHOVIEW
 70
     0
  9
$UCSORGTOP
 10
0.0
 20
0.0
 30
0.0
  9
$UCSORGBOTTOM
 10
0.0
 20
0.0
 30
0.0
  9
$UCSORGLEFT
 10
0.0
 20
0.0
 30
0.0
  9
$UCSORGRIGHT
 10
0.0
 20
0.0
 30
0.0
  9
$UCSORGFRONT
 10
0.0
 20
0.0
 30
0.0
  9
$UCSORGBACK
 10
0.0
 20
0.0
 30
0.0
  9
$PUCSBASE
  2

  9
$PUCSNAME
  2

  9
$PUCSORG
 10
0.0
 20
0.0
 30
0.0
  9
$PUCSXDIR
 10
1.0
 20
0.0
 30
0.0
  9
$PUCSYDIR
 10
0.0
 20
1.0
 30
0.0
  9
$PUCSORTHOREF
  2

  9
$PUCSORTHOVIEW
 70
     0
  9
$PUCSORGTOP
 10
0.0
 20
0.0
 30
0.0
  9
$PUCSORGBOTTOM
 10
0.0
 20
0.0
 30
0.0
  9
$PUCSORGLEFT
 10
0.0
 20
0.0
 30
0.0
  9
$PUCSORGRIGHT
 10
0.0
 20
0.0
 30
0.0
  9
$PUCSORGFRONT
 10
0.0
 20
0.0
 30
0.0
  9
$PUCSORGBACK
 10
0.0
 20
0.0
 30
0.0
  9
$USERI1
 70
     0
  9
$USERI2
 70
     0
  9
$USERI3
 70
     0
  9
$USERI4
 70
     0
  9
$USERI5
 70
     0
  9
$USERR1
 40
0.0
  9
$USERR2
 40
0.0
  9
$USERR3
 40
0.0
  9
$USERR4
 40
0.0
  9
$USERR5
 40
0.0
  9
$WORLDVIEW
 70
     1
  9
$SHADEDGE
 70
     3
  9
$SHADEDIF
 70
    70
  9
$TILEMODE
 70
     0
  9
$MAXACTVP
 70
    64
  9
$PINSBASE
 10
0.0
 20
0.0
 30
0.0
  9
$PLIMCHECK
 70
     0
  9
$PEXTMIN
 10
-0.0243254853795738
 20
0.0239675613783464
 30
0.0
  9
$PEXTMAX
 10
296.9756745145732
 20
210.0239675613797
 30
0.0
  9
$PLIMMIN
 10
0.0
 20
0.0
  9
$PLIMMAX
 10
12.0
 20
9.0
  9
$UNITMODE
 70
     0
  9
$VISRETAIN
 70
     1
  9
$PLINEGEN
 70
     0
  9
$PSLTSCALE
 70
     1
  9
$TREEDEPTH
 70
  3020
  9
$CMLSTYLE
  2
Standard
  9
$CMLJUST
 70
     0
  9
$CMLSCALE
 40
1.0
  9
$PROXYGRAPHICS
 70
     1
  9
$MEASUREMENT
 70
     1
  9
$CELWEIGHT
370
    -1
  9
$ENDCAPS
280
     0
  9
$JOINSTYLE
280
     0
  9
$LWDISPLAY
290
     0
  9
$INSUNITS
 70
     4
  9
$HYPERLINKBASE
  1

  9
$STYLESHEET
  1

  9
$XEDIT
290
     1
  9
$CEPSNTYPE
380
     0
  9
$PSTYLEMODE
290
     1
  9
$FINGERPRINTGUID
  2
{67534D71-F60B-2648-8027-2ADD5C89C010}
  9
$VERSIONGUID
  2
{853BD08A-C8D8-6C40-AA13-66AD87D6A616}
  9
$EXTNAMES
290
     1
  9
$PSVPSCALE
 40
0.0
  9
$OLESTARTUP
290
     0
  9
$SORTENTS
280
   127
  9
$INDEXCTL
280
     0
  9
$HIDETEXT
280
     1
  9
$XCLIPFRAME
280
     2
  9
$HALOGAP
280
     0
  9
$OBSCOLOR
 70
   257
  9
$OBSLTYPE
280
     0
  9
$INTERSECTIONDISPLAY
280
     0
  9
$INTERSECTIONCOLOR
 70
   257
  9
$DIMASSOC
280
     2
  9
$PROJECTNAME
  1

  9
$CAMERADISPLAY
290
     0
  9
$LENSLENGTH
 40
50.0
  9
$CAMERAHEIGHT
 40
0.0
  9
$STEPSPERSEC
 40
2.0
  9
$STEPSIZE
 40
6.0
  9
$3DDWFPREC
 40
2.0
  9
$PSOLWIDTH
 40
0.25
  9
$PSOLHEIGHT
 40
4.0
  9
$LOFTANG1
 40
1.570796326794896
  9
$LOFTANG2
 40
1.570796326794896
  9
$LOFTMAG1
 40
0.0
  9
$LOFTMAG2
 40
0.0
  9
$LOFTPARAM
 70
     7
  9
$LOFTNORMALS
280
     1
  9
$LATITUDE
 40
0.0
  9
$LONGITUDE
 40
0.0
  9
$NORTHDIRECTION
 40
0.0
  9
$TIMEZONE
 70
     0
  9
$LIGHTGLYPHDISPLAY
280
     1
  9
$TILEMODELIGHTSYNCH
280
     1
  9
$CMATERIAL
347
11
  9
$SOLIDHIST
280
     0
  9
$SHOWHIST
280
     1
  9
$DWFFRAME
280
     2
  9
$DGNFRAME
280
     0
  9
$REALWORLDSCALE
290
     1
  9
$INTERFERECOLOR
 62
     1
  9
$INTERFEREOBJVS
345
33
  9
$INTERFEREVPVS
346
30
  9
$CSHADOW
280
     0
  9
$SHADOWPLANELOCATION
 40
0.0
  0
ENDSEC
  0
SECTION
  2
CLASSES
  0
CLASS
  1
ACDBDICTIONARYWDFLT
  2
AcDbDictionaryWithDefault
  3
ObjectDBX Classes
 90
        0
 91
        1
280
     0
281
     0
  0
CLASS
  1
MATERIAL
  2
AcDbMaterial
  3
ObjectDBX Classes
 90
     1153
 91
        3
280
     0
281
     0
  0
CLASS
  1
VISUALSTYLE
  2
AcDbVisualStyle
  3
ObjectDBX Classes
 90
     4095
 91
       24
280
     0
281
     0
  0
CLASS
  1
SCALE
  2
AcDbScale
  3
ObjectDBX Classes
 90
     1153
 91
       17
280
     0
281
     0
  0
CLASS
  1
TABLESTYLE
  2
AcDbTableStyle
  3
ObjectDBX Classes
 90
     4095
 91
        1
280
     0
281
     0
  0
CLASS
  1
MLEADERSTYLE
  2
AcDbMLeaderStyle
  3
ACDB_MLEADERSTYLE_CLASS
 90
     4095
 91
        1
280
     0
281
     0
  0
CLASS
  1
ACDBSECTIONVIEWSTYLE
  2
AcDbSectionViewStyle
  3
ObjectDBX Classes
 90
     1025
 91
        1
280
     0
281
     0
  0
CLASS
  1
ACDBDETAILVIEWSTYLE
  2
AcDbDetailViewStyle
  3
ObjectDBX Classes
 90
     1025
 91
        1
280
     0
281
     0
  0
CLASS
  1
RASTERVARIABLES
  2
AcDbRasterVariables
  3
ISM
 90
        0
 91
        1
280
     0
281
     0
  0
CLASS
  1
DICTIONARYVAR
  2
AcDbDictionaryVar
  3
ObjectDBX Classes
 90
        0
 91
        5
280
     0
281
     0
  0
CLASS
  1
CELLSTYLEMAP
  2
AcDbCellStyleMap
  3
ObjectDBX Classes
 90
     1152
 91
        2
280
     0
281
     0
  0
CLASS
  1
IMAGEDEF
  2
AcDbRasterImageDef
  3
ISM
 90
        0
 91
        1
280
     0
281
     0
  0
CLASS
  1
IMAGE
  2
AcDbRasterImage
  3
ISM
 90
     2175
 91
        1
280
     0
281
     1
  0
CLASS
  1
IMAGEDEF_REACTOR
  2
AcDbRasterImageDefReactor
  3
ISM
 90
        1
 91
        1
280
     0
281
     0
  0
CLASS
  1
SORTENTSTABLE
  2
AcDbSortentsTable
  3
ObjectDBX Classes
 90
        0
 91
        1
280
     0
281
     0
  0
ENDSEC
  0
SECTION
  2
TABLES
  0
TABLE
  2
VPORT
  5
8
330
0
100
AcDbSymbolTable
 70
     1
  0
VPORT
  5
57
330
8
100
AcDbSymbolTableRecord
100
AcDbViewportTableRecord
  2
*Active
 70
     0
 10
0.0
 20
0.0
 11
1.0
 21
1.0
 12
3931.164591478952
 22
3742.65567262347
 13
0.0
 23
0.0
 14
1.0
 24
1.0
 15
0.0
 25
0.0
 16
0.0
 26
0.0
 36
1.0
 17
0.0
 27
0.0
 37
0.0
 40
611.6603547904605
 41
1.425406753688568
 42
50.0
 43
0.0
 44
0.0
 50
0.0
 51
0.0
 71
     0
 72
  1000
 73
     1
 74
     0
 75
     1
 76
     0
 77
     0
 78
     0
281
     0
 65
     1
110
0.0
120
0.0
130
0.0
111
1.0
121
0.0
131
0.0
112
0.0
122
1.0
132
0.0
 79
     0
146
0.0
 60
     3
 61
     5
292
     1
282
     1
141
0.0
142
0.0
 63
   250
421
  3355443
  0
ENDTAB
  0
TABLE
  2
LTYPE
  5
5
330
0
100
AcDbSymbolTable
 70
     2
  0
LTYPE
  5
5B
330
5
100
AcDbSymbolTableRecord
100
AcDbLinetypeTableRecord
  2
ByBlock
 70
     0
  3

 72
    65
 73
     0
 40
0.0
  0
LTYPE
  5
5C
330
5
100
AcDbSymbolTableRecord
100
AcDbLinetypeTableRecord
  2
ByLayer
 70
     0
  3

 72
    65
 73
     0
 40
0.0
  0
LTYPE
  5
5D
330
5
100
AcDbSymbolTableRecord
100
AcDbLinetypeTableRecord
  2
Continuous
 70
     0
  3
Solid line
 72
    65
 73
     0
 40
0.0
  0
LTYPE
  5
124
330
5
100
AcDbSymbolTableRecord
100
AcDbLinetypeTableRecord
  2
Dash
 70
     0
  3

 72
    65
 73
     2
 40
6.350000000000001
 49
3.175
 74
     0
 49
-3.175
 74
     0
  0
ENDTAB
  0
TABLE
  2
LAYER
  5
2
330
0
100
AcDbSymbolTable
 70
    10
  0
LAYER
  5
54
330
2
100
AcDbSymbolTableRecord
100
AcDbLayerTableRecord
  2
0
 70
     0
 62
     7
  6
Continuous
370
    -3
390
F
347
21
  0
LAYER
  5
BA
330
2
100
AcDbSymbolTableRecord
100
AcDbLayerTableRecord
  2
A-DETL-GENF
 70
     0
 62
    92
  6
Continuous
370
    30
390
F
347
21
  0
LAYER
  5
BB
330
2
100
AcDbSymbolTableRecord
100
AcDbLayerTableRecord
  2
A-DETL
 70
     0
 62
    90
  6
Continuous
370
     9
390
F
347
21
  0
LAYER
  5
BC
330
2
100
AcDbSymbolTableRecord
100
AcDbLayerTableRecord
  2
A-DETL-THIN
 70
     0
 62
   151
  6
Continuous
370
     9
390
F
347
21
  0
LAYER
  5
169
330
2
100
AcDbSymbolTableRecord
100
AcDbLayerTableRecord
  2
A-DETL-MEDM
 70
     0
 62
    33
  6
Continuous
370
    30
390
F
347
21
  0
LAYER
  5
215
330
2
100
AcDbSymbolTableRecord
100
AcDbLayerTableRecord
  2
G-ANNO-TEXT
 70
     0
 62
   231
  6
Continuous
370
     9
390
F
347
21
  0
LAYER
  5
254
330
2
100
AcDbSymbolTableRecord
100
AcDbLayerTableRecord
  2
G-ANNO-NPLT
 70
     0
 62
   191
  6
Continuous
290
     0
370
    -3
390
F
347
21
  0
LAYER
  5
25A
330
2
100
AcDbSymbolTableRecord
100
AcDbLayerTableRecord
  2
G-ANNO-TTLB
 70
     0
 62
     6
  6
Continuous
370
     9
390
F
347
21
  0
LAYER
  5
260
330
2
100
AcDbSymbolTableRecord
100
AcDbLayerTableRecord
  2
G-ANNO-TTLB-THIN
 70
     0
 62
   151
  6
Continuous
370
    25
390
F
347
21
  0
LAYER
  5
263
330
2
100
AcDbSymbolTableRecord
100
AcDbLayerTableRecord
  2
G-ANNO-TTLB-MEDM
 70
     0
 62
    33
  6
Continuous
370
    50
390
F
347
21
  0
ENDTAB
  0
TABLE
  2
STYLE
  5
3
330
0
100
AcDbSymbolTable
 70
     7
  0
STYLE
  5
55
330
3
100
AcDbSymbolTableRecord
100
AcDbTextStyleTableRecord
  2
Standard
 70
     0
 40
0.0
 41
1.0
 50
0.0
 71
     0
 42
0.2
  3
txt
  4

  0
STYLE
  5
5A
330
3
100
AcDbSymbolTableRecord
100
AcDbTextStyleTableRecord
  2
Annotative
 70
     0
 40
0.0
 41
1.0
 50
0.0
 71
     0
 42
0.2
  3
txt
  4

1001
AcadAnnotative
1000
AnnotativeData
1002
{
1070
     1
1070
     1
1002
}
  0
STYLE
  5
21C
330
3
100
AcDbSymbolTableRecord
100
AcDbTextStyleTableRecord
  2
Century Gothic
 70
     0
 40
12.5
 41
0.9
 50
0.0
 71
     0
 42
0.2
  3
GOTHIC.TTF
  4

1001
ACAD
1000
Century Gothic
1071
       34
  0
STYLE
  5
26A
330
3
100
AcDbSymbolTableRecord
100
AcDbTextStyleTableRecord
  2
Century Gothic_1
 70
     0
 40
1.8
 41
0.9
 50
0.0
 71
     0
 42
0.2
  3
GOTHIC.TTF
  4

1001
ACAD
1000
Century Gothic
1071
       34
  0
STYLE
  5
289
330
3
100
AcDbSymbolTableRecord
100
AcDbTextStyleTableRecord
  2
Century Gothic_2
 70
     0
 40
4.0
 41
0.9
 50
0.0
 71
     0
 42
0.2
  3
GOTHIC.TTF
  4

1001
ACAD
1000
Century Gothic
1071
       34
  0
STYLE
  5
28B
330
3
100
AcDbSymbolTableRecord
100
AcDbTextStyleTableRecord
  2
Century Gothic_3
 70
     0
 40
3.5
 41
0.9
 50
0.0
 71
     0
 42
0.2
  3
GOTHIC.TTF
  4

1001
ACAD
1000
Century Gothic
1071
       34
  0
STYLE
  5
28E
330
3
100
AcDbSymbolTableRecord
100
AcDbTextStyleTableRecord
  2
Century Gothic_4
 70
     0
 40
4.999999999999999
 41
1.0
 50
0.0
 71
     0
 42
0.2
  3
GOTHIC.TTF
  4

1001
ACAD
1000
Century Gothic
1071
       34
  0
ENDTAB
  0
TABLE
  2
VIEW
  5
6
330
0
100
AcDbSymbolTable
 70
     0
  0
ENDTAB
  0
TABLE
  2
UCS
  5
7
330
0
100
AcDbSymbolTable
 70
     0
  0
ENDTAB
  0
TABLE
  2
APPID
  5
9
330
0
100
AcDbSymbolTable
 70
     3
  0
APPID
  5
56
330
9
100
AcDbSymbolTableRecord
100
AcDbRegAppTableRecord
  2
ACAD
 70
     0
  0
APPID
  5
5E
330
9
100
AcDbSymbolTableRecord
100
AcDbRegAppTableRecord
  2
AcadAnnotative
 70
     0
  0
APPID
  5
78
330
9
100
AcDbSymbolTableRecord
100
AcDbRegAppTableRecord
  2
REVIT
 70
     0
  0
ENDTAB
  0
TABLE
  2
DIMSTYLE
  5
A
330
0
100
AcDbSymbolTable
 70
     2
100
AcDbDimStyleTable
 71
     0
  0
DIMSTYLE
105
58
330
A
100
AcDbSymbolTableRecord
100
AcDbDimStyleTableRecord
  2
Standard
 70
     0
340
55
  0
DIMSTYLE
105
59
330
A
100
AcDbSymbolTableRecord
100
AcDbDimStyleTableRecord
  2
Annotative
 70
     0
340
55
1001
AcadAnnotative
1000
AnnotativeData
1002
{
1070
     1
1070
     1
1002
}
  0
ENDTAB
  0
TABLE
  2
BLOCK_RECORD
  5
1
330
0
100
AcDbSymbolTable
 70
    11
  0
BLOCK_RECORD
  5
70
102
{ACAD_XDICTIONARY
360
295
102
}
330
1
100
AcDbSymbolTableRecord
100
AcDbBlockTableRecord
  2
*Model_Space
340
73
 70
     0
280
     1
281
     0
  0
BLOCK_RECORD
  5
6C
330
1
100
AcDbSymbolTableRecord
100
AcDbBlockTableRecord
  2
*Paper_Space
340
6F
 70
     0
280
     1
281
     0
  0
BLOCK_RECORD
  5
74
330
1
100
AcDbSymbolTableRecord
100
AcDbBlockTableRecord
  2
*Paper_Space0
340
77
 70
     0
280
     1
281
     0
  0
BLOCK_RECORD
  5
109
330
1
100
AcDbSymbolTableRecord
100
AcDbBlockTableRecord
  2
FP Timber Nog Packer1 - Variable-173500-W-TRSIL-21-V - Handrail End Fixing Detail
340
0
102
{BLKREFS
331
111
102
}
 70
     0
280
     1
281
     0
  0
BLOCK_RECORD
  5
123
330
1
100
AcDbSymbolTableRecord
100
AcDbBlockTableRecord
  2
HP_WProof - Building Wrap - HP_WProof - Building Wrap-130950-W-TRSIL-21-V - Handrail End Fixing Detail
340
0
102
{BLKREFS
331
128
102
}
 70
     0
280
     1
281
     0
  0
BLOCK_RECORD
  5
129
330
1
100
AcDbSymbolTableRecord
100
AcDbBlockTableRecord
  2
FP - Break Line - FP - Break Line-168850-W-TRSIL-21-V - Handrail End Fixing Detail
340
0
102
{BLKREFS
331
131
102
}
 70
     0
280
     1
281
     0
  0
BLOCK_RECORD
  5
132
330
1
100
AcDbSymbolTableRecord
100
AcDbBlockTableRecord
  2
FP - Break Line - FP - Break Line-168802-W-TRSIL-21-V - Handrail End Fixing Detail
340
0
102
{BLKREFS
331
13A
102
}
 70
     0
280
     1
281
     0
  0
BLOCK_RECORD
  5
16B
330
1
100
AcDbSymbolTableRecord
100
AcDbBlockTableRecord
  2
4811_Air Seal w Foam - Airseal on PEF Backing Rod-172310-W-TRSIL-21-V - Handrail End Fixing Detail
340
0
102
{BLKREFS
331
173
102
}
 70
     0
280
     1
281
     0
  0
BLOCK_RECORD
  5
174
330
1
100
AcDbSymbolTableRecord
100
AcDbBlockTableRecord
  2
4811_Air Seal w Foam - Airseal on PEF Backing Rod-172733-W-TRSIL-21-V - Handrail End Fixing Detail
340
0
102
{BLKREFS
331
17E
102
}
 70
     0
280
     1
281
     0
  0
BLOCK_RECORD
  5
190
330
1
100
AcDbSymbolTableRecord
100
AcDbBlockTableRecord
  2
FP Timber Nog Packer1 - Variable-216047-W-TRSIL-21-V - Handrail End Fixing Detail
340
0
102
{BLKREFS
331
198
102
}
 70
     0
280
     1
281
     0
  0
BLOCK_RECORD
  5
199
330
1
100
AcDbSymbolTableRecord
100
AcDbBlockTableRecord
  2
Hex head timberfix screw_long - Hex head timberfix screw_long-161035-W-TRSIL-21-V - Handrail End Fixing Detail
340
0
102
{BLKREFS
331
1D6
102
}
 70
     0
280
     1
281
     0
  0
BLOCK_RECORD
  5
1D7
330
1
100
AcDbSymbolTableRecord
100
AcDbBlockTableRecord
  2
Hex head timberfix screw_long - Hex head timberfix screw_long-219692-W-TRSIL-21-V - Handrail End Fixing Detail
340
0
102
{BLKREFS
331
214
102
}
 70
     0
280
     1
281
     0
  0
BLOCK_RECORD
  5
25B
330
1
100
AcDbSymbolTableRecord
100
AcDbBlockTableRecord
  2
Titleblock A4 The roofing store - Titleblock A4 The roofing store-2694-Handrail End Fixing Detail
340
0
102
{BLKREFS
331
288
102
}
 70
     0
280
     1
281
     0
  0
ENDTAB
  0
ENDSEC
  0
SECTION
  2
BLOCKS
  0
BLOCK
  5
71
330
70
100
AcDbEntity
  8
0
100
AcDbBlockBegin
  2
*Model_Space
 70
     0
 10
0.0
 20
0.0
 30
0.0
  3
*Model_Space
  1

  0
ENDBLK
  5
72
330
70
100
AcDbEntity
  8
0
100
AcDbBlockEnd
  0
BLOCK
  5
6D
330
6C
100
AcDbEntity
 67
     1
  8
0
100
AcDbBlockBegin
  2
*Paper_Space
 70
     0
 10
0.0
 20
0.0
 30
0.0
  3
*Paper_Space
  1

  0
ENDBLK
  5
6E
330
6C
100
AcDbEntity
 67
     1
  8
0
100
AcDbBlockEnd
  0
BLOCK
  5
75
330
74
100
AcDbEntity
 67
     1
  8
0
100
AcDbBlockBegin
  2
*Paper_Space0
 70
     0
 10
0.0
 20
0.0
 30
0.0
  3
*Paper_Space0
  1

  0
ENDBLK
  5
76
330
74
100
AcDbEntity
 67
     1
  8
0
100
AcDbBlockEnd
  0
BLOCK
  5
10F
330
109
100
AcDbEntity
  8
0
100
AcDbBlockBegin
  2
FP Timber Nog Packer1 - Variable-173500-W-TRSIL-21-V - Handrail End Fixing Detail
 70
     0
 10
0.0
 20
0.0
 30
0.0
  3
FP Timber Nog Packer1 - Variable-173500-W-TRSIL-21-V - Handrail End Fixing Detail
  1

  0
LINE
  5
10A
330
109
100
AcDbEntity
  8
A-DETL-GENF
100
AcDbLine
 10
190.0000000000004
 20
-19.99999999999973
 30
0.0
 11
190.0000000000004
 21
24.99999999999865
 31
0.0
1001
REVIT
1002
{
1070
     3
1000
16257
1002
}
  0
LINE
  5
10B
330
109
100
AcDbEntity
  8
A-DETL-GENF
100
AcDbLine
 10
190.0000000000004
 20
24.99999999999865
 30
0.0
 11
0.0
 21
24.99999999999865
 31
0.0
1001
REVIT
1002
{
1070
     3
1000
16257
1002
}
  0
LINE
  5
10C
330
109
100
AcDbEntity
  8
A-DETL-GENF
100
AcDbLine
 10
0.0
 20
24.99999999999865
 30
0.0
 11
0.0
 21
-19.99999999999973
 31
0.0
1001
REVIT
1002
{
1070
     3
1000
16257
1002
}
  0
LINE
  5
10D
330
109
100
AcDbEntity
  8
A-DETL-GENF
100
AcDbLine
 10
0.0
 20
-19.99999999999973
 30
0.0
 11
190.0000000000004
 21
-19.99999999999973
 31
0.0
1001
REVIT
1002
{
1070
     3
1000
16257
1002
}
  0
LINE
  5
10E
330
109
100
AcDbEntity
  8
A-DETL-GENF
100
AcDbLine
 10
-0.0000000000005245
 20
-19.99999999999973
 30
0.0
 11
190.0000000000004
 21
24.99999999999866
 31
0.0
1001
REVIT
1002
{
1070
     3
1000
16362
1002
}
  0
ENDBLK
  5
110
330
109
100
AcDbEntity
  8
0
100
AcDbBlockEnd
  0
BLOCK
  5
126
330
123
100
AcDbEntity
  8
0
100
AcDbBlockBegin
  2
HP_WProof - Building Wrap - HP_WProof - Building Wrap-130950-W-TRSIL-21-V - Handrail End Fixing Detail
 70
     0
 10
0.0
 20
0.0
 30
0.0
  3
HP_WProof - Building Wrap - HP_WProof - Building Wrap-130950-W-TRSIL-21-V - Handrail End Fixing Detail
  1

  0
LINE
  5
125
330
123
100
AcDbEntity
  8
A-DETL-GENF
100
AcDbLine
 10
0.0
 20
-606.6603547904601
 30
0.0
 11
0.0
 21
-35.00000000000016
 31
0.0
1001
REVIT
1002
{
1070
     3
1000
16110
1002
}
  0
ENDBLK
  5
127
330
123
100
AcDbEntity
  8
0
100
AcDbBlockEnd
  0
BLOCK
  5
12F
330
129
100
AcDbEntity
  8
0
100
AcDbBlockBegin
  2
FP - Break Line - FP - Break Line-168850-W-TRSIL-21-V - Handrail End Fixing Detail
 70
     0
 10
0.0
 20
0.0
 30
0.0
  3
FP - Break Line - FP - Break Line-168850-W-TRSIL-21-V - Handrail End Fixing Detail
  1

  0
LINE
  5
12A
330
129
100
AcDbEntity
  8
A-DETL-GENF
100
AcDbLine
 10
-9.99999999999996
 20
-0.0000000000045937
 30
0.0
 11
-104.4718017474315
 21
-0.0000000000045937
 31
0.0
1001
REVIT
1002
{
1070
     3
1000
15798
1002
}
  0
LINE
  5
12B
330
129
100
AcDbEntity
  8
A-DETL-GENF
100
AcDbLine
 10
99.13373258924183
 20
-0.0000000000045937
 30
0.0
 11
10.00000000000003
 21
-0.0000000000045937
 31
0.0
1001
REVIT
1002
{
1070
     3
1000
15798
1002
}
  0
LINE
  5
12C
330
129
100
AcDbEntity
  8
A-DETL-GENF
100
AcDbLine
 10
10.00000000000003
 20
-0.0000000000045937
 30
0.0
 11
5.000000000000523
 21
19.99999999999498
 31
0.0
1001
REVIT
1002
{
1070
     3
1000
15798
1002
}
  0
LINE
  5
12D
330
129
100
AcDbEntity
  8
A-DETL-GENF
100
AcDbLine
 10
5.000000000000523
 20
19.99999999999498
 30
0.0
 11
-4.999999999999864
 21
-20.00000000000462
 31
0.0
1001
REVIT
1002
{
1070
     3
1000
15798
1002
}
  0
LINE
  5
12E
330
129
100
AcDbEntity
  8
A-DETL-GENF
100
AcDbLine
 10
-4.999999999999864
 20
-20.00000000000462
 30
0.0
 11
-9.999999999999957
 21
-0.0000000000045937
 31
0.0
1001
REVIT
1002
{
1070
     3
1000
15798
1002
}
  0
ENDBLK
  5
130
330
129
100
AcDbEntity
  8
0
100
AcDbBlockEnd
  0
BLOCK
  5
138
330
132
100
AcDbEntity
  8
0
100
AcDbBlockBegin
  2
FP - Break Line - FP - Break Line-168802-W-TRSIL-21-V - Handrail End Fixing Detail
 70
     0
 10
0.0
 20
0.0
 30
0.0
  3
FP - Break Line - FP - Break Line-168802-W-TRSIL-21-V - Handrail End Fixing Detail
  1

  0
LINE
  5
133
330
132
100
AcDbEntity
  8
A-DETL-GENF
100
AcDbLine
 10
-9.999999999999957
 20
0.0000000000045937
 30
0.0
 11
-4.999999999999864
 21
20.00000000000462
 31
0.0
1001
REVIT
1002
{
1070
     3
1000
15798
1002
}
  0
LINE
  5
134
330
132
100
AcDbEntity
  8
A-DETL-GENF
100
AcDbLine
 10
-4.999999999999862
 20
20.00000000000462
 30
0.0
 11
5.000000000000524
 21
-19.99999999999498
 31
0.0
1001
REVIT
1002
{
1070
     3
1000
15798
1002
}
  0
LINE
  5
135
330
132
100
AcDbEntity
  8
A-DETL-GENF
100
AcDbLine
 10
5.000000000000523
 20
-19.99999999999498
 30
0.0
 11
10.00000000000003
 21
0.0000000000045937
 31
0.0
1001
REVIT
1002
{
1070
     3
1000
15798
1002
}
  0
LINE
  5
136
330
132
100
AcDbEntity
  8
A-DETL-GENF
100
AcDbLine
 10
10.00000000000003
 20
0.0000000000045937
 30
0.0
 11
100.3208217918218
 21
0.0000000000045937
 31
0.0
1001
REVIT
1002
{
1070
     3
1000
15798
1002
}
  0
LINE
  5
137
330
132
100
AcDbEntity
  8
A-DETL-GENF
100
AcDbLine
 10
-100.1597755094902
 20
0.0000000000045937
 30
0.0
 11
-9.99999999999996
 21
0.0000000000045937
 31
0.0
1001
REVIT
1002
{
1070
     3
1000
15798
1002
}
  0
ENDBLK
  5
139
330
132
100
AcDbEntity
  8
0
100
AcDbBlockEnd
  0
BLOCK
  5
171
330
16B
100
AcDbEntity
  8
0
100
AcDbBlockBegin
  2
4811_Air Seal w Foam - Airseal on PEF Backing Rod-172310-W-TRSIL-21-V - Handrail End Fixing Detail
 70
     0
 10
0.0
 20
0.0
 30
0.0
  3
4811_Air Seal w Foam - Airseal on PEF Backing Rod-172310-W-TRSIL-21-V - Handrail End Fixing Detail
  1

  0
SPLINE
  5
16C
330
16B
100
AcDbEntity
  8
A-DETL-GENF
100
AcDbSpline
210
0.0
220
0.0
230
1.0
 70
     8
 71
     3
 72
    16
 73
    12
 74
     0
 42
0.000000001
 43
0.0000000001
 40
0.0
 40
0.0
 40
0.0
 40
0.0
 40
0.1428571428571428
 40
0.2142857142857143
 40
0.2857142857142857
 40
0.4285714285714286
 40
0.5714285714285714
 40
0.6785714285714287
 40
0.7857142857142857
 40
0.8928571428571427
 40
1.0
 40
1.0
 40
1.0
 40
1.0
 10
-7.382609818164556
 20
1.909672018805781
 30
0.0
 10
-7.078476487026069
 20
1.90863997084733
 30
0.0
 10
-6.636047492229181
 20
1.783587152330419
 30
0.0
 10
-6.124955703730829
 20
1.388507884685239
 30
0.0
 10
-5.699260000961919
 20
0.8644864122130858
 30
0.0
 10
-5.366084271114546
 20
0.0137321402523586
 30
0.0
 10
-5.366274443056698
 20
-1.025232265633406
 30
0.0
 10
-5.657219724577936
 20
-1.888095580773097
 30
0.0
 10
-6.111321959995994
 20
-2.515142538231339
 30
0.0
 10
-6.711273722120129
 20
-2.921917277314856
 30
0.0
 10
-7.154509819810688
 20
-3.014938375590633
 30
0.0
 10
-7.382609818164551
 20
-3.015712411559474
 30
0.0
1001
REVIT
1002
{
1070
     3
1000
19822
1002
}
  0
LINE
  5
16D
330
16B
100
AcDbEntity
  8
A-DETL-GENF
100
AcDbLine
 10
-7.38260981816457
 20
-3.015712411559474
 30
0.0
 11
2.140447502535513
 21
-3.015712411559474
 31
0.0
1001
REVIT
1002
{
1070
     3
1000
19822
1002
}
  0
LINE
  5
16E
330
16B
100
AcDbEntity
  8
A-DETL-GENF
100
AcDbLine
 10
2.14044750253562
 20
1.909672018805781
 30
0.0
 11
-7.382609818164537
 21
1.909672018805781
 31
0.0
1001
REVIT
1002
{
1070
     3
1000
19822
1002
}
  0
SPLINE
  5
16F
330
16B
100
AcDbEntity
  8
A-DETL-GENF
100
AcDbSpline
210
0.0
220
0.0
230
1.0
 70
     8
 71
     3
 72
    18
 73
    14
 74
     0
 42
0.000000001
 43
0.0000000001
 40
0.0
 40
0.0
 40
0.0
 40
0.0
 40
0.1538461538461539
 40
0.2307692307692308
 40
0.3076923076923077
 40
0.3846153846153846
 40
0.4615384615384616
 40
0.5384615384615385
 40
0.6153846153846155
 40
0.7115384615384616
 40
0.8076923076923076
 40
0.9038461538461538
 40
1.0
 40
1.0
 40
1.0
 40
1.0
 10
2.784631640602368
 20
1.938367881192022
 30
0.0
 10
2.342696335027721
 20
1.936965432379606
 30
0.0
 10
1.703006850681516
 20
1.790037400462628
 30
0.0
 10
0.9818594856990699
 20
1.329932355877017
 30
0.0
 10
0.5477663428038317
 20
0.8761227824685409
 30
0.0
 10
0.2431361597086589
 20
0.3390737597469443
 30
0.0
 10
0.0863537225278412
 20
-0.2497886727647052
 30
0.0
 10
0.0863398446377491
 20
-0.8562183583620488
 30
0.0
 10
0.256247622440639
 20
-1.494369510824597
 30
0.0
 10
0.632947530664687
 20
-2.112290499067498
 30
0.0
 10
1.231494211300809
 20
-2.634626734130548
 30
0.0
 10
1.974977305174366
 20
-2.968578286348217
 30
0.0
 10
2.508422074618138
 20
-3.043531743437998
 30
0.0
 10
2.784631640602292
 20
-3.044408273945766
 30
0.0
1001
REVIT
1002
{
1070
     3
1000
19822
1002
}
  0
SPLINE
  5
170
330
16B
100
AcDbEntity
  8
A-DETL-GENF
100
AcDbSpline
210
0.0
220
0.0
230
1.0
 70
     8
 71
     3
 72
    18
 73
    14
 74
     0
 42
0.000000001
 43
0.0000000001
 40
0.0
 40
0.0
 40
0.0
 40
0.0
 40
0.1538461538461539
 40
0.2307692307692308
 40
0.3076923076923077
 40
0.3846153846153846
 40
0.4615384615384616
 40
0.5384615384615385
 40
0.6153846153846155
 40
0.7115384615384616
 40
0.8076923076923076
 40
0.9038461538461538
 40
1.0
 40
1.0
 40
1.0
 40
1.0
 10
2.784631640602309
 20
-3.044408273945766
 30
0.0
 10
3.226566946176957
 20
-3.043005825133347
 30
0.0
 10
3.86625643052316
 20
-2.896077793216368
 30
0.0
 10
4.587403795505606
 20
-2.435972748630757
 30
0.0
 10
5.021496938400843
 20
-1.982163175222276
 30
0.0
 10
5.326127121496012
 20
-1.44511415250068
 30
0.0
 10
5.482909558676828
 20
-0.8562517199890301
 30
0.0
 10
5.482923436566917
 20
-0.249822034391686
 30
0.0
 10
5.313015658764027
 20
0.388329118070861
 30
0.0
 10
4.936315750539975
 20
1.006250106313761
 30
0.0
 10
4.337769069903852
 20
1.528586341376809
 30
0.0
 10
3.594285976030295
 20
1.862537893594475
 30
0.0
 10
3.060841206586523
 20
1.937491350684255
 30
0.0
 10
2.784631640602369
 20
1.938367881192022
 30
0.0
1001
REVIT
1002
{
1070
     3
1000
19822
1002
}
  0
ENDBLK
  5
172
330
16B
100
AcDbEntity
  8
0
100
AcDbBlockEnd
  0
BLOCK
  5
17C
330
174
100
AcDbEntity
  8
0
100
AcDbBlockBegin
  2
4811_Air Seal w Foam - Airseal on PEF Backing Rod-172733-W-TRSIL-21-V - Handrail End Fixing Detail
 70
     0
 10
0.0
 20
0.0
 30
0.0
  3
4811_Air Seal w Foam - Airseal on PEF Backing Rod-172733-W-TRSIL-21-V - Handrail End Fixing Detail
  1

  0
LINE
  5
175
330
174
100
AcDbEntity
  8
A-DETL-GENF
100
AcDbLine
 10
-7.382609818164537
 20
-1.909672018805781
 30
0.0
 11
2.14044750253562
 21
-1.909672018805781
 31
0.0
1001
REVIT
1002
{
1070
     3
1000
19822
1002
}
  0
LINE
  5
176
330
174
100
AcDbEntity
  8
A-DETL-GENF
100
AcDbLine
 10
2.140447502535514
 20
3.015712411559474
 30
0.0
 11
-7.382609818164568
 21
3.015712411559474
 31
0.0
1001
REVIT
1002
{
1070
     3
1000
19822
1002
}
  0
SPLINE
  5
177
330
174
100
AcDbEntity
  8
A-DETL-GENF
100
AcDbSpline
210
0.0
220
0.0
230
1.0
 70
     8
 71
     3
 72
    16
 73
    12
 74
     0
 42
0.000000001
 43
0.0000000001
 40
0.0
 40
0.0
 40
0.0
 40
0.0
 40
0.1428571428571428
 40
0.2142857142857143
 40
0.2857142857142857
 40
0.4285714285714286
 40
0.5714285714285714
 40
0.6785714285714287
 40
0.7857142857142857
 40
0.8928571428571427
 40
1.0
 40
1.0
 40
1.0
 40
1.0
 10
-7.38260981816455
 20
3.015712411559474
 30
0.0
 10
-7.078476487026064
 20
3.01468036360102
 30
0.0
 10
-6.636047492229177
 20
2.889627545084105
 30
0.0
 10
-6.124955703730826
 20
2.494548277438924
 30
0.0
 10
-5.699260000961912
 20
1.970526804966764
 30
0.0
 10
-5.366084271114555
 20
1.119772533006032
 30
0.0
 10
-5.366274443056698
 20
0.0808081271202698
 30
0.0
 10
-5.657219724577941
 20
-0.7820551880194201
 30
0.0
 10
-6.111321959995994
 20
-1.409102145477654
 30
0.0
 10
-6.711273722120134
 20
-1.815876884561169
 30
0.0
 10
-7.154509819810692
 20
-1.908897982836942
 30
0.0
 10
-7.382609818164558
 20
-1.909672018805781
 30
0.0
1001
REVIT
1002
{
1070
     3
1000
19822
1002
}
  0
SPLINE
  5
178
330
174
100
AcDbEntity
  8
A-DETL-GENF
100
AcDbSpline
210
0.0
220
0.0
230
1.0
 70
     8
 71
     3
 72
     8
 73
     4
 74
     0
 42
0.000000001
 43
0.0000000001
 40
0.0
 40
0.0
 40
0.0
 40
0.0
 40
0.0304906089955921
 40
0.0304906089955921
 40
0.0304906089955921
 40
0.0304906089955921
 10
2.784631640602368
 20
-1.938367881192022
 30
0.0
 10
2.872218338525924
 20
-1.938089931322578
 30
0.0
 10
2.959197170535045
 20
-1.934019623998451
 30
0.0
 10
3.045346676682924
 20
-1.92622299296184
 30
0.0
1001
REVIT
1002
{
1070
     3
1000
19822
1002
}
  0
SPLINE
  5
179
330
174
100
AcDbEntity
  8
A-DETL-GENF
100
AcDbSpline
210
0.0
220
0.0
230
1.0
 70
     8
 71
     3
 72
    18
 73
    14
 74
     0
 42
0.000000001
 43
0.0000000001
 40
0.0304906089955921
 40
0.0304906089955921
 40
0.0304906089955921
 40
0.0304906089955921
 40
0.1538461538461539
 40
0.2307692307692308
 40
0.3076923076923077
 40
0.3846153846153846
 40
0.4615384615384616
 40
0.5384615384615385
 40
0.6153846153846155
 40
0.7115384615384616
 40
0.8076923076923076
 40
0.9038461538461538
 40
1.0
 40
1.0
 40
1.0
 40
1.0
 10
3.045346676682924
 20
-1.92622299296184
 30
0.0
 10
3.3938808522717
 20
-1.894680242547807
 30
0.0
 10
3.937718153108328
 20
-1.74444353067568
 30
0.0
 10
4.587403795505649
 20
-1.329932355876972
 30
0.0
 10
5.021496938400877
 20
-0.8761227824684819
 30
0.0
 10
5.326127121496035
 20
-0.339073759746877
 30
0.0
 10
5.482909558676839
 20
0.2497886727647752
 30
0.0
 10
5.48292343656691
 20
0.8562183583621189
 30
0.0
 10
5.313015658764
 20
1.494369510824662
 30
0.0
 10
4.936315750539938
 20
2.112290499067554
 30
0.0
 10
4.337769069903805
 20
2.63462673413059
 30
0.0
 10
3.594285976030239
 20
2.968578286348236
 30
0.0
 10
3.060841206586463
 20
3.043531743438005
 30
0.0
 10
2.78463164060231
 20
3.044408273945766
 30
0.0
1001
REVIT
1002
{
1070
     3
1000
19822
1002
}
  0
SPLINE
  5
17A
330
174
100
AcDbEntity
  8
A-DETL-GENF
100
AcDbSpline
210
0.0
220
0.0
230
1.0
 70
     8
 71
     3
 72
     8
 73
     4
 74
     0
 42
0.000000001
 43
0.0000000001
 40
0.9695093910043192
 40
0.9695093910043192
 40
0.9695093910043192
 40
0.9695093910043192
 40
1.0
 40
1.0
 40
1.0
 40
1.0
 10
2.524732195506972
 20
-1.926482950300135
 30
0.0
 10
2.61041221773529
 20
-1.934131689167707
 30
0.0
 10
2.697044942678557
 20
-1.938089931322579
 30
0.0
 10
2.784631640602368
 20
-1.938367881192022
 30
0.0
1001
REVIT
1002
{
1070
     3
1000
19822
1002
}
  0
SPLINE
  5
17B
330
174
100
AcDbEntity
  8
A-DETL-GENF
100
AcDbSpline
210
0.0
220
0.0
230
1.0
 70
     8
 71
     3
 72
    18
 73
    14
 74
     0
 42
0.000000001
 43
0.0000000001
 40
0.0
 40
0.0
 40
0.0
 40
0.0
 40
0.1538461538461539
 40
0.2307692307692308
 40
0.3076923076923077
 40
0.3846153846153846
 40
0.4615384615384616
 40
0.5384615384615385
 40
0.6153846153846155
 40
0.7115384615384616
 40
0.8076923076923076
 40
0.9038461538461538
 40
0.9695093910043192
 40
0.9695093910043192
 40
0.9695093910043192
 40
0.9695093910043192
 10
2.784631640602292
 20
3.044408273945766
 30
0.0
 10
2.342696335027645
 20
3.043005825133338
 30
0.0
 10
1.703006850681445
 20
2.896077793216339
 30
0.0
 10
0.9818594856990127
 20
2.435972748630711
 30
0.0
 10
0.5477663428037869
 20
1.98216317522222
 30
0.0
 10
0.2431361597086308
 20
1.445114152500613
 30
0.0
 10
0.0863537225278313
 20
0.8562517199889594
 30
0.0
 10
0.086339844637759
 20
0.2498220343916162
 30
0.0
 10
0.2562476224406681
 20
-0.388329118070928
 30
0.0
 10
0.632947530664735
 20
-1.006250106313817
 30
0.0
 10
1.231494211300872
 20
-1.528586341376849
 30
0.0
 10
1.89639056383242
 20
-1.827238954760311
 30
0.0
 10
2.34021546053156
 20
-1.910010962013728
 30
0.0
 10
2.524732195506973
 20
-1.926482950300135
 30
0.0
1001
REVIT
1002
{
1070
     3
1000
19822
1002
}
  0
ENDBLK
  5
17D
330
174
100
AcDbEntity
  8
0
100
AcDbBlockEnd
  0
BLOCK
  5
196
330
190
100
AcDbEntity
  8
0
100
AcDbBlockBegin
  2
FP Timber Nog Packer1 - Variable-216047-W-TRSIL-21-V - Handrail End Fixing Detail
 70
     0
 10
0.0
 20
0.0
 30
0.0
  3
FP Timber Nog Packer1 - Variable-216047-W-TRSIL-21-V - Handrail End Fixing Detail
  1

  0
LINE
  5
191
330
190
100
AcDbEntity
  8
A-DETL-GENF
100
AcDbLine
 10
190.0000000000004
 20
-5.000000000000254
 30
0.0
 11
0.0
 21
-5.000000000000254
 31
0.0
1001
REVIT
1002
{
1070
     3
1000
16257
1002
}
  0
LINE
  5
192
330
190
100
AcDbEntity
  8
A-DETL-GENF
100
AcDbLine
 10
0.0
 20
-5.000000000000254
 30
0.0
 11
0.0
 21
-24.99999999999865
 31
0.0
1001
REVIT
1002
{
1070
     3
1000
16257
1002
}
  0
LINE
  5
193
330
190
100
AcDbEntity
  8
A-DETL-GENF
100
AcDbLine
 10
0.0
 20
-24.99999999999865
 30
0.0
 11
190.0000000000004
 21
-24.99999999999865
 31
0.0
1001
REVIT
1002
{
1070
     3
1000
16257
1002
}
  0
LINE
  5
194
330
190
100
AcDbEntity
  8
A-DETL-GENF
100
AcDbLine
 10
190.0000000000004
 20
-24.99999999999865
 30
0.0
 11
190.0000000000004
 21
-5.000000000000254
 31
0.0
1001
REVIT
1002
{
1070
     3
1000
16257
1002
}
  0
LINE
  5
195
330
190
100
AcDbEntity
  8
A-DETL-GENF
100
AcDbLine
 10
-0.0000000000005245
 20
-5.000000000000254
 30
0.0
 11
190.0000000000004
 21
-24.99999999999865
 31
0.0
1001
REVIT
1002
{
1070
     3
1000
16362
1002
}
  0
ENDBLK
  5
197
330
190
100
AcDbEntity
  8
0
100
AcDbBlockEnd
  0
BLOCK
  5
1D4
330
199
100
AcDbEntity
  8
0
100
AcDbBlockBegin
  2
Hex head timberfix screw_long - Hex head timberfix screw_long-161035-W-TRSIL-21-V - Handrail End Fixing Detail
 70
     0
 10
0.0
 20
0.0
 30
0.0
  3
Hex head timberfix screw_long - Hex head timberfix screw_long-161035-W-TRSIL-21-V - Handrail End Fixing Detail
  1

  0
HATCH
  5
19E
330
199
100
AcDbEntity
  8
A-DETL-GENF
100
AcDbHatch
 10
0.0
 20
0.0
 30
0.0
210
0.0
220
0.0
230
1.0
  2
SOLID
 70
     1
 71
     0
 91
        1
 92
        0
 93
        4
 72
     1
 10
-5.46962499999486
 20
-2.500000000003086
 11
5.469625000000951
 21
-2.500000000003086
 72
     1
 10
5.469625000000951
 20
-2.500000000003086
 11
5.469625000000951
 21
-0.0000000000029781
 72
     1
 10
5.469625000000951
 20
-0.0000000000029779
 11
-5.46962499999486
 21
-0.0000000000029779
 72
     1
 10
-5.46962499999486
 20
-0.0000000000029779
 11
-5.46962499999486
 21
-2.500000000003086
 97
        0
 75
     0
 76
     1
 98
        1
 10
0.0
 20
0.0
450
        0
451
        0
460
0.0
461
0.0
452
        0
462
0.0
453
        0
470

  0
ARC
  5
19F
330
199
100
AcDbEntity
  8
A-DETL-GENF
100
AcDbCircle
 10
0.0
 20
-0.5603125000006949
 30
0.0
 40
7.57968749999999
100
AcDbArc
 50
253.7397952917188
 51
264.3213665317269
1001
REVIT
1002
{
1070
     3
1000
15798
1002
}
  0
ARC
  5
1A0
330
199
100
AcDbEntity
  8
A-DETL-GENF
100
AcDbCircle
 10
3.183468750001337
 20
-6.131382812501231
 30
0.0
 40
2.008617187499675
100
AcDbArc
 50
238.1092081981278
 51
301.8907918017845
1001
REVIT
1002
{
1070
     3
1000
15798
1002
}
  0
ARC
  5
1A1
330
199
100
AcDbEntity
  8
A-DETL-GENF
100
AcDbCircle
 10
-3.183468750001341
 20
-6.131382812500318
 30
0.0
 40
2.008617187499676
100
AcDbArc
 50
238.1092081983369
 51
301.8907918018379
1001
REVIT
1002
{
1070
     3
1000
15798
1002
}
  0
ARC
  5
1A2
330
199
100
AcDbEntity
  8
A-DETL-GENF
100
AcDbCircle
 10
0.0
 20
-0.5603125000006949
 30
0.0
 40
7.579687499999996
100
AcDbArc
 50
275.6786334682731
 51
286.2602047083174
1001
REVIT
1002
{
1070
     3
1000
15798
1002
}
  0
LINE
  5
1A3
330
199
100
AcDbEntity
  8
A-DETL-GENF
100
AcDbLine
 10
3.183468750001337
 20
-8.140000000000341
 30
0.0
 11
0.7499999999999987
 21
-8.140000000000341
 31
0.0
1001
REVIT
1002
{
1070
     3
1000
15798
1002
}
  0
LINE
  5
1A4
330
199
100
AcDbEntity
  8
A-DETL-GENF
100
AcDbLine
 10
0.7499999999999987
 20
-8.140000000000341
 30
0.0
 11
0.7499999999999987
 21
-6.589999999999239
 31
0.0
1001
REVIT
1002
{
1070
     3
1000
15798
1002
}
  0
LINE
  5
1A5
330
199
100
AcDbEntity
  8
A-DETL-GENF
100
AcDbLine
 10
0.7499999999999987
 20
-6.589999999999239
 30
0.0
 11
-0.7500000000000029
 21
-6.589999999999239
 31
0.0
1001
REVIT
1002
{
1070
     3
1000
15798
1002
}
  0
LINE
  5
1A6
330
199
100
AcDbEntity
  8
A-DETL-GENF
100
AcDbLine
 10
-0.7500000000000029
 20
-6.589999999999239
 30
0.0
 11
-0.7500000000000029
 21
-8.139999999999428
 31
0.0
1001
REVIT
1002
{
1070
     3
1000
15798
1002
}
  0
LINE
  5
1A7
330
199
100
AcDbEntity
  8
A-DETL-GENF
100
AcDbLine
 10
-0.7500000000000029
 20
-8.139999999999428
 30
0.0
 11
-3.183468750001341
 21
-8.139999999999428
 31
0.0
1001
REVIT
1002
{
1070
     3
1000
15798
1002
}
  0
LINE
  5
1A8
330
199
100
AcDbEntity
  8
A-DETL-GENF
100
AcDbLine
 10
4.244624999999357
 20
-7.836812500002085
 30
0.0
 11
4.244624999999357
 21
-4.375000000000003
 31
0.0
1001
REVIT
1002
{
1070
     3
1000
15798
1002
}
  0
LINE
  5
1A9
330
199
100
AcDbEntity
  8
A-DETL-GENF
100
AcDbLine
 10
4.244624999999357
 20
-4.375000000000003
 30
0.0
 11
5.469625000001539
 21
-4.02500000000054
 31
0.0
1001
REVIT
1002
{
1070
     3
1000
15798
1002
}
  0
LINE
  5
1AA
330
199
100
AcDbEntity
  8
A-DETL-GENF
100
AcDbLine
 10
5.469625000001539
 20
-4.02500000000054
 30
0.0
 11
5.469625000001539
 21
-3.000000000000011
 31
0.0
1001
REVIT
1002
{
1070
     3
1000
15798
1002
}
  0
LINE
  5
1AB
330
199
100
AcDbEntity
  8
A-DETL-GENF
100
AcDbLine
 10
5.469625000001539
 20
-3.000000000000011
 30
0.0
 11
-5.469624999997906
 21
-3.000000000000011
 31
0.0
1001
REVIT
1002
{
1070
     3
1000
15798
1002
}
  0
LINE
  5
1AC
330
199
100
AcDbEntity
  8
A-DETL-GENF
100
AcDbLine
 10
-5.469624999997906
 20
-3.000000000000011
 30
0.0
 11
-5.469624999997906
 21
-4.024999999999643
 31
0.0
1001
REVIT
1002
{
1070
     3
1000
15798
1002
}
  0
LINE
  5
1AD
330
199
100
AcDbEntity
  8
A-DETL-GENF
100
AcDbLine
 10
-5.469624999997906
 20
-4.024999999999643
 30
0.0
 11
-4.244624999993025
 21
-4.375000000000003
 31
0.0
1001
REVIT
1002
{
1070
     3
1000
15798
1002
}
  0
LINE
  5
1AE
330
199
100
AcDbEntity
  8
A-DETL-GENF
100
AcDbLine
 10
4.244624999999357
 20
-4.375000000000003
 30
0.0
 11
-4.244624999993023
 21
-4.375000000000003
 31
0.0
1001
REVIT
1002
{
1070
     3
1000
15798
1002
}
  0
LINE
  5
1AF
330
199
100
AcDbEntity
  8
A-DETL-GENF
100
AcDbLine
 10
-4.244624999995723
 20
-4.375000000000003
 30
0.0
 11
-4.244624999995723
 21
-7.836812500003434
 31
0.0
1001
REVIT
1002
{
1070
     3
1000
15798
1002
}
  0
LINE
  5
1B0
330
199
100
AcDbEntity
  8
A-DETL-GENF
100
AcDbLine
 10
2.12231249999968
 20
-4.375000000000003
 30
0.0
 11
2.12231249999968
 21
-7.83681249999982
 31
0.0
1001
REVIT
1002
{
1070
     3
1000
15798
1002
}
  0
LINE
  5
1B1
330
199
100
AcDbEntity
  8
A-DETL-GENF
100
AcDbLine
 10
-2.122312499996042
 20
-4.375000000000003
 30
0.0
 11
-2.122312499996042
 21
-7.836812500001842
 31
0.0
1001
REVIT
1002
{
1070
     3
1000
15798
1002
}
  0
LINE
  5
1B2
330
199
100
AcDbEntity
  8
A-DETL-GENF
100
AcDbLine
 10
-1.500000000000001
 20
42.05066079674497
 30
0.0
 11
1.499999999999997
 21
41.24681321945308
 31
0.0
1001
REVIT
1002
{
1070
     3
1000
15798
1002
}
  0
LINE
  5
1B3
330
199
100
AcDbEntity
  8
A-DETL-GENF
100
AcDbLine
 10
-1.500000000000001
 20
-3.000000000000011
 30
0.0
 11
-1.500000000000001
 21
83.13325532313628
 31
0.0
1001
REVIT
1002
{
1070
     3
1000
15798
1002
}
  0
LINE
  5
1B4
330
199
100
AcDbEntity
  8
A-DETL-GENF
100
AcDbLine
 10
1.499999999999997
 20
83.13325532313653
 30
0.0
 11
1.499999999999997
 21
-3.000000000000011
 31
0.0
1001
REVIT
1002
{
1070
     3
1000
15798
1002
}
  0
LINE
  5
1B5
330
199
100
AcDbEntity
  8
A-DETL-GENF
100
AcDbLine
 10
-1.500000000000001
 20
38.83527048757332
 30
0.0
 11
1.499999999999997
 21
38.03142291027955
 31
0.0
1001
REVIT
1002
{
1070
     3
1000
15798
1002
}
  0
LINE
  5
1B6
330
199
100
AcDbEntity
  8
A-DETL-GENF
100
AcDbLine
 10
-1.500000000000001
 20
29.18909956005427
 30
0.0
 11
1.499999999999997
 21
28.38525198276146
 31
0.0
1001
REVIT
1002
{
1070
     3
1000
15798
1002
}
  0
LINE
  5
1B7
330
199
100
AcDbEntity
  8
A-DETL-GENF
100
AcDbLine
 10
-1.500000000000001
 20
25.97370925088125
 30
0.0
 11
1.499999999999997
 21
25.16986167358845
 31
0.0
1001
REVIT
1002
{
1070
     3
1000
15798
1002
}
  0
LINE
  5
1B8
330
199
100
AcDbEntity
  8
A-DETL-GENF
100
AcDbLine
 10
-1.500000000000001
 20
22.75831894170824
 30
0.0
 11
1.499999999999997
 21
21.95447136441544
 31
0.0
1001
REVIT
1002
{
1070
     3
1000
15798
1002
}
  0
LINE
  5
1B9
330
199
100
AcDbEntity
  8
A-DETL-GENF
100
AcDbLine
 10
-1.500000000000001
 20
19.54292863253522
 30
0.0
 11
1.499999999999997
 21
18.73908105524241
 31
0.0
1001
REVIT
1002
{
1070
     3
1000
15798
1002
}
  0
LINE
  5
1BA
330
199
100
AcDbEntity
  8
A-DETL-GENF
100
AcDbLine
 10
-1.500000000000002
 20
16.32753832336214
 30
0.0
 11
1.499999999999996
 21
15.5236907460694
 31
0.0
1001
REVIT
1002
{
1070
     3
1000
15798
1002
}
  0
LINE
  5
1BB
330
199
100
AcDbEntity
  8
A-DETL-GENF
100
AcDbLine
 10
-1.500000000000001
 20
13.11214801418919
 30
0.0
 11
1.499999999999997
 21
12.30830043689639
 31
0.0
1001
REVIT
1002
{
1070
     3
1000
15798
1002
}
  0
LINE
  5
1BC
330
199
100
AcDbEntity
  8
A-DETL-GENF
100
AcDbLine
 10
-1.500000000000001
 20
9.896757705017076
 30
0.0
 11
1.499999999999997
 21
9.092910127723365
 31
0.0
1001
REVIT
1002
{
1070
     3
1000
15798
1002
}
  0
LINE
  5
1BD
330
199
100
AcDbEntity
  8
A-DETL-GENF
100
AcDbLine
 10
-1.500000000000001
 20
6.681367395843151
 30
0.0
 11
1.499999999999997
 21
5.877519818550356
 31
0.0
1001
REVIT
1002
{
1070
     3
1000
15798
1002
}
  0
LINE
  5
1BE
330
199
100
AcDbEntity
  8
A-DETL-GENF
100
AcDbLine
 10
-1.500000000000001
 20
3.465977086671038
 30
0.0
 11
1.499999999999997
 21
2.662129509377329
 31
0.0
1001
REVIT
1002
{
1070
     3
1000
15798
1002
}
  0
LINE
  5
1BF
330
199
100
AcDbEntity
  8
A-DETL-GENF
100
AcDbLine
 10
-1.500000000000001
 20
0.2505867774980286
 30
0.0
 11
1.499999999999999
 21
-0.5532607997956812
 31
0.0
1001
REVIT
1002
{
1070
     3
1000
15798
1002
}
  0
LINE
  5
1C0
330
199
100
AcDbEntity
  8
A-DETL-GENF
100
AcDbLine
 10
-1.500000000000002
 20
35.61988017839933
 30
0.0
 11
1.499999999999996
 21
34.8160326011075
 31
0.0
1001
REVIT
1002
{
1070
     3
1000
15798
1002
}
  0
LINE
  5
1C1
330
199
100
AcDbEntity
  8
A-DETL-GENF
100
AcDbLine
 10
-1.500000000000001
 20
32.40448986922729
 30
0.0
 11
1.499999999999997
 21
31.60064229193449
 31
0.0
1001
REVIT
1002
{
1070
     3
1000
15798
1002
}
  0
LINE
  5
1C2
330
199
100
AcDbEntity
  8
A-DETL-GENF
100
AcDbLine
 10
-1.183643930274868
 20
48.39667406168699
 30
0.0
 11
1.499999999999996
 21
47.67759383779768
 31
0.0
1001
REVIT
1002
{
1070
     3
1000
15798
1002
}
  0
LINE
  5
1C3
330
199
100
AcDbEntity
  8
A-DETL-GENF
100
AcDbLine
 10
-1.500000000000002
 20
45.26605110591747
 30
0.0
 11
1.499999999999996
 21
44.46220352862564
 31
0.0
1001
REVIT
1002
{
1070
     3
1000
15798
1002
}
  0
LINE
  5
1C4
330
199
100
AcDbEntity
  8
A-DETL-GENF
100
AcDbLine
 10
-1.500000000000002
 20
77.41995419764641
 30
0.0
 11
1.499999999999999
 21
76.6161066203545
 31
0.0
1001
REVIT
1002
{
1070
     3
1000
15798
1002
}
  0
LINE
  5
1C5
330
199
100
AcDbEntity
  8
A-DETL-GENF
100
AcDbLine
 10
-1.500000000000003
 20
83.13325532313628
 30
0.0
 11
-0.0000000000035807
 21
86.13325532313732
 31
0.0
1001
REVIT
1002
{
1070
     3
1000
15798
1002
}
  0
LINE
  5
1C6
330
199
100
AcDbEntity
  8
A-DETL-GENF
100
AcDbLine
 10
-0.0000000000035805
 20
86.13325532313732
 30
0.0
 11
1.499999999999995
 21
83.13325532313653
 31
0.0
1001
REVIT
1002
{
1070
     3
1000
15798
1002
}
  0
LINE
  5
1C7
330
199
100
AcDbEntity
  8
A-DETL-GENF
100
AcDbLine
 10
-1.5
 20
67.77378327012865
 30
0.0
 11
1.499999999999998
 21
66.96993569283488
 31
0.0
1001
REVIT
1002
{
1070
     3
1000
15798
1002
}
  0
LINE
  5
1C8
330
199
100
AcDbEntity
  8
A-DETL-GENF
100
AcDbLine
 10
-1.500000000000003
 20
64.55839296095465
 30
0.0
 11
1.499999999999996
 21
63.75454538366283
 31
0.0
1001
REVIT
1002
{
1070
     3
1000
15798
1002
}
  0
LINE
  5
1C9
330
199
100
AcDbEntity
  8
A-DETL-GENF
100
AcDbLine
 10
-1.500000000000001
 20
48.48144141509147
 30
0.0
 11
1.499999999999997
 21
47.67759383779867
 31
0.0
1001
REVIT
1002
{
1070
     3
1000
15798
1002
}
  0
LINE
  5
1CA
330
199
100
AcDbEntity
  8
A-DETL-GENF
100
AcDbLine
 10
-1.183643930274812
 20
83.76596746258838
 30
0.0
 11
1.549864636799448
 21
83.03352604953783
 31
0.0
1001
REVIT
1002
{
1070
     3
1000
15798
1002
}
  0
LINE
  5
1CB
330
199
100
AcDbEntity
  8
A-DETL-GENF
100
AcDbLine
 10
-1.5
 20
80.63534450681888
 30
0.0
 11
1.499999999999998
 21
79.83149692952705
 31
0.0
1001
REVIT
1002
{
1070
     3
1000
15798
1002
}
  0
LINE
  5
1CC
330
199
100
AcDbEntity
  8
A-DETL-GENF
100
AcDbLine
 10
-1.5
 20
51.69683172426408
 30
0.0
 11
1.499999999999996
 21
50.89298414697219
 31
0.0
1001
REVIT
1002
{
1070
     3
1000
15798
1002
}
  0
LINE
  5
1CD
330
199
100
AcDbEntity
  8
A-DETL-GENF
100
AcDbLine
 10
-1.183643930274853
 20
58.0428449892061
 30
0.0
 11
1.500000000000011
 21
57.3237647653168
 31
0.0
1001
REVIT
1002
{
1070
     3
1000
15798
1002
}
  0
LINE
  5
1CE
330
199
100
AcDbEntity
  8
A-DETL-GENF
100
AcDbLine
 10
-1.500000000000001
 20
54.91222203343657
 30
0.0
 11
1.499999999999995
 21
54.10837445614475
 31
0.0
1001
REVIT
1002
{
1070
     3
1000
15798
1002
}
  0
LINE
  5
1CF
330
199
100
AcDbEntity
  8
A-DETL-GENF
100
AcDbLine
 10
-1.5
 20
58.12761234261056
 30
0.0
 11
1.500000000000012
 21
57.32376476531777
 31
0.0
1001
REVIT
1002
{
1070
     3
1000
15798
1002
}
  0
LINE
  5
1D0
330
199
100
AcDbEntity
  8
A-DETL-GENF
100
AcDbLine
 10
-1.183643930274848
 20
61.25823529837912
 30
0.0
 11
1.500000000000017
 21
60.53915507448981
 31
0.0
1001
REVIT
1002
{
1070
     3
1000
15798
1002
}
  0
LINE
  5
1D1
330
199
100
AcDbEntity
  8
A-DETL-GENF
100
AcDbLine
 10
-1.5
 20
61.34300265178359
 30
0.0
 11
1.500000000000018
 21
60.5391550744908
 31
0.0
1001
REVIT
1002
{
1070
     3
1000
15798
1002
}
  0
LINE
  5
1D2
330
199
100
AcDbEntity
  8
A-DETL-GENF
100
AcDbLine
 10
-1.500000000000002
 20
74.20456388847274
 30
0.0
 11
1.499999999999998
 21
73.40071631117895
 31
0.0
1001
REVIT
1002
{
1070
     3
1000
15798
1002
}
  0
LINE
  5
1D3
330
199
100
AcDbEntity
  8
A-DETL-GENF
100
AcDbLine
 10
-1.5
 20
70.98917357929874
 30
0.0
 11
1.499999999999996
 21
70.1853260020069
 31
0.0
1001
REVIT
1002
{
1070
     3
1000
15798
1002
}
  0
ENDBLK
  5
1D5
330
199
100
AcDbEntity
  8
0
100
AcDbBlockEnd
  0
BLOCK
  5
212
330
1D7
100
AcDbEntity
  8
0
100
AcDbBlockBegin
  2
Hex head timberfix screw_long - Hex head timberfix screw_long-219692-W-TRSIL-21-V - Handrail End Fixing Detail
 70
     0
 10
0.0
 20
0.0
 30
0.0
  3
Hex head timberfix screw_long - Hex head timberfix screw_long-219692-W-TRSIL-21-V - Handrail End Fixing Detail
  1

  0
HATCH
  5
1DC
330
1D7
100
AcDbEntity
  8
A-DETL-GENF
100
AcDbHatch
 10
0.0
 20
0.0
 30
0.0
210
0.0
220
0.0
230
1.0
  2
SOLID
 70
     1
 71
     0
 91
        1
 92
        0
 93
        4
 72
     1
 10
5.469624999994387
 20
0.0000000000031132
 11
5.469624999994387
 21
2.500000000003221
 72
     1
 10
5.469624999994387
 20
2.500000000003221
 11
-5.469625000001492
 21
2.500000000003221
 72
     1
 10
-5.469625000001493
 20
2.500000000003221
 11
-5.469625000001493
 21
0.0000000000031131
 72
     1
 10
-5.469625000001493
 20
0.0000000000031132
 11
5.469624999994386
 21
0.0000000000031132
 97
        0
 75
     0
 76
     1
 98
        1
 10
0.0
 20
0.0
450
        0
451
        0
460
0.0
461
0.0
452
        0
462
0.0
453
        0
470

  0
ARC
  5
1DD
330
1D7
100
AcDbEntity
  8
A-DETL-GENF
100
AcDbCircle
 10
0.0
 20
0.5603125000006949
 30
0.0
 40
7.57968749999999
100
AcDbArc
 50
95.67863346827278
 51
106.2602047082808
1001
REVIT
1002
{
1070
     3
1000
15798
1002
}
  0
ARC
  5
1DE
330
1D7
100
AcDbEntity
  8
A-DETL-GENF
100
AcDbCircle
 10
3.183468750001337
 20
6.131382812501231
 30
0.0
 40
2.008617187499675
100
AcDbArc
 50
58.10920819821509
 51
121.8907918018718
1001
REVIT
1002
{
1070
     3
1000
15798
1002
}
  0
ARC
  5
1DF
330
1D7
100
AcDbEntity
  8
A-DETL-GENF
100
AcDbCircle
 10
-3.183468750001341
 20
6.131382812500318
 30
0.0
 40
2.008617187499676
100
AcDbArc
 50
58.10920819816176
 51
121.8907918016627
1001
REVIT
1002
{
1070
     3
1000
15798
1002
}
  0
ARC
  5
1E0
330
1D7
100
AcDbEntity
  8
A-DETL-GENF
100
AcDbCircle
 10
0.0
 20
0.5603125000006949
 30
0.0
 40
7.579687499999996
100
AcDbArc
 50
73.73979529168228
 51
84.32136653172655
1001
REVIT
1002
{
1070
     3
1000
15798
1002
}
  0
LINE
  5
1E1
330
1D7
100
AcDbEntity
  8
A-DETL-GENF
100
AcDbLine
 10
3.183468750001337
 20
8.140000000000341
 30
0.0
 11
0.7499999999999987
 21
8.140000000000341
 31
0.0
1001
REVIT
1002
{
1070
     3
1000
15798
1002
}
  0
LINE
  5
1E2
330
1D7
100
AcDbEntity
  8
A-DETL-GENF
100
AcDbLine
 10
0.7499999999999987
 20
8.140000000000341
 30
0.0
 11
0.7499999999999987
 21
6.589999999999239
 31
0.0
1001
REVIT
1002
{
1070
     3
1000
15798
1002
}
  0
LINE
  5
1E3
330
1D7
100
AcDbEntity
  8
A-DETL-GENF
100
AcDbLine
 10
0.7499999999999987
 20
6.589999999999239
 30
0.0
 11
-0.7500000000000029
 21
6.589999999999239
 31
0.0
1001
REVIT
1002
{
1070
     3
1000
15798
1002
}
  0
LINE
  5
1E4
330
1D7
100
AcDbEntity
  8
A-DETL-GENF
100
AcDbLine
 10
-0.7500000000000029
 20
6.589999999999239
 30
0.0
 11
-0.7500000000000029
 21
8.139999999999428
 31
0.0
1001
REVIT
1002
{
1070
     3
1000
15798
1002
}
  0
LINE
  5
1E5
330
1D7
100
AcDbEntity
  8
A-DETL-GENF
100
AcDbLine
 10
-0.7500000000000029
 20
8.139999999999428
 30
0.0
 11
-3.183468750001341
 21
8.139999999999428
 31
0.0
1001
REVIT
1002
{
1070
     3
1000
15798
1002
}
  0
LINE
  5
1E6
330
1D7
100
AcDbEntity
  8
A-DETL-GENF
100
AcDbLine
 10
4.244624999999357
 20
7.836812500002085
 30
0.0
 11
4.244624999999357
 21
4.375000000000003
 31
0.0
1001
REVIT
1002
{
1070
     3
1000
15798
1002
}
  0
LINE
  5
1E7
330
1D7
100
AcDbEntity
  8
A-DETL-GENF
100
AcDbLine
 10
4.244624999999357
 20
4.375000000000003
 30
0.0
 11
5.469625000001539
 21
4.02500000000054
 31
0.0
1001
REVIT
1002
{
1070
     3
1000
15798
1002
}
  0
LINE
  5
1E8
330
1D7
100
AcDbEntity
  8
A-DETL-GENF
100
AcDbLine
 10
5.469625000001539
 20
4.02500000000054
 30
0.0
 11
5.469625000001539
 21
3.000000000000011
 31
0.0
1001
REVIT
1002
{
1070
     3
1000
15798
1002
}
  0
LINE
  5
1E9
330
1D7
100
AcDbEntity
  8
A-DETL-GENF
100
AcDbLine
 10
5.469625000001539
 20
3.000000000000011
 30
0.0
 11
-5.469624999997906
 21
3.000000000000011
 31
0.0
1001
REVIT
1002
{
1070
     3
1000
15798
1002
}
  0
LINE
  5
1EA
330
1D7
100
AcDbEntity
  8
A-DETL-GENF
100
AcDbLine
 10
-5.469624999997906
 20
3.000000000000011
 30
0.0
 11
-5.469624999997906
 21
4.024999999999643
 31
0.0
1001
REVIT
1002
{
1070
     3
1000
15798
1002
}
  0
LINE
  5
1EB
330
1D7
100
AcDbEntity
  8
A-DETL-GENF
100
AcDbLine
 10
-5.469624999997906
 20
4.024999999999643
 30
0.0
 11
-4.244624999993025
 21
4.375000000000003
 31
0.0
1001
REVIT
1002
{
1070
     3
1000
15798
1002
}
  0
LINE
  5
1EC
330
1D7
100
AcDbEntity
  8
A-DETL-GENF
100
AcDbLine
 10
4.244624999999357
 20
4.375000000000003
 30
0.0
 11
-4.244624999993023
 21
4.375000000000003
 31
0.0
1001
REVIT
1002
{
1070
     3
1000
15798
1002
}
  0
LINE
  5
1ED
330
1D7
100
AcDbEntity
  8
A-DETL-GENF
100
AcDbLine
 10
-4.244624999995723
 20
4.375000000000003
 30
0.0
 11
-4.244624999995723
 21
7.836812500003434
 31
0.0
1001
REVIT
1002
{
1070
     3
1000
15798
1002
}
  0
LINE
  5
1EE
330
1D7
100
AcDbEntity
  8
A-DETL-GENF
100
AcDbLine
 10
2.12231249999968
 20
4.375000000000003
 30
0.0
 11
2.12231249999968
 21
7.83681249999982
 31
0.0
1001
REVIT
1002
{
1070
     3
1000
15798
1002
}
  0
LINE
  5
1EF
330
1D7
100
AcDbEntity
  8
A-DETL-GENF
100
AcDbLine
 10
-2.122312499996042
 20
4.375000000000003
 30
0.0
 11
-2.122312499996042
 21
7.836812500001842
 31
0.0
1001
REVIT
1002
{
1070
     3
1000
15798
1002
}
  0
LINE
  5
1F0
330
1D7
100
AcDbEntity
  8
A-DETL-GENF
100
AcDbLine
 10
-1.500000000000001
 20
-42.05066079674497
 30
0.0
 11
1.499999999999997
 21
-41.24681321945308
 31
0.0
1001
REVIT
1002
{
1070
     3
1000
15798
1002
}
  0
LINE
  5
1F1
330
1D7
100
AcDbEntity
  8
A-DETL-GENF
100
AcDbLine
 10
-1.500000000000001
 20
3.000000000000011
 30
0.0
 11
-1.500000000000001
 21
-83.13325532313628
 31
0.0
1001
REVIT
1002
{
1070
     3
1000
15798
1002
}
  0
LINE
  5
1F2
330
1D7
100
AcDbEntity
  8
A-DETL-GENF
100
AcDbLine
 10
1.499999999999997
 20
-83.13325532313653
 30
0.0
 11
1.499999999999997
 21
3.000000000000011
 31
0.0
1001
REVIT
1002
{
1070
     3
1000
15798
1002
}
  0
LINE
  5
1F3
330
1D7
100
AcDbEntity
  8
A-DETL-GENF
100
AcDbLine
 10
-1.500000000000001
 20
-38.83527048757332
 30
0.0
 11
1.499999999999997
 21
-38.03142291027955
 31
0.0
1001
REVIT
1002
{
1070
     3
1000
15798
1002
}
  0
LINE
  5
1F4
330
1D7
100
AcDbEntity
  8
A-DETL-GENF
100
AcDbLine
 10
-1.500000000000001
 20
-29.18909956005427
 30
0.0
 11
1.499999999999997
 21
-28.38525198276146
 31
0.0
1001
REVIT
1002
{
1070
     3
1000
15798
1002
}
  0
LINE
  5
1F5
330
1D7
100
AcDbEntity
  8
A-DETL-GENF
100
AcDbLine
 10
-1.500000000000001
 20
-25.97370925088125
 30
0.0
 11
1.499999999999997
 21
-25.16986167358845
 31
0.0
1001
REVIT
1002
{
1070
     3
1000
15798
1002
}
  0
LINE
  5
1F6
330
1D7
100
AcDbEntity
  8
A-DETL-GENF
100
AcDbLine
 10
-1.500000000000001
 20
-22.75831894170824
 30
0.0
 11
1.499999999999997
 21
-21.95447136441544
 31
0.0
1001
REVIT
1002
{
1070
     3
1000
15798
1002
}
  0
LINE
  5
1F7
330
1D7
100
AcDbEntity
  8
A-DETL-GENF
100
AcDbLine
 10
-1.500000000000001
 20
-19.54292863253522
 30
0.0
 11
1.499999999999997
 21
-18.73908105524241
 31
0.0
1001
REVIT
1002
{
1070
     3
1000
15798
1002
}
  0
LINE
  5
1F8
330
1D7
100
AcDbEntity
  8
A-DETL-GENF
100
AcDbLine
 10
-1.500000000000002
 20
-16.32753832336214
 30
0.0
 11
1.499999999999996
 21
-15.5236907460694
 31
0.0
1001
REVIT
1002
{
1070
     3
1000
15798
1002
}
  0
LINE
  5
1F9
330
1D7
100
AcDbEntity
  8
A-DETL-GENF
100
AcDbLine
 10
-1.500000000000001
 20
-13.11214801418919
 30
0.0
 11
1.499999999999997
 21
-12.30830043689639
 31
0.0
1001
REVIT
1002
{
1070
     3
1000
15798
1002
}
  0
LINE
  5
1FA
330
1D7
100
AcDbEntity
  8
A-DETL-GENF
100
AcDbLine
 10
-1.500000000000001
 20
-9.896757705017076
 30
0.0
 11
1.499999999999997
 21
-9.092910127723365
 31
0.0
1001
REVIT
1002
{
1070
     3
1000
15798
1002
}
  0
LINE
  5
1FB
330
1D7
100
AcDbEntity
  8
A-DETL-GENF
100
AcDbLine
 10
-1.500000000000001
 20
-6.681367395843151
 30
0.0
 11
1.499999999999997
 21
-5.877519818550356
 31
0.0
1001
REVIT
1002
{
1070
     3
1000
15798
1002
}
  0
LINE
  5
1FC
330
1D7
100
AcDbEntity
  8
A-DETL-GENF
100
AcDbLine
 10
-1.500000000000001
 20
-3.465977086671038
 30
0.0
 11
1.499999999999997
 21
-2.662129509377329
 31
0.0
1001
REVIT
1002
{
1070
     3
1000
15798
1002
}
  0
LINE
  5
1FD
330
1D7
100
AcDbEntity
  8
A-DETL-GENF
100
AcDbLine
 10
-1.500000000000001
 20
-0.2505867774980286
 30
0.0
 11
1.499999999999999
 21
0.5532607997956812
 31
0.0
1001
REVIT
1002
{
1070
     3
1000
15798
1002
}
  0
LINE
  5
1FE
330
1D7
100
AcDbEntity
  8
A-DETL-GENF
100
AcDbLine
 10
-1.500000000000002
 20
-35.61988017839933
 30
0.0
 11
1.499999999999996
 21
-34.8160326011075
 31
0.0
1001
REVIT
1002
{
1070
     3
1000
15798
1002
}
  0
LINE
  5
1FF
330
1D7
100
AcDbEntity
  8
A-DETL-GENF
100
AcDbLine
 10
-1.500000000000001
 20
-32.40448986922729
 30
0.0
 11
1.499999999999997
 21
-31.60064229193449
 31
0.0
1001
REVIT
1002
{
1070
     3
1000
15798
1002
}
  0
LINE
  5
200
330
1D7
100
AcDbEntity
  8
A-DETL-GENF
100
AcDbLine
 10
-1.183643930274868
 20
-48.39667406168699
 30
0.0
 11
1.499999999999996
 21
-47.67759383779768
 31
0.0
1001
REVIT
1002
{
1070
     3
1000
15798
1002
}
  0
LINE
  5
201
330
1D7
100
AcDbEntity
  8
A-DETL-GENF
100
AcDbLine
 10
-1.500000000000002
 20
-45.26605110591747
 30
0.0
 11
1.499999999999996
 21
-44.46220352862564
 31
0.0
1001
REVIT
1002
{
1070
     3
1000
15798
1002
}
  0
LINE
  5
202
330
1D7
100
AcDbEntity
  8
A-DETL-GENF
100
AcDbLine
 10
-1.500000000000002
 20
-77.41995419764641
 30
0.0
 11
1.499999999999999
 21
-76.6161066203545
 31
0.0
1001
REVIT
1002
{
1070
     3
1000
15798
1002
}
  0
LINE
  5
203
330
1D7
100
AcDbEntity
  8
A-DETL-GENF
100
AcDbLine
 10
-1.500000000000003
 20
-83.13325532313628
 30
0.0
 11
-0.0000000000035807
 21
-86.13325532313732
 31
0.0
1001
REVIT
1002
{
1070
     3
1000
15798
1002
}
  0
LINE
  5
204
330
1D7
100
AcDbEntity
  8
A-DETL-GENF
100
AcDbLine
 10
-0.0000000000035805
 20
-86.13325532313732
 30
0.0
 11
1.499999999999995
 21
-83.13325532313653
 31
0.0
1001
REVIT
1002
{
1070
     3
1000
15798
1002
}
  0
LINE
  5
205
330
1D7
100
AcDbEntity
  8
A-DETL-GENF
100
AcDbLine
 10
-1.5
 20
-67.77378327012865
 30
0.0
 11
1.499999999999998
 21
-66.96993569283488
 31
0.0
1001
REVIT
1002
{
1070
     3
1000
15798
1002
}
  0
LINE
  5
206
330
1D7
100
AcDbEntity
  8
A-DETL-GENF
100
AcDbLine
 10
-1.500000000000003
 20
-64.55839296095465
 30
0.0
 11
1.499999999999996
 21
-63.75454538366283
 31
0.0
1001
REVIT
1002
{
1070
     3
1000
15798
1002
}
  0
LINE
  5
207
330
1D7
100
AcDbEntity
  8
A-DETL-GENF
100
AcDbLine
 10
-1.500000000000001
 20
-48.48144141509147
 30
0.0
 11
1.499999999999997
 21
-47.67759383779867
 31
0.0
1001
REVIT
1002
{
1070
     3
1000
15798
1002
}
  0
LINE
  5
208
330
1D7
100
AcDbEntity
  8
A-DETL-GENF
100
AcDbLine
 10
-1.183643930274812
 20
-83.76596746258838
 30
0.0
 11
1.549864636799448
 21
-83.03352604953783
 31
0.0
1001
REVIT
1002
{
1070
     3
1000
15798
1002
}
  0
LINE
  5
209
330
1D7
100
AcDbEntity
  8
A-DETL-GENF
100
AcDbLine
 10
-1.5
 20
-80.63534450681888
 30
0.0
 11
1.499999999999998
 21
-79.83149692952705
 31
0.0
1001
REVIT
1002
{
1070
     3
1000
15798
1002
}
  0
LINE
  5
20A
330
1D7
100
AcDbEntity
  8
A-DETL-GENF
100
AcDbLine
 10
-1.5
 20
-51.69683172426408
 30
0.0
 11
1.499999999999996
 21
-50.89298414697219
 31
0.0
1001
REVIT
1002
{
1070
     3
1000
15798
1002
}
  0
LINE
  5
20B
330
1D7
100
AcDbEntity
  8
A-DETL-GENF
100
AcDbLine
 10
-1.183643930274853
 20
-58.0428449892061
 30
0.0
 11
1.500000000000011
 21
-57.3237647653168
 31
0.0
1001
REVIT
1002
{
1070
     3
1000
15798
1002
}
  0
LINE
  5
20C
330
1D7
100
AcDbEntity
  8
A-DETL-GENF
100
AcDbLine
 10
-1.500000000000001
 20
-54.91222203343657
 30
0.0
 11
1.499999999999995
 21
-54.10837445614475
 31
0.0
1001
REVIT
1002
{
1070
     3
1000
15798
1002
}
  0
LINE
  5
20D
330
1D7
100
AcDbEntity
  8
A-DETL-GENF
100
AcDbLine
 10
-1.5
 20
-58.12761234261056
 30
0.0
 11
1.500000000000012
 21
-57.32376476531777
 31
0.0
1001
REVIT
1002
{
1070
     3
1000
15798
1002
}
  0
LINE
  5
20E
330
1D7
100
AcDbEntity
  8
A-DETL-GENF
100
AcDbLine
 10
-1.183643930274848
 20
-61.25823529837912
 30
0.0
 11
1.500000000000017
 21
-60.53915507448981
 31
0.0
1001
REVIT
1002
{
1070
     3
1000
15798
1002
}
  0
LINE
  5
20F
330
1D7
100
AcDbEntity
  8
A-DETL-GENF
100
AcDbLine
 10
-1.5
 20
-61.34300265178359
 30
0.0
 11
1.500000000000018
 21
-60.5391550744908
 31
0.0
1001
REVIT
1002
{
1070
     3
1000
15798
1002
}
  0
LINE
  5
210
330
1D7
100
AcDbEntity
  8
A-DETL-GENF
100
AcDbLine
 10
-1.500000000000002
 20
-74.20456388847274
 30
0.0
 11
1.499999999999998
 21
-73.40071631117895
 31
0.0
1001
REVIT
1002
{
1070
     3
1000
15798
1002
}
  0
LINE
  5
211
330
1D7
100
AcDbEntity
  8
A-DETL-GENF
100
AcDbLine
 10
-1.5
 20
-70.98917357929874
 30
0.0
 11
1.499999999999996
 21
-70.1853260020069
 31
0.0
1001
REVIT
1002
{
1070
     3
1000
15798
1002
}
  0
ENDBLK
  5
213
330
1D7
100
AcDbEntity
  8
0
100
AcDbBlockEnd
  0
BLOCK
  5
286
330
25B
100
AcDbEntity
  8
0
100
AcDbBlockBegin
  2
Titleblock A4 The roofing store - Titleblock A4 The roofing store-2694-Handrail End Fixing Detail
 70
     0
 10
0.0
 20
0.0
 30
0.0
  3
Titleblock A4 The roofing store - Titleblock A4 The roofing store-2694-Handrail End Fixing Detail
  1

  0
IMAGE
  5
25E
330
25B
100
AcDbEntity
  8
G-ANNO-TTLB
160
               140
310
8C000000010000008400000006000000050000005617394A1B7A1640B7935150A3172A4000000000000000005617394A1B7A1640DCC928A8D10B3640000000000000000095168F065A825140DCC928A8D10B3640000000000000000095168F065A825140B7935150A3172A4000000000000000005617394A1B7A1640B79351
310
50A3172A400000000000000000
100
AcDbRasterImage
 90
        0
 10
5.619244727835242
 20
13.0461678599912
 30
0.0
 11
0.0225
 21
0.0
 31
0.0
 12
0.0
 22
0.0225
 32
0.0
 13
2863.0
 23
400.0
340
25D
 70
     7
280
     0
281
    50
282
    50
283
     0
290
     0
360
25F
 71
     1
 91
        2
 14
-0.5
 24
-0.5
 14
2862.5
 24
399.5
  0
LINE
  5
261
330
25B
100
AcDbEntity
  8
G-ANNO-TTLB-THIN
100
AcDbLine
 10
291.9756745145733
 20
16.5981545959536
 30
0.0
 11
236.9756745145732
 21
16.5981545959536
 31
0.0
1001
REVIT
1002
{
1070
     3
1000
-2000281
1002
}
  0
LINE
  5
262
330
25B
100
AcDbEntity
  8
G-ANNO-TTLB
100
AcDbLine
 10
71.28674472783522
 20
23.02396756137834
 30
0.0
 11
71.28674472783522
 21
5.023967561378343
 31
0.0
  0
LINE
  5
264
330
25B
100
AcDbEntity
  8
G-ANNO-TTLB-MEDM
100
AcDbLine
 10
291.9756745145733
 20
205.0239675613797
 30
0.0
 11
4.975674514620406
 21
205.0239675613797
 31
0.0
1001
REVIT
1002
{
1070
     3
1000
-2000282
1002
}
  0
LINE
  5
265
330
25B
100
AcDbEntity
  8
G-ANNO-TTLB-MEDM
100
AcDbLine
 10
4.975674514620408
 20
205.0239675613797
 30
0.0
 11
4.975674514620408
 21
5.02396756137836
 31
0.0
1001
REVIT
1002
{
1070
     3
1000
-2000282
1002
}
  0
LINE
  5
266
330
25B
100
AcDbEntity
  8
G-ANNO-TTLB-MEDM
100
AcDbLine
 10
4.975674514620408
 20
5.023967561378343
 30
0.0
 11
291.9756745145733
 21
5.023967561378343
 31
0.0
1001
REVIT
1002
{
1070
     3
1000
-2000282
1002
}
  0
LINE
  5
267
330
25B
100
AcDbEntity
  8
G-ANNO-TTLB-MEDM
100
AcDbLine
 10
291.9756745145733
 20
5.023967561378343
 30
0.0
 11
291.9756745145733
 21
205.0239675613797
 31
0.0
1001
REVIT
1002
{
1070
     3
1000
-2000282
1002
}
  0
LINE
  5
268
330
25B
100
AcDbEntity
  8
G-ANNO-TTLB-THIN
100
AcDbLine
 10
291.9756745145733
 20
23.02396756137834
 30
0.0
 11
4.975674514620406
 21
23.02396756137834
 31
0.0
1001
REVIT
1002
{
1070
     3
1000
-2000281
1002
}
  0
LINE
  5
269
330
25B
100
AcDbEntity
  8
G-ANNO-TTLB
100
AcDbLine
 10
236.9756745145732
 20
23.02396756137834
 30
0.0
 11
236.9756745145732
 21
5.023967561378343
 31
0.0
  0
MTEXT
  5
26B
330
25B
100
AcDbEntity
  8
G-ANNO-TTLB
100
AcDbMText
 10
9.61486176751347
 20
34.25458782332127
 30
0.0
 40
1.8
 41
2.309769
 46
0.0
 71
     1
 72
     1
  1
\U+2022
  7
Century Gothic_1
 73
     2
 44
1.0
  0
MTEXT
  5
26C
330
25B
100
AcDbEntity
  8
G-ANNO-TTLB
100
AcDbMText
 10
9.61486176751347
 20
31.3441711566546
 30
0.0
 40
1.8
 41
2.309769
 46
0.0
 71
     1
 72
     1
  1
\U+2022
  7
Century Gothic_1
 73
     2
 44
1.0
  0
MTEXT
  5
26D
330
25B
100
AcDbEntity
  8
G-ANNO-TTLB
100
AcDbMText
 10
9.61486176751347
 20
28.43375448998793
 30
0.0
 40
1.8
 41
2.309769
 46
0.0
 71
     1
 72
     1
  1
\U+2022
  7
Century Gothic_1
 73
     2
 44
1.0
  0
MTEXT
  5
26E
330
25B
100
AcDbEntity
  8
G-ANNO-TTLB
100
AcDbMText
 10
11.51986176751347
 20
34.25458782332127
 30
0.0
 40
1.8
 41
154.116405
 46
0.0
 71
     1
 72
     1
  1
These details are generally in accordance with NZBC E2/AS1 and or the NZ metal roof & wall caldding code of practice.
  7
Century Gothic_1
 73
     2
 44
1.0
  0
MTEXT
  5
26F
330
25B
100
AcDbEntity
  8
G-ANNO-TTLB
100
AcDbMText
 10
11.51986176751347
 20
31.3441711566546
 30
0.0
 40
1.8
 41
137.0885625
 46
0.0
 71
     1
 72
     1
  1
The building Architect / Designer is ultimately responsible for details to meet the NZ Building Code & E2/AS1.
  7
Century Gothic_1
 73
     2
 44
1.0
  0
MTEXT
  5
270
330
25B
100
AcDbEntity
  8
G-ANNO-TTLB
100
AcDbMText
 10
11.51986176751347
 20
28.43375448998794
 30
0.0
 40
1.8
 41
118.401226875
 46
0.0
 71
     1
 72
     1
  1
For Further information please contact your nearest roofing store www.theroofingstore.co.nz.
  7
Century Gothic_1
 73
     2
 44
1.0
  0
MTEXT
  5
271
330
25B
100
AcDbEntity
  8
G-ANNO-TTLB
100
AcDbMText
 10
152.075785282666
 20
20.51531106318182
 30
0.0
 40
1.8
 41
20.77974
 46
0.0
 71
     1
 72
     1
  1
P: HEAD OFFICE 
  7
Century Gothic_1
 73
     2
 44
1.0
  0
MTEXT
  5
272
330
25B
100
AcDbEntity
  8
G-ANNO-TTLB
100
AcDbMText
 10
169.220785282666
 20
20.51531106318182
 30
0.0
 40
1.8
 41
6.926579999999998
 46
0.0
 71
     1
 72
     1
  1
^I
  7
Century Gothic_1
 73
     2
 44
1.0
  0
MTEXT
  5
273
330
25B
100
AcDbEntity
  8
G-ANNO-TTLB
100
AcDbMText
 10
174.935785282666
 20
20.51531106318182
 30
0.0
 40
1.8
 41
15.079741875
 46
0.0
 71
     1
 72
     1
  1
09 277 2717
  7
Century Gothic_1
 73
     2
 44
1.0
  0
MTEXT
  5
274
330
25B
100
AcDbEntity
  8
G-ANNO-TTLB
100
AcDbMText
 10
152.075785282666
 20
17.60489439651515
 30
0.0
 40
1.8
 41
13.492400625
 46
0.0
 71
     1
 72
     1
  1
    ALBANY 
  7
Century Gothic_1
 73
     2
 44
1.0
  0
MTEXT
  5
275
330
25B
100
AcDbEntity
  8
G-ANNO-TTLB
100
AcDbMText
 10
163.208129032666
 20
17.60489439651515
 30
0.0
 40
1.8
 41
14.213919375
 46
0.0
 71
     1
 72
     1
  1
^I^I
  7
Century Gothic_1
 73
     2
 44
1.0
  0
MTEXT
  5
276
330
25B
100
AcDbEntity
  8
G-ANNO-TTLB
100
AcDbMText
 10
174.935785282666
 20
17.60489439651515
 30
0.0
 40
1.8
 41
15.079741875
 46
0.0
 71
     1
 72
     1
  1
09 972 0060
  7
Century Gothic_1
 73
     2
 44
1.0
  0
MTEXT
  5
277
330
25B
100
AcDbEntity
  8
G-ANNO-TTLB
100
AcDbMText
 10
152.075785282666
 20
14.69447772984849
 30
0.0
 40
1.8
 41
13.99746375
 46
0.0
 71
     1
 72
     1
  1
    KATIKAIT 
  7
Century Gothic_1
 73
     2
 44
1.0
  0
MTEXT
  5
278
330
25B
100
AcDbEntity
  8
G-ANNO-TTLB
100
AcDbMText
 10
163.624847782666
 20
14.69447772984849
 30
0.0
 40
1.8
 41
13.70885625
 46
0.0
 71
     1
 72
     1
  1
^I
  7
Century Gothic_1
 73
     2
 44
1.0
  0
MTEXT
  5
279
330
25B
100
AcDbEntity
  8
G-ANNO-TTLB
100
AcDbMText
 10
174.935785282666
 20
14.69447772984849
 30
0.0
 40
1.8
 41
15.079741875
 46
0.0
 71
     1
 72
     1
  1
07 549 5190
  7
Century Gothic_1
 73
     2
 44
1.0
  0
MTEXT
  5
27A
330
25B
100
AcDbEntity
  8
G-ANNO-TTLB
100
AcDbMText
 10
152.075785282666
 20
11.78406106318182
 30
0.0
 40
1.8
 41
20.274676875
 46
0.0
 71
     1
 72
     1
  1
    WELLINGTON 
  7
Century Gothic_1
 73
     2
 44
1.0
  0
MTEXT
  5
27B
330
25B
100
AcDbEntity
  8
G-ANNO-TTLB
100
AcDbMText
 10
168.804066532666
 20
11.78406106318182
 30
0.0
 40
1.8
 41
7.431643124999999
 46
0.0
 71
     1
 72
     1
  1
^I
  7
Century Gothic_1
 73
     2
 44
1.0
  0
MTEXT
  5
27C
330
25B
100
AcDbEntity
  8
G-ANNO-TTLB
100
AcDbMText
 10
174.935785282666
 20
11.78406106318182
 30
0.0
 40
1.8
 41
15.079741875
 46
0.0
 71
     1
 72
     1
  1
04 974 5792
  7
Century Gothic_1
 73
     2
 44
1.0
  0
MTEXT
  5
27D
330
25B
100
AcDbEntity
  8
G-ANNO-TTLB
100
AcDbMText
 10
187.377816532666
 20
11.78406106318182
 30
0.0
 40
1.8
 41
12.626578125
 46
0.0
 71
     1
 72
     1
  1
^I
  7
Century Gothic_1
 73
     2
 44
1.0
  0
MTEXT
  5
27E
330
25B
100
AcDbEntity
  8
G-ANNO-TTLB
100
AcDbMText
 10
197.795785282666
 20
11.78406106318182
 30
0.0
 40
1.8
 41
41.63163187500001
 46
0.0
 71
     1
 72
     1
  1
WEB: www.theroofingstore.co.nz
  7
Century Gothic_1
 73
     2
 44
1.0
  0
MTEXT
  5
27F
330
25B
100
AcDbEntity
  8
G-ANNO-TTLB
100
AcDbMText
 10
152.075785282666
 20
8.873644396515153
 30
0.0
 40
1.8
 41
23.52151125
 46
0.0
 71
     1
 72
     1
  1
    CHRISTCHURCH 
  7
Century Gothic_1
 73
     2
 44
1.0
  0
MTEXT
  5
280
330
25B
100
AcDbEntity
  8
G-ANNO-TTLB
100
AcDbMText
 10
171.482972782666
 20
8.873644396515153
 30
0.0
 40
1.8
 41
4.184808749999999
 46
0.0
 71
     1
 72
     1
  1
^I
  7
Century Gothic_1
 73
     2
 44
1.0
  0
MTEXT
  5
281
330
25B
100
AcDbEntity
  8
G-ANNO-TTLB
100
AcDbMText
 10
174.935785282666
 20
8.873644396515153
 30
0.0
 40
1.8
 41
15.079741875
 46
0.0
 71
     1
 72
     1
  1
03 348 6528
  7
Century Gothic_1
 73
     2
 44
1.0
  0
MTEXT
  5
282
330
25B
100
AcDbEntity
  8
G-ANNO-TTLB
100
AcDbMText
 10
187.377816532666
 20
8.873644396515153
 30
0.0
 40
1.8
 41
12.626578125
 46
0.0
 71
     1
 72
     1
  1
^I
  7
Century Gothic_1
 73
     2
 44
1.0
  0
MTEXT
  5
283
330
25B
100
AcDbEntity
  8
G-ANNO-TTLB
100
AcDbMText
 10
197.795785282666
 20
8.873644396515153
 30
0.0
 40
1.8
 41
45.16707375
 46
0.0
 71
     1
 72
     1
  1
Copyright © The Roofing Store 2013
  7
Century Gothic_1
 73
     2
 44
1.0
  0
MTEXT
  5
284
330
25B
100
AcDbEntity
  8
G-ANNO-TTLB
100
AcDbMText
 10
238.4531881313984
 20
13.76450265283994
 30
0.0
 40
1.8
 41
13.348096875
 46
0.0
 71
     1
 72
     1
  1
Detail No.:
  7
Century Gothic_1
 73
     2
 44
1.0
  0
MTEXT
  5
285
330
25B
100
AcDbEntity
  8
G-ANNO-TTLB
100
AcDbMText
 10
238.4531881313984
 20
20.51531106318182
 30
0.0
 40
1.8
 41
14.502526875
 46
0.0
 71
     1
 72
     1
  1
Scale:  1 : 5
  7
Century Gothic_1
 73
     2
 44
1.0
  0
ENDBLK
  5
287
330
25B
100
AcDbEntity
  8
0
100
AcDbBlockEnd
  0
ENDSEC
  0
SECTION
  2
ENTITIES
  0
LINE
  5
BD
330
70
100
AcDbEntity
  8
A-DETL-THIN
100
AcDbLine
 10
3930.115793485306
 20
3456.82549522824
 30
0.0
 11
3930.115793485306
 21
4028.485850018699
 31
0.0
1001
REVIT
1002
{
1070
     1
1000
216960
1002
}
1002
{
1070
     5
1000
17873
1002
}
1002
{
1070
     2
1000
-2000051
1002
}
1002
{
1070
     3
1000
-2000042
1002
}
  0
LINE
  5
BE
330
70
100
AcDbEntity
  8
A-DETL-THIN
100
AcDbLine
 10
3905.515793485307
 20
4028.485850018699
 30
0.0
 11
3905.515793485307
 21
3456.82549522824
 31
0.0
1001
REVIT
1002
{
1070
     1
1000
216960
1002
}
1002
{
1070
     5
1000
17873
1002
}
1002
{
1070
     2
1000
-2000051
1002
}
1002
{
1070
     3
1000
-2000042
1002
}
  0
SPLINE
  5
BF
330
70
100
AcDbEntity
  8
A-DETL
100
AcDbSpline
210
0.0
220
0.0
230
1.0
 70
     8
 71
     3
 72
     8
 73
     4
 74
     0
 42
0.000000001
 43
0.0000000001
 40
2.879880116907061
 40
2.879880116907061
 40
2.879880116907061
 40
2.879880116907061
 40
3.467568196230076
 40
3.467568196230076
 40
3.467568196230076
 40
3.467568196230076
 10
3844.626827340451
 20
3452.859139791256
 30
0.0
 10
3847.454402095219
 20
3453.759713110235
 30
0.0
 10
3850.330141641653
 20
3454.269038739069
 30
0.0
 10
3853.217554931344
 20
3454.683537318388
 30
0.0
1001
REVIT
1002
{
1070
     1
1000
216879
1002
}
1002
{
1070
     2
1000
-2000051
1002
}
1002
{
1070
     3
1000
-2000077
1002
}
  0
SPLINE
  5
C0
330
70
100
AcDbEntity
  8
A-DETL
100
AcDbSpline
210
0.0
220
0.0
230
1.0
 70
     8
 71
     3
 72
     8
 73
     4
 74
     0
 42
0.000000001
 43
0.0000000001
 40
0.0
 40
0.0
 40
0.0
 40
0.0
 40
1.37025415413514
 40
1.37025415413514
 40
1.37025415413514
 40
1.37025415413514
 10
3802.872790948239
 20
3471.128032019789
 30
0.0
 10
3796.021520177564
 20
3471.128032019789
 30
0.0
 10
3788.364887854476
 20
3464.087045343821
 30
0.0
 10
3787.895510201766
 20
3456.827196668561
 30
0.0
1001
REVIT
1002
{
1070
     1
1000
216879
1002
}
1002
{
1070
     2
1000
-2000051
1002
}
1002
{
1070
     3
1000
-2000077
1002
}
  0
SPLINE
  5
C1
330
70
100
AcDbEntity
  8
A-DETL
100
AcDbSpline
210
0.0
220
0.0
230
1.0
 70
     8
 71
     3
 72
     8
 73
     4
 74
     0
 42
0.000000001
 43
0.0000000001
 40
0.6196516941591897
 40
0.6196516941591897
 40
0.6196516941591897
 40
0.6196516941591897
 40
4.12310562561766
 40
4.12310562561766
 40
4.12310562561766
 40
4.12310562561766
 10
3853.690602147764
 20
3457.042584960382
 30
0.0
 10
3836.574075758848
 20
3460.297864858154
 30
0.0
 10
3820.390060605532
 20
3471.128032019789
 30
0.0
 10
3802.87279094824
 20
3471.128032019789
 30
0.0
1001
REVIT
1002
{
1070
     1
1000
216879
1002
}
1002
{
1070
     2
1000
-2000051
1002
}
1002
{
1070
     3
1000
-2000077
1002
}
  0
SPLINE
  5
C2
330
70
100
AcDbEntity
  8
A-DETL
100
AcDbSpline
210
0.0
220
0.0
230
1.0
 70
     8
 71
     3
 72
     9
 73
     5
 74
     0
 42
0.000000001
 43
0.0000000001
 40
0.0
 40
0.0
 40
0.0
 40
0.0
 40
1.414213562373095
 40
2.5712973861329
 40
2.5712973861329
 40
2.5712973861329
 40
2.5712973861329
 10
3862.87279094824
 20
3486.128032019788
 30
0.0
 10
3869.943858760105
 20
3486.128032019788
 30
0.0
 10
3884.360099102167
 20
3472.491668383424
 30
0.0
 10
3872.564993367753
 20
3458.855304747062
 30
0.0
 10
3866.762001283753
 20
3456.826754784627
 30
0.0
1001
REVIT
1002
{
1070
     1
1000
216879
1002
}
1002
{
1070
     2
1000
-2000051
1002
}
1002
{
1070
     3
1000
-2000077
1002
}
  0
SPLINE
  5
C3
330
70
100
AcDbEntity
  8
A-DETL
100
AcDbSpline
210
0.0
220
0.0
230
1.0
 70
     8
 71
     3
 72
     8
 73
     4
 74
     0
 42
0.000000001
 43
0.0000000001
 40
0.0
 40
0.0
 40
0.0
 40
0.0
 40
4.12310562561766
 40
4.12310562561766
 40
4.12310562561766
 40
4.12310562561766
 10
3802.872790948239
 20
3471.128032019789
 30
0.0
 10
3823.488319076328
 20
3471.128032019789
 30
0.0
 10
3842.257262820151
 20
3486.128032019788
 30
0.0
 10
3862.872790948241
 20
3486.128032019788
 30
0.0
1001
REVIT
1002
{
1070
     1
1000
216879
1002
}
1002
{
1070
     2
1000
-2000051
1002
}
1002
{
1070
     3
1000
-2000077
1002
}
  0
SPLINE
  5
C4
330
70
100
AcDbEntity
  8
A-DETL
100
AcDbSpline
210
0.0
220
0.0
230
1.0
 70
     8
 71
     3
 72
     9
 73
     5
 74
     0
 42
0.000000001
 43
0.0000000001
 40
0.0
 40
0.0
 40
0.0
 40
0.0
 40
1.414213562373095
 40
2.82842712474619
 40
2.82842712474619
 40
2.82842712474619
 40
2.82842712474619
 10
3802.872790948239
 20
3501.128032019789
 30
0.0
 10
3795.801723136374
 20
3501.128032019789
 30
0.0
 10
3779.943858760106
 20
3486.128032019788
 30
0.0
 10
3795.801723136374
 20
3471.128032019788
 30
0.0
 10
3802.87279094824
 20
3471.128032019789
 30
0.0
1001
REVIT
1002
{
1070
     1
1000
216879
1002
}
1002
{
1070
     2
1000
-2000051
1002
}
1002
{
1070
     3
1000
-2000077
1002
}
  0
SPLINE
  5
C5
330
70
100
AcDbEntity
  8
A-DETL
100
AcDbSpline
210
0.0
220
0.0
230
1.0
 70
     8
 71
     3
 72
     8
 73
     4
 74
     0
 42
0.000000001
 43
0.0000000001
 40
0.0
 40
0.0
 40
0.0
 40
0.0
 40
4.12310562561766
 40
4.12310562561766
 40
4.12310562561766
 40
4.12310562561766
 10
3862.87279094824
 20
3486.128032019788
 30
0.0
 10
3842.257262820151
 20
3486.128032019788
 30
0.0
 10
3823.488319076328
 20
3501.128032019789
 30
0.0
 10
3802.872790948239
 20
3501.128032019789
 30
0.0
1001
REVIT
1002
{
1070
     1
1000
216879
1002
}
1002
{
1070
     2
1000
-2000051
1002
}
1002
{
1070
     3
1000
-2000077
1002
}
  0
SPLINE
  5
C6
330
70
100
AcDbEntity
  8
A-DETL
100
AcDbSpline
210
0.0
220
0.0
230
1.0
 70
     8
 71
     3
 72
     9
 73
     5
 74
     0
 42
0.000000001
 43
0.0000000001
 40
0.0
 40
0.0
 40
0.0
 40
0.0
 40
1.414213562373095
 40
2.82842712474619
 40
2.82842712474619
 40
2.82842712474619
 40
2.82842712474619
 10
3862.872790948241
 20
3516.128032019788
 30
0.0
 10
3869.943858760106
 20
3516.128032019788
 30
0.0
 10
3885.801723136373
 20
3501.128032019789
 30
0.0
 10
3869.943858760104
 20
3486.128032019788
 30
0.0
 10
3862.872790948241
 20
3486.128032019788
 30
0.0
1001
REVIT
1002
{
1070
     1
1000
216879
1002
}
1002
{
1070
     2
1000
-2000051
1002
}
1002
{
1070
     3
1000
-2000077
1002
}
  0
SPLINE
  5
C7
330
70
100
AcDbEntity
  8
A-DETL
100
AcDbSpline
210
0.0
220
0.0
230
1.0
 70
     8
 71
     3
 72
     8
 73
     4
 74
     0
 42
0.000000001
 43
0.0000000001
 40
0.0
 40
0.0
 40
0.0
 40
0.0
 40
4.12310562561766
 40
4.12310562561766
 40
4.12310562561766
 40
4.12310562561766
 10
3802.872790948239
 20
3501.128032019789
 30
0.0
 10
3823.488319076328
 20
3501.128032019789
 30
0.0
 10
3842.257262820152
 20
3516.128032019788
 30
0.0
 10
3862.872790948241
 20
3516.128032019788
 30
0.0
1001
REVIT
1002
{
1070
     1
1000
216879
1002
}
1002
{
1070
     2
1000
-2000051
1002
}
1002
{
1070
     3
1000
-2000077
1002
}
  0
SPLINE
  5
C8
330
70
100
AcDbEntity
  8
A-DETL
100
AcDbSpline
210
0.0
220
0.0
230
1.0
 70
     8
 71
     3
 72
     9
 73
     5
 74
     0
 42
0.000000001
 43
0.0000000001
 40
0.0
 40
0.0
 40
0.0
 40
0.0
 40
1.414213562373095
 40
2.82842712474619
 40
2.82842712474619
 40
2.82842712474619
 40
2.82842712474619
 10
3802.87279094824
 20
3531.128032019789
 30
0.0
 10
3795.801723136374
 20
3531.128032019789
 30
0.0
 10
3779.943858760107
 20
3516.128032019791
 30
0.0
 10
3795.801723136376
 20
3501.12803201979
 30
0.0
 10
3802.872790948239
 20
3501.128032019789
 30
0.0
1001
REVIT
1002
{
1070
     1
1000
216879
1002
}
1002
{
1070
     2
1000
-2000051
1002
}
1002
{
1070
     3
1000
-2000077
1002
}
  0
SPLINE
  5
C9
330
70
100
AcDbEntity
  8
A-DETL
100
AcDbSpline
210
0.0
220
0.0
230
1.0
 70
     8
 71
     3
 72
     8
 73
     4
 74
     0
 42
0.000000001
 43
0.0000000001
 40
0.0
 40
0.0
 40
0.0
 40
0.0
 40
4.12310562561766
 40
4.12310562561766
 40
4.12310562561766
 40
4.12310562561766
 10
3862.872790948241
 20
3516.128032019788
 30
0.0
 10
3842.257262820152
 20
3516.128032019788
 30
0.0
 10
3823.488319076329
 20
3531.128032019787
 30
0.0
 10
3802.872790948239
 20
3531.128032019789
 30
0.0
1001
REVIT
1002
{
1070
     1
1000
216879
1002
}
1002
{
1070
     2
1000
-2000051
1002
}
1002
{
1070
     3
1000
-2000077
1002
}
  0
SPLINE
  5
CA
330
70
100
AcDbEntity
  8
A-DETL
100
AcDbSpline
210
0.0
220
0.0
230
1.0
 70
     8
 71
     3
 72
     9
 73
     5
 74
     0
 42
0.000000001
 43
0.0000000001
 40
0.0
 40
0.0
 40
0.0
 40
0.0
 40
1.414213562373095
 40
2.82842712474619
 40
2.82842712474619
 40
2.82842712474619
 40
2.82842712474619
 10
3862.872790948241
 20
3546.128032019789
 30
0.0
 10
3869.943858760106
 20
3546.128032019789
 30
0.0
 10
3885.801723136373
 20
3531.128032019787
 30
0.0
 10
3869.943858760104
 20
3516.128032019788
 30
0.0
 10
3862.872790948241
 20
3516.128032019788
 30
0.0
1001
REVIT
1002
{
1070
     1
1000
216879
1002
}
1002
{
1070
     2
1000
-2000051
1002
}
1002
{
1070
     3
1000
-2000077
1002
}
  0
SPLINE
  5
CB
330
70
100
AcDbEntity
  8
A-DETL
100
AcDbSpline
210
0.0
220
0.0
230
1.0
 70
     8
 71
     3
 72
     8
 73
     4
 74
     0
 42
0.000000001
 43
0.0000000001
 40
0.0
 40
0.0
 40
0.0
 40
0.0
 40
4.12310562561766
 40
4.12310562561766
 40
4.12310562561766
 40
4.12310562561766
 10
3802.87279094824
 20
3531.128032019789
 30
0.0
 10
3823.488319076329
 20
3531.128032019789
 30
0.0
 10
3842.257262820152
 20
3546.12803201979
 30
0.0
 10
3862.872790948241
 20
3546.128032019789
 30
0.0
1001
REVIT
1002
{
1070
     1
1000
216879
1002
}
1002
{
1070
     2
1000
-2000051
1002
}
1002
{
1070
     3
1000
-2000077
1002
}
  0
SPLINE
  5
CC
330
70
100
AcDbEntity
  8
A-DETL
100
AcDbSpline
210
0.0
220
0.0
230
1.0
 70
     8
 71
     3
 72
     9
 73
     5
 74
     0
 42
0.000000001
 43
0.0000000001
 40
0.0
 40
0.0
 40
0.0
 40
0.0
 40
1.414213562373095
 40
2.82842712474619
 40
2.82842712474619
 40
2.82842712474619
 40
2.82842712474619
 10
3802.87279094824
 20
3561.128032019789
 30
0.0
 10
3795.801723136374
 20
3561.128032019789
 30
0.0
 10
3779.943858760107
 20
3546.128032019789
 30
0.0
 10
3795.801723136376
 20
3531.128032019787
 30
0.0
 10
3802.87279094824
 20
3531.128032019789
 30
0.0
1001
REVIT
1002
{
1070
     1
1000
216879
1002
}
1002
{
1070
     2
1000
-2000051
1002
}
1002
{
1070
     3
1000
-2000077
1002
}
  0
SPLINE
  5
CD
330
70
100
AcDbEntity
  8
A-DETL
100
AcDbSpline
210
0.0
220
0.0
230
1.0
 70
     8
 71
     3
 72
     8
 73
     4
 74
     0
 42
0.000000001
 43
0.0000000001
 40
0.0
 40
0.0
 40
0.0
 40
0.0
 40
4.12310562561766
 40
4.12310562561766
 40
4.12310562561766
 40
4.12310562561766
 10
3862.872790948241
 20
3546.128032019789
 30
0.0
 10
3842.257262820152
 20
3546.128032019789
 30
0.0
 10
3823.488319076329
 20
3561.128032019788
 30
0.0
 10
3802.872790948239
 20
3561.128032019789
 30
0.0
1001
REVIT
1002
{
1070
     1
1000
216879
1002
}
1002
{
1070
     2
1000
-2000051
1002
}
1002
{
1070
     3
1000
-2000077
1002
}
  0
SPLINE
  5
CE
330
70
100
AcDbEntity
  8
A-DETL
100
AcDbSpline
210
0.0
220
0.0
230
1.0
 70
     8
 71
     3
 72
     9
 73
     5
 74
     0
 42
0.000000001
 43
0.0000000001
 40
0.0
 40
0.0
 40
0.0
 40
0.0
 40
1.414213562373095
 40
2.82842712474619
 40
2.82842712474619
 40
2.82842712474619
 40
2.82842712474619
 10
3862.872790948241
 20
3576.128032019788
 30
0.0
 10
3869.943858760106
 20
3576.128032019788
 30
0.0
 10
3885.801723136373
 20
3561.128032019788
 30
0.0
 10
3869.943858760104
 20
3546.128032019789
 30
0.0
 10
3862.872790948241
 20
3546.128032019789
 30
0.0
1001
REVIT
1002
{
1070
     1
1000
216879
1002
}
1002
{
1070
     2
1000
-2000051
1002
}
1002
{
1070
     3
1000
-2000077
1002
}
  0
SPLINE
  5
CF
330
70
100
AcDbEntity
  8
A-DETL
100
AcDbSpline
210
0.0
220
0.0
230
1.0
 70
     8
 71
     3
 72
     8
 73
     4
 74
     0
 42
0.000000001
 43
0.0000000001
 40
0.0
 40
0.0
 40
0.0
 40
0.0
 40
4.12310562561766
 40
4.12310562561766
 40
4.12310562561766
 40
4.12310562561766
 10
3802.87279094824
 20
3561.128032019789
 30
0.0
 10
3823.488319076329
 20
3561.128032019789
 30
0.0
 10
3842.257262820152
 20
3576.128032019789
 30
0.0
 10
3862.872790948241
 20
3576.128032019788
 30
0.0
1001
REVIT
1002
{
1070
     1
1000
216879
1002
}
1002
{
1070
     2
1000
-2000051
1002
}
1002
{
1070
     3
1000
-2000077
1002
}
  0
SPLINE
  5
D0
330
70
100
AcDbEntity
  8
A-DETL
100
AcDbSpline
210
0.0
220
0.0
230
1.0
 70
     8
 71
     3
 72
     9
 73
     5
 74
     0
 42
0.000000001
 43
0.0000000001
 40
0.0
 40
0.0
 40
0.0
 40
0.0
 40
1.414213562373095
 40
2.82842712474619
 40
2.82842712474619
 40
2.82842712474619
 40
2.82842712474619
 10
3802.87279094824
 20
3591.128032019789
 30
0.0
 10
3795.801723136374
 20
3591.128032019789
 30
0.0
 10
3779.943858760107
 20
3576.128032019789
 30
0.0
 10
3795.801723136376
 20
3561.12803201979
 30
0.0
 10
3802.87279094824
 20
3561.128032019789
 30
0.0
1001
REVIT
1002
{
1070
     1
1000
216879
1002
}
1002
{
1070
     2
1000
-2000051
1002
}
1002
{
1070
     3
1000
-2000077
1002
}
  0
SPLINE
  5
D1
330
70
100
AcDbEntity
  8
A-DETL
100
AcDbSpline
210
0.0
220
0.0
230
1.0
 70
     8
 71
     3
 72
     8
 73
     4
 74
     0
 42
0.000000001
 43
0.0000000001
 40
0.0
 40
0.0
 40
0.0
 40
0.0
 40
4.12310562561766
 40
4.12310562561766
 40
4.12310562561766
 40
4.12310562561766
 10
3862.872790948241
 20
3576.128032019788
 30
0.0
 10
3842.257262820152
 20
3576.128032019788
 30
0.0
 10
3823.488319076329
 20
3591.128032019788
 30
0.0
 10
3802.872790948239
 20
3591.128032019788
 30
0.0
1001
REVIT
1002
{
1070
     1
1000
216879
1002
}
1002
{
1070
     2
1000
-2000051
1002
}
1002
{
1070
     3
1000
-2000077
1002
}
  0
SPLINE
  5
D2
330
70
100
AcDbEntity
  8
A-DETL
100
AcDbSpline
210
0.0
220
0.0
230
1.0
 70
     8
 71
     3
 72
     9
 73
     5
 74
     0
 42
0.000000001
 43
0.0000000001
 40
0.0
 40
0.0
 40
0.0
 40
0.0
 40
1.414213562373095
 40
2.82842712474619
 40
2.82842712474619
 40
2.82842712474619
 40
2.82842712474619
 10
3862.872790948241
 20
3606.128032019789
 30
0.0
 10
3869.943858760107
 20
3606.128032019789
 30
0.0
 10
3885.801723136373
 20
3591.128032019788
 30
0.0
 10
3869.943858760104
 20
3576.128032019788
 30
0.0
 10
3862.872790948241
 20
3576.128032019788
 30
0.0
1001
REVIT
1002
{
1070
     1
1000
216879
1002
}
1002
{
1070
     2
1000
-2000051
1002
}
1002
{
1070
     3
1000
-2000077
1002
}
  0
SPLINE
  5
D3
330
70
100
AcDbEntity
  8
A-DETL
100
AcDbSpline
210
0.0
220
0.0
230
1.0
 70
     8
 71
     3
 72
     8
 73
     4
 74
     0
 42
0.000000001
 43
0.0000000001
 40
0.0
 40
0.0
 40
0.0
 40
0.0
 40
4.12310562561766
 40
4.12310562561766
 40
4.12310562561766
 40
4.12310562561766
 10
3802.87279094824
 20
3591.128032019789
 30
0.0
 10
3823.488319076329
 20
3591.128032019789
 30
0.0
 10
3842.257262820154
 20
3606.128032019789
 30
0.0
 10
3862.872790948241
 20
3606.128032019788
 30
0.0
1001
REVIT
1002
{
1070
     1
1000
216879
1002
}
1002
{
1070
     2
1000
-2000051
1002
}
1002
{
1070
     3
1000
-2000077
1002
}
  0
SPLINE
  5
D4
330
70
100
AcDbEntity
  8
A-DETL
100
AcDbSpline
210
0.0
220
0.0
230
1.0
 70
     8
 71
     3
 72
     9
 73
     5
 74
     0
 42
0.000000001
 43
0.0000000001
 40
0.0
 40
0.0
 40
0.0
 40
0.0
 40
1.414213562373095
 40
2.82842712474619
 40
2.82842712474619
 40
2.82842712474619
 40
2.82842712474619
 10
3802.872790948241
 20
3621.128032019789
 30
0.0
 10
3795.801723136376
 20
3621.128032019789
 30
0.0
 10
3779.943858760108
 20
3606.128032019789
 30
0.0
 10
3795.801723136376
 20
3591.128032019788
 30
0.0
 10
3802.87279094824
 20
3591.12803201979
 30
0.0
1001
REVIT
1002
{
1070
     1
1000
216879
1002
}
1002
{
1070
     2
1000
-2000051
1002
}
1002
{
1070
     3
1000
-2000077
1002
}
  0
SPLINE
  5
D5
330
70
100
AcDbEntity
  8
A-DETL
100
AcDbSpline
210
0.0
220
0.0
230
1.0
 70
     8
 71
     3
 72
     8
 73
     4
 74
     0
 42
0.000000001
 43
0.0000000001
 40
0.0
 40
0.0
 40
0.0
 40
0.0
 40
4.12310562561766
 40
4.12310562561766
 40
4.12310562561766
 40
4.12310562561766
 10
3862.872790948241
 20
3606.128032019789
 30
0.0
 10
3842.257262820152
 20
3606.128032019789
 30
0.0
 10
3823.488319076329
 20
3621.128032019789
 30
0.0
 10
3802.87279094824
 20
3621.128032019789
 30
0.0
1001
REVIT
1002
{
1070
     1
1000
216879
1002
}
1002
{
1070
     2
1000
-2000051
1002
}
1002
{
1070
     3
1000
-2000077
1002
}
  0
SPLINE
  5
D6
330
70
100
AcDbEntity
  8
A-DETL
100
AcDbSpline
210
0.0
220
0.0
230
1.0
 70
     8
 71
     3
 72
     9
 73
     5
 74
     0
 42
0.000000001
 43
0.0000000001
 40
0.0
 40
0.0
 40
0.0
 40
0.0
 40
1.414213562373095
 40
2.82842712474619
 40
2.82842712474619
 40
2.82842712474619
 40
2.82842712474619
 10
3862.872790948241
 20
3636.128032019788
 30
0.0
 10
3869.943858760107
 20
3636.128032019788
 30
0.0
 10
3885.801723136374
 20
3621.128032019786
 30
0.0
 10
3869.943858760105
 20
3606.128032019788
 30
0.0
 10
3862.872790948241
 20
3606.128032019789
 30
0.0
1001
REVIT
1002
{
1070
     1
1000
216879
1002
}
1002
{
1070
     2
1000
-2000051
1002
}
1002
{
1070
     3
1000
-2000077
1002
}
  0
SPLINE
  5
D7
330
70
100
AcDbEntity
  8
A-DETL
100
AcDbSpline
210
0.0
220
0.0
230
1.0
 70
     8
 71
     3
 72
     8
 73
     4
 74
     0
 42
0.000000001
 43
0.0000000001
 40
0.0
 40
0.0
 40
0.0
 40
0.0
 40
4.12310562561766
 40
4.12310562561766
 40
4.12310562561766
 40
4.12310562561766
 10
3802.872790948241
 20
3621.128032019789
 30
0.0
 10
3823.488319076329
 20
3621.128032019789
 30
0.0
 10
3842.257262820152
 20
3636.128032019789
 30
0.0
 10
3862.872790948241
 20
3636.128032019788
 30
0.0
1001
REVIT
1002
{
1070
     1
1000
216879
1002
}
1002
{
1070
     2
1000
-2000051
1002
}
1002
{
1070
     3
1000
-2000077
1002
}
  0
SPLINE
  5
D8
330
70
100
AcDbEntity
  8
A-DETL
100
AcDbSpline
210
0.0
220
0.0
230
1.0
 70
     8
 71
     3
 72
     9
 73
     5
 74
     0
 42
0.000000001
 43
0.0000000001
 40
0.0
 40
0.0
 40
0.0
 40
0.0
 40
1.414213562373095
 40
2.82842712474619
 40
2.82842712474619
 40
2.82842712474619
 40
2.82842712474619
 10
3802.872790948241
 20
3651.128032019788
 30
0.0
 10
3795.801723136376
 20
3651.128032019788
 30
0.0
 10
3779.943858760108
 20
3636.128032019788
 30
0.0
 10
3795.801723136376
 20
3621.128032019788
 30
0.0
 10
3802.872790948241
 20
3621.128032019789
 30
0.0
1001
REVIT
1002
{
1070
     1
1000
216879
1002
}
1002
{
1070
     2
1000
-2000051
1002
}
1002
{
1070
     3
1000
-2000077
1002
}
  0
SPLINE
  5
D9
330
70
100
AcDbEntity
  8
A-DETL
100
AcDbSpline
210
0.0
220
0.0
230
1.0
 70
     8
 71
     3
 72
     8
 73
     4
 74
     0
 42
0.000000001
 43
0.0000000001
 40
0.0
 40
0.0
 40
0.0
 40
0.0
 40
4.12310562561766
 40
4.12310562561766
 40
4.12310562561766
 40
4.12310562561766
 10
3862.872790948241
 20
3636.128032019788
 30
0.0
 10
3842.257262820152
 20
3636.128032019788
 30
0.0
 10
3823.488319076329
 20
3651.128032019788
 30
0.0
 10
3802.87279094824
 20
3651.128032019788
 30
0.0
1001
REVIT
1002
{
1070
     1
1000
216879
1002
}
1002
{
1070
     2
1000
-2000051
1002
}
1002
{
1070
     3
1000
-2000077
1002
}
  0
SPLINE
  5
DA
330
70
100
AcDbEntity
  8
A-DETL
100
AcDbSpline
210
0.0
220
0.0
230
1.0
 70
     8
 71
     3
 72
     9
 73
     5
 74
     0
 42
0.000000001
 43
0.0000000001
 40
0.4988821105057659
 40
0.4988821105057659
 40
0.4988821105057659
 40
0.4988821105057659
 40
1.414213562373095
 40
2.82842712474619
 40
2.82842712474619
 40
2.82842712474619
 40
2.82842712474619
 10
3870.290558452957
 20
3663.657332299152
 30
0.0
 10
3874.551235712765
 20
3660.836588169519
 30
0.0
 10
3883.004689838634
 20
3648.482310094653
 30
0.0
 10
3869.943858760105
 20
3636.12803201979
 30
0.0
 10
3862.872790948241
 20
3636.128032019789
 30
0.0
1001
REVIT
1002
{
1070
     1
1000
216879
1002
}
1002
{
1070
     2
1000
-2000051
1002
}
1002
{
1070
     3
1000
-2000077
1002
}
  0
SPLINE
  5
DB
330
70
100
AcDbEntity
  8
A-DETL
100
AcDbSpline
210
0.0
220
0.0
230
1.0
 70
     8
 71
     3
 72
     8
 73
     4
 74
     0
 42
0.000000001
 43
0.0000000001
 40
0.0
 40
0.0
 40
0.0
 40
0.0
 40
3.058808035264969
 40
3.058808035264969
 40
3.058808035264969
 40
3.058808035264969
 10
3802.872790948241
 20
3651.128032019788
 30
0.0
 10
3818.166831124565
 20
3651.128032019788
 30
0.0
 10
3832.444564850556
 20
3659.383596663848
 30
0.0
 10
3847.213926493578
 20
3663.64561580936
 30
0.0
1001
REVIT
1002
{
1070
     1
1000
216879
1002
}
1002
{
1070
     2
1000
-2000051
1002
}
1002
{
1070
     3
1000
-2000077
1002
}
  0
SPLINE
  5
DC
330
70
100
AcDbEntity
  8
A-DETL
100
AcDbSpline
210
0.0
220
0.0
230
1.0
 70
     8
 71
     3
 72
     9
 73
     5
 74
     0
 42
0.000000001
 43
0.0000000001
 40
0.0
 40
0.0
 40
0.0
 40
0.0
 40
1.414213562373095
 40
2.82842712474619
 40
2.82842712474619
 40
2.82842712474619
 40
2.82842712474619
 10
3802.872790948241
 20
3681.128032019789
 30
0.0
 10
3795.801723136376
 20
3681.128032019789
 30
0.0
 10
3779.943858760106
 20
3666.128032019789
 30
0.0
 10
3795.801723136376
 20
3651.128032019788
 30
0.0
 10
3802.872790948241
 20
3651.128032019789
 30
0.0
1001
REVIT
1002
{
1070
     1
1000
216879
1002
}
1002
{
1070
     2
1000
-2000051
1002
}
1002
{
1070
     3
1000
-2000077
1002
}
  0
SPLINE
  5
DD
330
70
100
AcDbEntity
  8
A-DETL
100
AcDbSpline
210
0.0
220
0.0
230
1.0
 70
     8
 71
     3
 72
     8
 73
     4
 74
     0
 42
0.000000001
 43
0.0000000001
 40
2.06155281280883
 40
2.06155281280883
 40
2.06155281280883
 40
2.06155281280883
 40
4.12310562561766
 40
4.12310562561766
 40
4.12310562561766
 40
4.12310562561766
 10
3832.872790948242
 20
3673.628032019788
 30
0.0
 10
3823.026672980264
 20
3677.378032019789
 30
0.0
 10
3813.180555012286
 20
3681.128032019787
 30
0.0
 10
3802.872790948241
 20
3681.128032019789
 30
0.0
1001
REVIT
1002
{
1070
     1
1000
216879
1002
}
1002
{
1070
     2
1000
-2000051
1002
}
1002
{
1070
     3
1000
-2000077
1002
}
  0
SPLINE
  5
DE
330
70
100
AcDbEntity
  8
A-DETL
100
AcDbSpline
210
0.0
220
0.0
230
1.0
 70
     8
 71
     3
 72
     8
 73
     4
 74
     0
 42
0.000000001
 43
0.0000000001
 40
0.0
 40
0.0
 40
0.0
 40
0.0
 40
2.06155281280883
 40
2.06155281280883
 40
2.06155281280883
 40
2.06155281280883
 10
3802.872790948241
 20
3681.128032019789
 30
0.0
 10
3813.180555012285
 20
3681.128032019789
 30
0.0
 10
3823.026672980263
 20
3684.878032019788
 30
0.0
 10
3832.87279094824
 20
3688.628032019788
 30
0.0
1001
REVIT
1002
{
1070
     1
1000
216879
1002
}
1002
{
1070
     2
1000
-2000051
1002
}
1002
{
1070
     3
1000
-2000077
1002
}
  0
SPLINE
  5
DF
330
70
100
AcDbEntity
  8
A-DETL
100
AcDbSpline
210
0.0
220
0.0
230
1.0
 70
     8
 71
     3
 72
     9
 73
     5
 74
     0
 42
0.000000001
 43
0.0000000001
 40
0.0
 40
0.0
 40
0.0
 40
0.0
 40
1.414213562373095
 40
2.82842712474619
 40
2.82842712474619
 40
2.82842712474619
 40
2.82842712474619
 10
3802.872790948241
 20
3711.128032019789
 30
0.0
 10
3795.801723136376
 20
3711.128032019789
 30
0.0
 10
3779.943858760106
 20
3696.128032019789
 30
0.0
 10
3795.801723136374
 20
3681.128032019789
 30
0.0
 10
3802.872790948241
 20
3681.128032019789
 30
0.0
1001
REVIT
1002
{
1070
     1
1000
216879
1002
}
1002
{
1070
     2
1000
-2000051
1002
}
1002
{
1070
     3
1000
-2000077
1002
}
  0
SPLINE
  5
E0
330
70
100
AcDbEntity
  8
A-DETL
100
AcDbSpline
210
0.0
220
0.0
230
1.0
 70
     8
 71
     3
 72
     8
 73
     4
 74
     0
 42
0.000000001
 43
0.0000000001
 40
2.06155281280883
 40
2.06155281280883
 40
2.06155281280883
 40
2.06155281280883
 40
4.12310562561766
 40
4.12310562561766
 40
4.12310562561766
 40
4.12310562561766
 10
3832.872790948242
 20
3703.628032019788
 30
0.0
 10
3823.026672980264
 20
3707.378032019789
 30
0.0
 10
3813.180555012286
 20
3711.128032019789
 30
0.0
 10
3802.872790948241
 20
3711.128032019789
 30
0.0
1001
REVIT
1002
{
1070
     1
1000
216879
1002
}
1002
{
1070
     2
1000
-2000051
1002
}
1002
{
1070
     3
1000
-2000077
1002
}
  0
SPLINE
  5
E1
330
70
100
AcDbEntity
  8
A-DETL
100
AcDbSpline
210
0.0
220
0.0
230
1.0
 70
     8
 71
     3
 72
     8
 73
     4
 74
     0
 42
0.000000001
 43
0.0000000001
 40
0.0
 40
0.0
 40
0.0
 40
0.0
 40
2.06155281280883
 40
2.06155281280883
 40
2.06155281280883
 40
2.06155281280883
 10
3802.872790948241
 20
3711.128032019789
 30
0.0
 10
3813.180555012285
 20
3711.128032019789
 30
0.0
 10
3823.026672980263
 20
3714.878032019789
 30
0.0
 10
3832.87279094824
 20
3718.628032019789
 30
0.0
1001
REVIT
1002
{
1070
     1
1000
216879
1002
}
1002
{
1070
     2
1000
-2000051
1002
}
1002
{
1070
     3
1000
-2000077
1002
}
  0
SPLINE
  5
E2
330
70
100
AcDbEntity
  8
A-DETL
100
AcDbSpline
210
0.0
220
0.0
230
1.0
 70
     8
 71
     3
 72
     9
 73
     5
 74
     0
 42
0.000000001
 43
0.0000000001
 40
0.0
 40
0.0
 40
0.0
 40
0.0
 40
1.414213562373095
 40
2.82842712474619
 40
2.82842712474619
 40
2.82842712474619
 40
2.82842712474619
 10
3802.872790948241
 20
3741.128032019788
 30
0.0
 10
3795.801723136376
 20
3741.128032019788
 30
0.0
 10
3779.943858760106
 20
3726.12803201979
 30
0.0
 10
3795.801723136374
 20
3711.128032019789
 30
0.0
 10
3802.872790948241
 20
3711.128032019789
 30
0.0
1001
REVIT
1002
{
1070
     1
1000
216879
1002
}
1002
{
1070
     2
1000
-2000051
1002
}
1002
{
1070
     3
1000
-2000077
1002
}
  0
SPLINE
  5
E3
330
70
100
AcDbEntity
  8
A-DETL
100
AcDbSpline
210
0.0
220
0.0
230
1.0
 70
     8
 71
     3
 72
     8
 73
     4
 74
     0
 42
0.000000001
 43
0.0000000001
 40
2.06155281280883
 40
2.06155281280883
 40
2.06155281280883
 40
2.06155281280883
 40
4.12310562561766
 40
4.12310562561766
 40
4.12310562561766
 40
4.12310562561766
 10
3832.872790948242
 20
3733.628032019789
 30
0.0
 10
3823.026672980264
 20
3737.378032019788
 30
0.0
 10
3813.180555012286
 20
3741.128032019788
 30
0.0
 10
3802.872790948241
 20
3741.128032019788
 30
0.0
1001
REVIT
1002
{
1070
     1
1000
216879
1002
}
1002
{
1070
     2
1000
-2000051
1002
}
1002
{
1070
     3
1000
-2000077
1002
}
  0
SPLINE
  5
E4
330
70
100
AcDbEntity
  8
A-DETL
100
AcDbSpline
210
0.0
220
0.0
230
1.0
 70
     8
 71
     3
 72
     8
 73
     4
 74
     0
 42
0.000000001
 43
0.0000000001
 40
0.0
 40
0.0
 40
0.0
 40
0.0
 40
2.06155281280883
 40
2.06155281280883
 40
2.06155281280883
 40
2.06155281280883
 10
3802.872790948241
 20
3741.128032019788
 30
0.0
 10
3813.180555012285
 20
3741.128032019788
 30
0.0
 10
3823.026672980263
 20
3744.878032019789
 30
0.0
 10
3832.87279094824
 20
3748.62803201979
 30
0.0
1001
REVIT
1002
{
1070
     1
1000
216879
1002
}
1002
{
1070
     2
1000
-2000051
1002
}
1002
{
1070
     3
1000
-2000077
1002
}
  0
SPLINE
  5
E5
330
70
100
AcDbEntity
  8
A-DETL
100
AcDbSpline
210
0.0
220
0.0
230
1.0
 70
     8
 71
     3
 72
     9
 73
     5
 74
     0
 42
0.000000001
 43
0.0000000001
 40
0.0
 40
0.0
 40
0.0
 40
0.0
 40
1.414213562373095
 40
2.82842712474619
 40
2.82842712474619
 40
2.82842712474619
 40
2.82842712474619
 10
3802.872790948241
 20
3771.128032019789
 30
0.0
 10
3795.801723136376
 20
3771.128032019789
 30
0.0
 10
3779.943858760106
 20
3756.128032019789
 30
0.0
 10
3795.801723136376
 20
3741.128032019787
 30
0.0
 10
3802.872790948241
 20
3741.128032019788
 30
0.0
1001
REVIT
1002
{
1070
     1
1000
216879
1002
}
1002
{
1070
     2
1000
-2000051
1002
}
1002
{
1070
     3
1000
-2000077
1002
}
  0
SPLINE
  5
E6
330
70
100
AcDbEntity
  8
A-DETL
100
AcDbSpline
210
0.0
220
0.0
230
1.0
 70
     8
 71
     3
 72
     8
 73
     4
 74
     0
 42
0.000000001
 43
0.0000000001
 40
2.06155281280883
 40
2.06155281280883
 40
2.06155281280883
 40
2.06155281280883
 40
4.12310562561766
 40
4.12310562561766
 40
4.12310562561766
 40
4.12310562561766
 10
3832.872790948242
 20
3763.628032019788
 30
0.0
 10
3823.026672980264
 20
3767.378032019788
 30
0.0
 10
3813.180555012286
 20
3771.128032019789
 30
0.0
 10
3802.872790948241
 20
3771.128032019789
 30
0.0
1001
REVIT
1002
{
1070
     1
1000
216879
1002
}
1002
{
1070
     2
1000
-2000051
1002
}
1002
{
1070
     3
1000
-2000077
1002
}
  0
SPLINE
  5
E7
330
70
100
AcDbEntity
  8
A-DETL
100
AcDbSpline
210
0.0
220
0.0
230
1.0
 70
     8
 71
     3
 72
     8
 73
     4
 74
     0
 42
0.000000001
 43
0.0000000001
 40
0.0
 40
0.0
 40
0.0
 40
0.0
 40
2.06155281280883
 40
2.06155281280883
 40
2.06155281280883
 40
2.06155281280883
 10
3802.872790948241
 20
3771.128032019789
 30
0.0
 10
3813.180555012286
 20
3771.128032019789
 30
0.0
 10
3823.026672980264
 20
3774.878032019788
 30
0.0
 10
3832.87279094824
 20
3778.628032019788
 30
0.0
1001
REVIT
1002
{
1070
     1
1000
216879
1002
}
1002
{
1070
     2
1000
-2000051
1002
}
1002
{
1070
     3
1000
-2000077
1002
}
  0
SPLINE
  5
E8
330
70
100
AcDbEntity
  8
A-DETL
100
AcDbSpline
210
0.0
220
0.0
230
1.0
 70
     8
 71
     3
 72
     9
 73
     5
 74
     0
 42
0.000000001
 43
0.0000000001
 40
0.0
 40
0.0
 40
0.0
 40
0.0
 40
1.414213562373095
 40
2.82842712474619
 40
2.82842712474619
 40
2.82842712474619
 40
2.82842712474619
 10
3802.872790948241
 20
3801.128032019788
 30
0.0
 10
3795.801723136376
 20
3801.128032019788
 30
0.0
 10
3779.943858760107
 20
3786.128032019789
 30
0.0
 10
3795.801723136376
 20
3771.128032019789
 30
0.0
 10
3802.872790948243
 20
3771.128032019789
 30
0.0
1001
REVIT
1002
{
1070
     1
1000
216879
1002
}
1002
{
1070
     2
1000
-2000051
1002
}
1002
{
1070
     3
1000
-2000077
1002
}
  0
SPLINE
  5
E9
330
70
100
AcDbEntity
  8
A-DETL
100
AcDbSpline
210
0.0
220
0.0
230
1.0
 70
     8
 71
     3
 72
     8
 73
     4
 74
     0
 42
0.000000001
 43
0.0000000001
 40
2.06155281280883
 40
2.06155281280883
 40
2.06155281280883
 40
2.06155281280883
 40
4.12310562561766
 40
4.12310562561766
 40
4.12310562561766
 40
4.12310562561766
 10
3832.872790948242
 20
3793.628032019788
 30
0.0
 10
3823.026672980264
 20
3797.378032019788
 30
0.0
 10
3813.180555012286
 20
3801.128032019788
 30
0.0
 10
3802.872790948241
 20
3801.128032019788
 30
0.0
1001
REVIT
1002
{
1070
     1
1000
216879
1002
}
1002
{
1070
     2
1000
-2000051
1002
}
1002
{
1070
     3
1000
-2000077
1002
}
  0
SPLINE
  5
EA
330
70
100
AcDbEntity
  8
A-DETL
100
AcDbSpline
210
0.0
220
0.0
230
1.0
 70
     8
 71
     3
 72
     8
 73
     4
 74
     0
 42
0.000000001
 43
0.0000000001
 40
0.0
 40
0.0
 40
0.0
 40
0.0
 40
2.06155281280883
 40
2.06155281280883
 40
2.06155281280883
 40
2.06155281280883
 10
3802.872790948241
 20
3801.128032019788
 30
0.0
 10
3813.180555012286
 20
3801.128032019788
 30
0.0
 10
3823.026672980264
 20
3804.878032019789
 30
0.0
 10
3832.87279094824
 20
3808.628032019789
 30
0.0
1001
REVIT
1002
{
1070
     1
1000
216879
1002
}
1002
{
1070
     2
1000
-2000051
1002
}
1002
{
1070
     3
1000
-2000077
1002
}
  0
SPLINE
  5
EB
330
70
100
AcDbEntity
  8
A-DETL
100
AcDbSpline
210
0.0
220
0.0
230
1.0
 70
     8
 71
     3
 72
     9
 73
     5
 74
     0
 42
0.000000001
 43
0.0000000001
 40
0.0
 40
0.0
 40
0.0
 40
0.0
 40
1.414213562373095
 40
2.82842712474619
 40
2.82842712474619
 40
2.82842712474619
 40
2.82842712474619
 10
3802.872790948241
 20
3831.128032019789
 30
0.0
 10
3795.801723136376
 20
3831.128032019789
 30
0.0
 10
3779.943858760107
 20
3816.128032019789
 30
0.0
 10
3795.801723136376
 20
3801.128032019788
 30
0.0
 10
3802.872790948243
 20
3801.128032019789
 30
0.0
1001
REVIT
1002
{
1070
     1
1000
216879
1002
}
1002
{
1070
     2
1000
-2000051
1002
}
1002
{
1070
     3
1000
-2000077
1002
}
  0
SPLINE
  5
EC
330
70
100
AcDbEntity
  8
A-DETL
100
AcDbSpline
210
0.0
220
0.0
230
1.0
 70
     8
 71
     3
 72
     8
 73
     4
 74
     0
 42
0.000000001
 43
0.0000000001
 40
2.06155281280883
 40
2.06155281280883
 40
2.06155281280883
 40
2.06155281280883
 40
4.12310562561766
 40
4.12310562561766
 40
4.12310562561766
 40
4.12310562561766
 10
3832.872790948242
 20
3823.628032019789
 30
0.0
 10
3823.026672980264
 20
3827.378032019789
 30
0.0
 10
3813.180555012286
 20
3831.128032019787
 30
0.0
 10
3802.872790948241
 20
3831.128032019787
 30
0.0
1001
REVIT
1002
{
1070
     1
1000
216879
1002
}
1002
{
1070
     2
1000
-2000051
1002
}
1002
{
1070
     3
1000
-2000077
1002
}
  0
SPLINE
  5
ED
330
70
100
AcDbEntity
  8
A-DETL
100
AcDbSpline
210
0.0
220
0.0
230
1.0
 70
     8
 71
     3
 72
     8
 73
     4
 74
     0
 42
0.000000001
 43
0.0000000001
 40
0.0
 40
0.0
 40
0.0
 40
0.0
 40
2.06155281280883
 40
2.06155281280883
 40
2.06155281280883
 40
2.06155281280883
 10
3802.872790948241
 20
3831.128032019789
 30
0.0
 10
3813.180555012286
 20
3831.128032019789
 30
0.0
 10
3823.026672980264
 20
3834.878032019789
 30
0.0
 10
3832.87279094824
 20
3838.628032019789
 30
0.0
1001
REVIT
1002
{
1070
     1
1000
216879
1002
}
1002
{
1070
     2
1000
-2000051
1002
}
1002
{
1070
     3
1000
-2000077
1002
}
  0
SPLINE
  5
EE
330
70
100
AcDbEntity
  8
A-DETL
100
AcDbSpline
210
0.0
220
0.0
230
1.0
 70
     8
 71
     3
 72
     9
 73
     5
 74
     0
 42
0.000000001
 43
0.0000000001
 40
0.0
 40
0.0
 40
0.0
 40
0.0
 40
1.414213562373095
 40
2.82842712474619
 40
2.82842712474619
 40
2.82842712474619
 40
2.82842712474619
 10
3802.872790948242
 20
3861.128032019788
 30
0.0
 10
3795.801723136377
 20
3861.128032019788
 30
0.0
 10
3779.943858760108
 20
3846.12803201979
 30
0.0
 10
3795.801723136377
 20
3831.128032019787
 30
0.0
 10
3802.872790948243
 20
3831.128032019789
 30
0.0
1001
REVIT
1002
{
1070
     1
1000
216879
1002
}
1002
{
1070
     2
1000
-2000051
1002
}
1002
{
1070
     3
1000
-2000077
1002
}
  0
SPLINE
  5
EF
330
70
100
AcDbEntity
  8
A-DETL
100
AcDbSpline
210
0.0
220
0.0
230
1.0
 70
     8
 71
     3
 72
     8
 73
     4
 74
     0
 42
0.000000001
 43
0.0000000001
 40
2.06155281280883
 40
2.06155281280883
 40
2.06155281280883
 40
2.06155281280883
 40
4.12310562561766
 40
4.12310562561766
 40
4.12310562561766
 40
4.12310562561766
 10
3832.872790948242
 20
3853.628032019788
 30
0.0
 10
3823.026672980264
 20
3857.378032019789
 30
0.0
 10
3813.180555012286
 20
3861.128032019789
 30
0.0
 10
3802.872790948242
 20
3861.128032019788
 30
0.0
1001
REVIT
1002
{
1070
     1
1000
216879
1002
}
1002
{
1070
     2
1000
-2000051
1002
}
1002
{
1070
     3
1000
-2000077
1002
}
  0
SPLINE
  5
F0
330
70
100
AcDbEntity
  8
A-DETL
100
AcDbSpline
210
0.0
220
0.0
230
1.0
 70
     8
 71
     3
 72
     9
 73
     5
 74
     0
 42
0.000000001
 43
0.0000000001
 40
0.0
 40
0.0
 40
0.0
 40
0.0
 40
1.414213562373095
 40
1.910048137947462
 40
1.910048137947462
 40
1.910048137947462
 40
1.910048137947462
 10
3862.872790948242
 20
3876.128032019789
 30
0.0
 10
3869.943858760108
 20
3876.128032019789
 30
0.0
 10
3880.652737931401
 20
3865.998472089272
 30
0.0
 10
3876.898119322125
 20
3855.868912158758
 30
0.0
 10
3875.327476676942
 20
3853.562593415407
 30
0.0
1001
REVIT
1002
{
1070
     1
1000
216879
1002
}
1002
{
1070
     2
1000
-2000051
1002
}
1002
{
1070
     3
1000
-2000077
1002
}
  0
SPLINE
  5
F1
330
70
100
AcDbEntity
  8
A-DETL
100
AcDbSpline
210
0.0
220
0.0
230
1.0
 70
     8
 71
     3
 72
     8
 73
     4
 74
     0
 42
0.000000001
 43
0.0000000001
 40
0.0
 40
0.0
 40
0.0
 40
0.0
 40
4.12310562561766
 40
4.12310562561766
 40
4.12310562561766
 40
4.12310562561766
 10
3802.872790948242
 20
3861.128032019788
 30
0.0
 10
3823.488319076331
 20
3861.128032019788
 30
0.0
 10
3842.257262820155
 20
3876.128032019789
 30
0.0
 10
3862.872790948244
 20
3876.128032019789
 30
0.0
1001
REVIT
1002
{
1070
     1
1000
216879
1002
}
1002
{
1070
     2
1000
-2000051
1002
}
1002
{
1070
     3
1000
-2000077
1002
}
  0
SPLINE
  5
F2
330
70
100
AcDbEntity
  8
A-DETL
100
AcDbSpline
210
0.0
220
0.0
230
1.0
 70
     8
 71
     3
 72
     9
 73
     5
 74
     0
 42
0.000000001
 43
0.0000000001
 40
0.0
 40
0.0
 40
0.0
 40
0.0
 40
1.414213562373095
 40
2.82842712474619
 40
2.82842712474619
 40
2.82842712474619
 40
2.82842712474619
 10
3802.872790948242
 20
3891.128032019788
 30
0.0
 10
3795.801723136377
 20
3891.128032019788
 30
0.0
 10
3779.943858760109
 20
3876.128032019789
 30
0.0
 10
3795.801723136377
 20
3861.128032019788
 30
0.0
 10
3802.872790948242
 20
3861.128032019789
 30
0.0
1001
REVIT
1002
{
1070
     1
1000
216879
1002
}
1002
{
1070
     2
1000
-2000051
1002
}
1002
{
1070
     3
1000
-2000077
1002
}
  0
SPLINE
  5
F3
330
70
100
AcDbEntity
  8
A-DETL
100
AcDbSpline
210
0.0
220
0.0
230
1.0
 70
     8
 71
     3
 72
     8
 73
     4
 74
     0
 42
0.000000001
 43
0.0000000001
 40
0.0
 40
0.0
 40
0.0
 40
0.0
 40
4.12310562561766
 40
4.12310562561766
 40
4.12310562561766
 40
4.12310562561766
 10
3862.872790948242
 20
3876.128032019789
 30
0.0
 10
3842.257262820155
 20
3876.128032019789
 30
0.0
 10
3823.488319076331
 20
3891.128032019788
 30
0.0
 10
3802.872790948241
 20
3891.128032019789
 30
0.0
1001
REVIT
1002
{
1070
     1
1000
216879
1002
}
1002
{
1070
     2
1000
-2000051
1002
}
1002
{
1070
     3
1000
-2000077
1002
}
  0
SPLINE
  5
F4
330
70
100
AcDbEntity
  8
A-DETL
100
AcDbSpline
210
0.0
220
0.0
230
1.0
 70
     8
 71
     3
 72
     9
 73
     5
 74
     0
 42
0.000000001
 43
0.0000000001
 40
0.0
 40
0.0
 40
0.0
 40
0.0
 40
1.414213562373095
 40
2.82842712474619
 40
2.82842712474619
 40
2.82842712474619
 40
2.82842712474619
 10
3862.872790948242
 20
3906.128032019789
 30
0.0
 10
3869.943858760108
 20
3906.128032019789
 30
0.0
 10
3885.801723136376
 20
3891.128032019787
 30
0.0
 10
3869.943858760107
 20
3876.128032019789
 30
0.0
 10
3862.872790948242
 20
3876.128032019789
 30
0.0
1001
REVIT
1002
{
1070
     1
1000
216879
1002
}
1002
{
1070
     2
1000
-2000051
1002
}
1002
{
1070
     3
1000
-2000077
1002
}
  0
SPLINE
  5
F5
330
70
100
AcDbEntity
  8
A-DETL
100
AcDbSpline
210
0.0
220
0.0
230
1.0
 70
     8
 71
     3
 72
     8
 73
     4
 74
     0
 42
0.000000001
 43
0.0000000001
 40
0.0
 40
0.0
 40
0.0
 40
0.0
 40
4.12310562561766
 40
4.12310562561766
 40
4.12310562561766
 40
4.12310562561766
 10
3802.872790948242
 20
3891.128032019788
 30
0.0
 10
3823.488319076331
 20
3891.128032019788
 30
0.0
 10
3842.257262820155
 20
3906.128032019789
 30
0.0
 10
3862.872790948244
 20
3906.128032019788
 30
0.0
1001
REVIT
1002
{
1070
     1
1000
216879
1002
}
1002
{
1070
     2
1000
-2000051
1002
}
1002
{
1070
     3
1000
-2000077
1002
}
  0
SPLINE
  5
F6
330
70
100
AcDbEntity
  8
A-DETL
100
AcDbSpline
210
0.0
220
0.0
230
1.0
 70
     8
 71
     3
 72
     9
 73
     5
 74
     0
 42
0.000000001
 43
0.0000000001
 40
0.0
 40
0.0
 40
0.0
 40
0.0
 40
1.414213562373095
 40
2.82842712474619
 40
2.82842712474619
 40
2.82842712474619
 40
2.82842712474619
 10
3802.872790948242
 20
3921.128032019789
 30
0.0
 10
3795.801723136377
 20
3921.128032019789
 30
0.0
 10
3779.943858760109
 20
3906.128032019789
 30
0.0
 10
3795.801723136377
 20
3891.128032019788
 30
0.0
 10
3802.872790948242
 20
3891.128032019789
 30
0.0
1001
REVIT
1002
{
1070
     1
1000
216879
1002
}
1002
{
1070
     2
1000
-2000051
1002
}
1002
{
1070
     3
1000
-2000077
1002
}
  0
SPLINE
  5
F7
330
70
100
AcDbEntity
  8
A-DETL
100
AcDbSpline
210
0.0
220
0.0
230
1.0
 70
     8
 71
     3
 72
     8
 73
     4
 74
     0
 42
0.000000001
 43
0.0000000001
 40
0.0
 40
0.0
 40
0.0
 40
0.0
 40
4.12310562561766
 40
4.12310562561766
 40
4.12310562561766
 40
4.12310562561766
 10
3862.872790948242
 20
3906.128032019789
 30
0.0
 10
3842.257262820155
 20
3906.128032019789
 30
0.0
 10
3823.488319076331
 20
3921.128032019789
 30
0.0
 10
3802.872790948241
 20
3921.128032019789
 30
0.0
1001
REVIT
1002
{
1070
     1
1000
216879
1002
}
1002
{
1070
     2
1000
-2000051
1002
}
1002
{
1070
     3
1000
-2000077
1002
}
  0
SPLINE
  5
F8
330
70
100
AcDbEntity
  8
A-DETL
100
AcDbSpline
210
0.0
220
0.0
230
1.0
 70
     8
 71
     3
 72
     9
 73
     5
 74
     0
 42
0.000000001
 43
0.0000000001
 40
0.0
 40
0.0
 40
0.0
 40
0.0
 40
1.414213562373095
 40
2.82842712474619
 40
2.82842712474619
 40
2.82842712474619
 40
2.82842712474619
 10
3862.872790948242
 20
3936.128032019788
 30
0.0
 10
3869.943858760108
 20
3936.128032019788
 30
0.0
 10
3885.801723136376
 20
3921.128032019788
 30
0.0
 10
3869.943858760107
 20
3906.128032019788
 30
0.0
 10
3862.872790948242
 20
3906.128032019789
 30
0.0
1001
REVIT
1002
{
1070
     1
1000
216879
1002
}
1002
{
1070
     2
1000
-2000051
1002
}
1002
{
1070
     3
1000
-2000077
1002
}
  0
SPLINE
  5
F9
330
70
100
AcDbEntity
  8
A-DETL
100
AcDbSpline
210
0.0
220
0.0
230
1.0
 70
     8
 71
     3
 72
     8
 73
     4
 74
     0
 42
0.000000001
 43
0.0000000001
 40
0.0
 40
0.0
 40
0.0
 40
0.0
 40
4.12310562561766
 40
4.12310562561766
 40
4.12310562561766
 40
4.12310562561766
 10
3802.872790948242
 20
3921.128032019789
 30
0.0
 10
3823.488319076331
 20
3921.128032019789
 30
0.0
 10
3842.257262820155
 20
3936.128032019788
 30
0.0
 10
3862.872790948244
 20
3936.128032019788
 30
0.0
1001
REVIT
1002
{
1070
     1
1000
216879
1002
}
1002
{
1070
     2
1000
-2000051
1002
}
1002
{
1070
     3
1000
-2000077
1002
}
  0
SPLINE
  5
FA
330
70
100
AcDbEntity
  8
A-DETL
100
AcDbSpline
210
0.0
220
0.0
230
1.0
 70
     8
 71
     3
 72
     9
 73
     5
 74
     0
 42
0.000000001
 43
0.0000000001
 40
0.0
 40
0.0
 40
0.0
 40
0.0
 40
1.414213562373095
 40
2.82842712474619
 40
2.82842712474619
 40
2.82842712474619
 40
2.82842712474619
 10
3802.872790948243
 20
3951.128032019788
 30
0.0
 10
3795.801723136377
 20
3951.128032019788
 30
0.0
 10
3779.943858760108
 20
3936.128032019789
 30
0.0
 10
3795.801723136377
 20
3921.128032019789
 30
0.0
 10
3802.872790948242
 20
3921.128032019789
 30
0.0
1001
REVIT
1002
{
1070
     1
1000
216879
1002
}
1002
{
1070
     2
1000
-2000051
1002
}
1002
{
1070
     3
1000
-2000077
1002
}
  0
SPLINE
  5
FB
330
70
100
AcDbEntity
  8
A-DETL
100
AcDbSpline
210
0.0
220
0.0
230
1.0
 70
     8
 71
     3
 72
     8
 73
     4
 74
     0
 42
0.000000001
 43
0.0000000001
 40
0.0
 40
0.0
 40
0.0
 40
0.0
 40
4.12310562561766
 40
4.12310562561766
 40
4.12310562561766
 40
4.12310562561766
 10
3862.872790948242
 20
3936.128032019788
 30
0.0
 10
3842.257262820155
 20
3936.128032019788
 30
0.0
 10
3823.488319076331
 20
3951.128032019788
 30
0.0
 10
3802.872790948242
 20
3951.128032019788
 30
0.0
1001
REVIT
1002
{
1070
     1
1000
216879
1002
}
1002
{
1070
     2
1000
-2000051
1002
}
1002
{
1070
     3
1000
-2000077
1002
}
  0
SPLINE
  5
FC
330
70
100
AcDbEntity
  8
A-DETL
100
AcDbSpline
210
0.0
220
0.0
230
1.0
 70
     8
 71
     3
 72
     9
 73
     5
 74
     0
 42
0.000000001
 43
0.0000000001
 40
0.0
 40
0.0
 40
0.0
 40
0.0
 40
1.414213562373095
 40
2.82842712474619
 40
2.82842712474619
 40
2.82842712474619
 40
2.82842712474619
 10
3862.872790948244
 20
3966.128032019788
 30
0.0
 10
3869.943858760109
 20
3966.128032019788
 30
0.0
 10
3885.801723136378
 20
3951.128032019787
 30
0.0
 10
3869.943858760109
 20
3936.128032019788
 30
0.0
 10
3862.872790948242
 20
3936.128032019789
 30
0.0
1001
REVIT
1002
{
1070
     1
1000
216879
1002
}
1002
{
1070
     2
1000
-2000051
1002
}
1002
{
1070
     3
1000
-2000077
1002
}
  0
SPLINE
  5
FD
330
70
100
AcDbEntity
  8
A-DETL
100
AcDbSpline
210
0.0
220
0.0
230
1.0
 70
     8
 71
     3
 72
     8
 73
     4
 74
     0
 42
0.000000001
 43
0.0000000001
 40
0.0
 40
0.0
 40
0.0
 40
0.0
 40
4.12310562561766
 40
4.12310562561766
 40
4.12310562561766
 40
4.12310562561766
 10
3802.872790948243
 20
3951.128032019788
 30
0.0
 10
3823.488319076331
 20
3951.128032019788
 30
0.0
 10
3842.257262820155
 20
3966.128032019789
 30
0.0
 10
3862.872790948244
 20
3966.128032019788
 30
0.0
1001
REVIT
1002
{
1070
     1
1000
216879
1002
}
1002
{
1070
     2
1000
-2000051
1002
}
1002
{
1070
     3
1000
-2000077
1002
}
  0
SPLINE
  5
FE
330
70
100
AcDbEntity
  8
A-DETL
100
AcDbSpline
210
0.0
220
0.0
230
1.0
 70
     8
 71
     3
 72
     9
 73
     5
 74
     0
 42
0.000000001
 43
0.0000000001
 40
0.0
 40
0.0
 40
0.0
 40
0.0
 40
1.414213562373095
 40
2.82842712474619
 40
2.82842712474619
 40
2.82842712474619
 40
2.82842712474619
 10
3802.872790948243
 20
3981.128032019789
 30
0.0
 10
3795.801723136377
 20
3981.128032019789
 30
0.0
 10
3779.943858760108
 20
3966.128032019789
 30
0.0
 10
3795.801723136376
 20
3951.128032019788
 30
0.0
 10
3802.872790948244
 20
3951.128032019789
 30
0.0
1001
REVIT
1002
{
1070
     1
1000
216879
1002
}
1002
{
1070
     2
1000
-2000051
1002
}
1002
{
1070
     3
1000
-2000077
1002
}
  0
SPLINE
  5
FF
330
70
100
AcDbEntity
  8
A-DETL
100
AcDbSpline
210
0.0
220
0.0
230
1.0
 70
     8
 71
     3
 72
     8
 73
     4
 74
     0
 42
0.000000001
 43
0.0000000001
 40
0.0
 40
0.0
 40
0.0
 40
0.0
 40
4.12310562561766
 40
4.12310562561766
 40
4.12310562561766
 40
4.12310562561766
 10
3862.872790948244
 20
3966.128032019788
 30
0.0
 10
3842.257262820155
 20
3966.128032019788
 30
0.0
 10
3823.488319076331
 20
3981.128032019788
 30
0.0
 10
3802.872790948243
 20
3981.128032019789
 30
0.0
1001
REVIT
1002
{
1070
     1
1000
216879
1002
}
1002
{
1070
     2
1000
-2000051
1002
}
1002
{
1070
     3
1000
-2000077
1002
}
  0
SPLINE
  5
100
330
70
100
AcDbEntity
  8
A-DETL
100
AcDbSpline
210
0.0
220
0.0
230
1.0
 70
     8
 71
     3
 72
     9
 73
     5
 74
     0
 42
0.000000001
 43
0.0000000001
 40
0.0
 40
0.0
 40
0.0
 40
0.0
 40
1.414213562373095
 40
2.82842712474619
 40
2.82842712474619
 40
2.82842712474619
 40
2.82842712474619
 10
3862.872790948244
 20
3996.128032019789
 30
0.0
 10
3869.943858760109
 20
3996.128032019789
 30
0.0
 10
3885.801723136378
 20
3981.128032019788
 30
0.0
 10
3869.943858760109
 20
3966.128032019788
 30
0.0
 10
3862.872790948244
 20
3966.128032019788
 30
0.0
1001
REVIT
1002
{
1070
     1
1000
216879
1002
}
1002
{
1070
     2
1000
-2000051
1002
}
1002
{
1070
     3
1000
-2000077
1002
}
  0
SPLINE
  5
101
330
70
100
AcDbEntity
  8
A-DETL
100
AcDbSpline
210
0.0
220
0.0
230
1.0
 70
     8
 71
     3
 72
     8
 73
     4
 74
     0
 42
0.000000001
 43
0.0000000001
 40
0.0
 40
0.0
 40
0.0
 40
0.0
 40
4.12310562561766
 40
4.12310562561766
 40
4.12310562561766
 40
4.12310562561766
 10
3802.872790948243
 20
3981.128032019789
 30
0.0
 10
3823.488319076331
 20
3981.128032019789
 30
0.0
 10
3842.257262820155
 20
3996.12803201979
 30
0.0
 10
3862.872790948244
 20
3996.128032019789
 30
0.0
1001
REVIT
1002
{
1070
     1
1000
216879
1002
}
1002
{
1070
     2
1000
-2000051
1002
}
1002
{
1070
     3
1000
-2000077
1002
}
  0
SPLINE
  5
102
330
70
100
AcDbEntity
  8
A-DETL
100
AcDbSpline
210
0.0
220
0.0
230
1.0
 70
     8
 71
     3
 72
     9
 73
     5
 74
     0
 42
0.000000001
 43
0.0000000001
 40
0.0
 40
0.0
 40
0.0
 40
0.0
 40
1.414213562373095
 40
2.82842712474619
 40
2.82842712474619
 40
2.82842712474619
 40
2.82842712474619
 10
3802.872790948243
 20
4011.128032019788
 30
0.0
 10
3795.801723136377
 20
4011.128032019788
 30
0.0
 10
3779.943858760108
 20
3996.12803201979
 30
0.0
 10
3795.801723136376
 20
3981.128032019789
 30
0.0
 10
3802.872790948244
 20
3981.128032019789
 30
0.0
1001
REVIT
1002
{
1070
     1
1000
216879
1002
}
1002
{
1070
     2
1000
-2000051
1002
}
1002
{
1070
     3
1000
-2000077
1002
}
  0
SPLINE
  5
103
330
70
100
AcDbEntity
  8
A-DETL
100
AcDbSpline
210
0.0
220
0.0
230
1.0
 70
     8
 71
     3
 72
     8
 73
     4
 74
     0
 42
0.000000001
 43
0.0000000001
 40
0.0
 40
0.0
 40
0.0
 40
0.0
 40
4.12310562561766
 40
4.12310562561766
 40
4.12310562561766
 40
4.12310562561766
 10
3862.872790948244
 20
3996.128032019789
 30
0.0
 10
3842.257262820155
 20
3996.128032019789
 30
0.0
 10
3823.488319076331
 20
4011.128032019787
 30
0.0
 10
3802.872790948243
 20
4011.128032019788
 30
0.0
1001
REVIT
1002
{
1070
     1
1000
216879
1002
}
1002
{
1070
     2
1000
-2000051
1002
}
1002
{
1070
     3
1000
-2000077
1002
}
  0
SPLINE
  5
104
330
70
100
AcDbEntity
  8
A-DETL
100
AcDbSpline
210
0.0
220
0.0
230
1.0
 70
     8
 71
     3
 72
     9
 73
     5
 74
     0
 42
0.000000001
 43
0.0000000001
 40
0.145397644931487
 40
0.145397644931487
 40
0.145397644931487
 40
0.145397644931487
 40
1.414213562373095
 40
2.82842712474619
 40
2.82842712474619
 40
2.82842712474619
 40
2.82842712474619
 10
3865.071410117383
 20
4025.898352251926
 30
0.0
 10
3871.490421434831
 20
4024.585857109294
 30
0.0
 10
3884.98653645054
 20
4010.35694456454
 30
0.0
 10
3869.943858760109
 20
3996.128032019789
 30
0.0
 10
3862.872790948244
 20
3996.12803201979
 30
0.0
1001
REVIT
1002
{
1070
     1
1000
216879
1002
}
1002
{
1070
     2
1000
-2000051
1002
}
1002
{
1070
     3
1000
-2000077
1002
}
  0
SPLINE
  5
105
330
70
100
AcDbEntity
  8
A-DETL
100
AcDbSpline
210
0.0
220
0.0
230
1.0
 70
     8
 71
     3
 72
     8
 73
     4
 74
     0
 42
0.000000001
 43
0.0000000001
 40
0.0
 40
0.0
 40
0.0
 40
0.0
 40
3.692784402792925
 40
3.692784402792925
 40
3.692784402792925
 40
3.692784402792925
 10
3802.872790948243
 20
4011.128032019788
 30
0.0
 10
3821.336712962208
 20
4011.128032019788
 30
0.0
 10
3838.31938572822
 20
4023.160376118767
 30
0.0
 10
3856.474117027435
 20
4025.671964953142
 30
0.0
1001
REVIT
1002
{
1070
     1
1000
216879
1002
}
1002
{
1070
     2
1000
-2000051
1002
}
1002
{
1070
     3
1000
-2000077
1002
}
  0
SPLINE
  5
106
330
70
100
AcDbEntity
  8
A-DETL
100
AcDbSpline
210
0.0
220
0.0
230
1.0
 70
     8
 71
     3
 72
     9
 73
     5
 74
     0
 42
0.000000001
 43
0.0000000001
 40
1.264918856485813
 40
1.264918856485813
 40
1.264918856485813
 40
1.264918856485813
 40
1.414213562373095
 40
2.82842712474619
 40
2.82842712474619
 40
2.82842712474619
 40
2.82842712474619
 10
3788.127544244676
 20
4028.494472570893
 30
0.0
 10
3787.961154573064
 20
4027.711541503711
 30
0.0
 10
3787.03575499375
 20
4019.419786761744
 30
0.0
 10
3795.801723136382
 20
4011.128032019802
 30
0.0
 10
3802.872790948244
 20
4011.128032019789
 30
0.0
1001
REVIT
1002
{
1070
     1
1000
216879
1002
}
1002
{
1070
     2
1000
-2000051
1002
}
1002
{
1070
     3
1000
-2000077
1002
}
  0
SPLINE
  5
107
330
70
100
AcDbEntity
  8
A-DETL
100
AcDbSpline
210
0.0
220
0.0
230
1.0
 70
     8
 71
     3
 72
     8
 73
     4
 74
     0
 42
0.000000001
 43
0.0000000001
 40
0.4488354222762191
 40
0.4488354222762191
 40
0.4488354222762191
 40
0.4488354222762191
 40
1.155393189960625
 40
1.155393189960625
 40
1.155393189960625
 40
1.155393189960625
 10
3856.201142574715
 20
4026.622590739659
 30
0.0
 10
3852.729748546709
 20
4027.121307269537
 30
0.0
 10
3849.276228188673
 20
4027.765213508497
 30
0.0
 10
3845.836157415453
 20
4028.518372145533
 30
0.0
1001
REVIT
1002
{
1070
     1
1000
216879
1002
}
1002
{
1070
     2
1000
-2000051
1002
}
1002
{
1070
     3
1000
-2000077
1002
}
  0
SPLINE
  5
108
330
70
100
AcDbEntity
  8
A-DETL
100
AcDbSpline
210
0.0
220
0.0
230
1.0
 70
     8
 71
     3
 72
     8
 73
     4
 74
     0
 42
0.000000001
 43
0.0000000001
 40
2.348627493790478
 40
2.348627493790478
 40
2.348627493790478
 40
2.348627493790478
 40
2.669354444992557
 40
2.669354444992557
 40
2.669354444992557
 40
2.669354444992557
 10
3870.022880644162
 20
4028.424984248748
 30
0.0
 10
3868.516605947871
 20
4027.466630654521
 30
0.0
 10
3866.913530768256
 20
4027.004547087787
 30
0.0
 10
3865.29127426877
 20
4026.642126559885
 30
0.0
1001
REVIT
1002
{
1070
     1
1000
216879
1002
}
1002
{
1070
     2
1000
-2000051
1002
}
1002
{
1070
     3
1000
-2000077
1002
}
  0
INSERT
  5
111
330
70
100
AcDbEntity
  8
A-DETL-GENF
100
AcDbBlockReference
  2
FP Timber Nog Packer1 - Variable-173500-W-TRSIL-21-V - Handrail End Fixing Detail
 10
3857.872790948253
 20
3663.628032019789
 30
0.0
 50
89.9999999999992
1001
REVIT
1002
{
1070
     1
1000
216956
1002
}
1002
{
1070
     5
1000
44489
1002
}
1002
{
1070
     2
1000
-2002000
1002
}
  0
HATCH
  5
117
330
70
100
AcDbEntity
  8
A-DETL-GENF
100
AcDbHatch
 10
0.0
 20
0.0
 30
0.0
210
0.0
220
0.0
230
1.0
  2
FP_1
 70
     0
 71
     0
 91
        1
 92
        0
 93
        5
 72
     1
 10
3884.833161647732
 20
3456.825495228244
 11
3902.833161647731
 21
3456.825495228244
 72
     1
 10
3902.833161647731
 20
3456.825495228244
 11
3902.833161647735
 21
4028.485850018703
 72
     1
 10
3902.833161647735
 20
4028.485850018703
 11
3884.833161647736
 21
4028.485850018703
 72
     1
 10
3884.833161647736
 20
4028.485850018703
 11
3884.833161647733
 21
3584.365035091978
 72
     1
 10
3884.833161647733
 20
3584.365035091978
 11
3884.833161647732
 21
3456.825495228244
 97
        0
 75
     0
 76
     2
 52
0.0
 41
1.0
 77
     0
 78
     2
 53
0.0
 43
0.0
 44
0.0
 45
0.0
 46
11.0
 79
     0
 53
90.0
 43
0.0
 44
0.0
 45
-11.0
 46
0.0000000000000007
 79
     0
 98
        1
 10
0.0
 20
0.0
1001
REVIT
1002
{
1070
     1
1000
216913
1002
}
1002
{
1070
     5
1000
14996
1002
}
1002
{
1070
     2
1000
-2002000
1002
}
  0
LINE
  5
118
330
70
100
AcDbEntity
  8
A-DETL-THIN
100
AcDbLine
 10
3884.833161647732
 20
4028.485850018699
 30
0.0
 11
3884.833161647729
 21
3456.82549522824
 31
0.0
1001
REVIT
1002
{
1070
     1
1000
216913
1002
}
1002
{
1070
     5
1000
14996
1002
}
1002
{
1070
     2
1000
-2000051
1002
}
1002
{
1070
     3
1000
-2000042
1002
}
  0
LINE
  5
119
330
70
100
AcDbEntity
  8
A-DETL-THIN
100
AcDbLine
 10
3902.833161647728
 20
3456.82549522824
 30
0.0
 11
3902.833161647733
 21
4028.485850018699
 31
0.0
1001
REVIT
1002
{
1070
     1
1000
216913
1002
}
1002
{
1070
     5
1000
14996
1002
}
1002
{
1070
     2
1000
-2000051
1002
}
1002
{
1070
     3
1000
-2000042
1002
}
  0
LINE
  5
11A
330
70
100
AcDbEntity
  8
A-DETL-THIN
100
AcDbLine
 10
3877.872790948254
 20
3456.82549522824
 30
0.0
 11
3877.872790948248
 21
4028.485850018699
 31
0.0
1001
REVIT
1002
{
1070
     1
1000
216863
1002
}
1002
{
1070
     2
1000
-2000051
1002
}
1002
{
1070
     3
1000
-2000042
1002
}
  0
HATCH
  5
120
330
70
100
AcDbEntity
  8
A-DETL-GENF
100
AcDbHatch
 10
0.0
 20
0.0
 30
0.0
210
0.0
220
0.0
230
1.0
  2
FP_2
 70
     0
 71
     0
 91
        1
 92
        0
 93
        5
 72
     1
 10
3774.872790948246
 20
3456.825495228241
 11
3787.872790948244
 21
3456.825495228241
 72
     1
 10
3787.872790948244
 20
3456.825495228241
 11
3787.872790948243
 21
4028.485850018703
 72
     1
 10
3787.872790948243
 20
4028.485850018703
 11
3774.872790948244
 21
4028.485850018703
 72
     1
 10
3774.872790948244
 20
4028.485850018703
 11
3774.872790948246
 21
3584.365035091978
 72
     1
 10
3774.872790948246
 20
3584.365035091978
 11
3774.872790948246
 21
3456.825495228241
 97
        0
 75
     0
 76
     2
 52
0.0
 41
1.0
 77
     0
 78
     9
 53
0.0
 43
0.0
 44
0.0
 45
20.32
 46
5.08
 79
     5
 49
1.675999999999999
 49
-13.564
 49
1.675999999999999
 49
-13.564
 49
-81.28
 53
0.0
 43
0.0
 44
0.0
 45
20.32
 46
5.08
 79
     6
 49
-30.48
 49
1.675999999999999
 49
-28.804
 49
1.675999999999999
 49
-13.564
 49
-35.56
 53
0.0
 43
0.0
 44
0.0
 45
20.32
 46
5.08
 79
     5
 49
-76.2
 49
1.675999999999999
 49
-8.483999999999999
 49
1.675999999999999
 49
-23.724
 53
120.0
 43
7.62
 44
2.54
 45
-14.55940905122494
 46
15.0576362048998
 79
     5
 49
1.675999999999999
 49
-13.564
 49
1.675999999999999
 49
-13.564
 49
-81.27999999999998
 53
120.0
 43
7.62
 44
2.54
 45
-14.55940905122494
 46
15.0576362048998
 79
     6
 49
-30.48
 49
1.675999999999999
 49
-28.804
 49
1.675999999999999
 49
-13.564
 49
-35.56
 53
120.0
 43
7.62
 44
2.54
 45
-14.55940905122494
 46
15.0576362048998
 79
     5
 49
-76.19999999999999
 49
1.675999999999999
 49
-8.483999999999998
 49
1.675999999999999
 49
-23.724
 53
240.0
 43
10.16
 44
12.7
 45
-5.760590948775045
 46
-20.1376362048998
 79
     5
 49
1.675999999999999
 49
-13.564
 49
1.675999999999999
 49
-13.564
 49
-81.28
 53
240.0
 43
10.16
 44
12.7
 45
-5.760590948775045
 46
-20.1376362048998
 79
     6
 49
-30.48
 49
1.675999999999999
 49
-28.804
 49
1.675999999999999
 49
-13.564
 49
-35.56
 53
240.0
 43
10.16
 44
12.7
 45
-5.760590948775045
 46
-20.1376362048998
 79
     5
 49
-76.2
 49
1.675999999999999
 49
-8.483999999999999
 49
1.675999999999999
 49
-23.724
 98
        1
 10
0.0
 20
0.0
1001
REVIT
1002
{
1070
     1
1000
216871
1002
}
1002
{
1070
     5
1000
17941
1002
}
1002
{
1070
     2
1000
-2002000
1002
}
  0
LINE
  5
121
330
70
100
AcDbEntity
  8
A-DETL
100
AcDbLine
 10
3774.872790948241
 20
4028.485850018699
 30
0.0
 11
3774.872790948244
 21
3456.825495228237
 31
0.0
1001
REVIT
1002
{
1070
     1
1000
216871
1002
}
1002
{
1070
     5
1000
17941
1002
}
1002
{
1070
     2
1000
-2000051
1002
}
1002
{
1070
     3
1000
16210
1002
}
  0
LINE
  5
122
330
70
100
AcDbEntity
  8
A-DETL
100
AcDbLine
 10
3787.872790948241
 20
3456.825495228238
 30
0.0
 11
3787.872790948239
 21
4028.485850018699
 31
0.0
1001
REVIT
1002
{
1070
     1
1000
216871
1002
}
1002
{
1070
     5
1000
17941
1002
}
1002
{
1070
     2
1000
-2000051
1002
}
1002
{
1070
     3
1000
16210
1002
}
  0
INSERT
  5
128
330
70
100
AcDbEntity
  8
A-DETL-GENF
100
AcDbBlockReference
  2
HP_WProof - Building Wrap - HP_WProof - Building Wrap-130950-W-TRSIL-21-V - Handrail End Fixing Detail
 10
3880.226417541487
 20
3421.82549522824
 30
0.0
 50
180.0
1001
REVIT
1002
{
1070
     1
1000
216876
1002
}
1002
{
1070
     5
1000
59792
1002
}
1002
{
1070
     2
1000
-2002000
1002
}
  0
INSERT
  5
131
330
70
100
AcDbEntity
  8
A-DETL-GENF
100
AcDbBlockReference
  2
FP - Break Line - FP - Break Line-168850-W-TRSIL-21-V - Handrail End Fixing Detail
 10
3853.62697356781
 20
3456.825495228244
 30
0.0
1001
REVIT
1002
{
1070
     1
1000
216862
1002
}
1002
{
1070
     5
1000
59790
1002
}
1002
{
1070
     2
1000
-2002000
1002
}
  0
INSERT
  5
13A
330
70
100
AcDbEntity
  8
A-DETL-GENF
100
AcDbBlockReference
  2
FP - Break Line - FP - Break Line-168802-W-TRSIL-21-V - Handrail End Fixing Detail
 10
3855.760230067448
 20
4028.485850018696
 30
0.0
1001
REVIT
1002
{
1070
     1
1000
216868
1002
}
1002
{
1070
     5
1000
59790
1002
}
1002
{
1070
     2
1000
-2002000
1002
}
  0
HATCH
  5
146
330
70
100
AcDbEntity
  8
A-DETL-GENF
100
AcDbHatch
 10
0.0
 20
0.0
 30
0.0
210
0.0
220
0.0
230
1.0
  2
FP_3
 70
     0
 71
     0
 91
        1
 92
        0
 93
       11
 72
     1
 10
3935.153234689713
 20
3779.187499586417
 11
3940.153234689712
 21
3779.187499586417
 72
     1
 10
3940.153234689712
 20
3779.187499586417
 11
3940.153234689712
 21
3815.703492611401
 72
     1
 10
3940.153234689712
 20
3815.703492611401
 11
3940.079805066306
 21
3816.261245975388
 72
     1
 10
3940.079805066306
 20
3816.261245975388
 11
3939.864520303573
 21
3816.78098936935
 72
     1
 10
3939.864520303573
 20
3816.78098936935
 11
3939.522051702319
 21
3817.227303139905
 72
     1
 10
3939.522051702319
 20
3817.227303139905
 11
3939.075737931763
 21
3817.569771741159
 72
     1
 10
3939.075737931763
 20
3817.569771741159
 11
3938.555994537802
 21
3817.785056503892
 72
     1
 10
3938.555994537802
 20
3817.785056503892
 11
3937.998241173815
 21
3817.858486127299
 72
     1
 10
3937.998241173815
 20
3817.858486127299
 11
3935.153234689713
 21
3817.858486127299
 72
     1
 10
3935.153234689713
 20
3817.858486127299
 11
3935.153234689713
 21
3779.630280088237
 72
     1
 10
3935.153234689713
 20
3779.630280088237
 11
3935.153234689713
 21
3779.187499586417
 97
        0
 75
     0
 76
     2
 52
0.0
 41
1.0
 77
     0
 78
     1
 53
45.0
 43
0.0
 44
0.0
 45
-7.071067811865475
 46
7.071067811865475
 79
     0
 98
        1
 10
0.0
 20
0.0
1001
REVIT
1002
{
1070
     1
1000
216933
1002
}
1002
{
1070
     5
1000
219786
1002
}
1002
{
1070
     2
1000
-2002000
1002
}
  0
LINE
  5
147
330
70
100
AcDbEntity
  8
A-DETL-THIN
100
AcDbLine
 10
3935.153234689709
 20
3817.858486127295
 30
0.0
 11
3935.153234689709
 21
3817.70745795384
 31
0.0
1001
REVIT
1002
{
1070
     1
1000
216933
1002
}
1002
{
1070
     5
1000
219786
1002
}
1002
{
1070
     2
1000
-2000051
1002
}
1002
{
1070
     3
1000
-2000042
1002
}
  0
LINE
  5
148
330
70
100
AcDbEntity
  8
A-DETL-THIN
100
AcDbLine
 10
3935.153234689709
 20
3806.896032357007
 30
0.0
 11
3935.153234689709
 21
3779.187499586413
 31
0.0
1001
REVIT
1002
{
1070
     1
1000
216933
1002
}
1002
{
1070
     5
1000
219786
1002
}
1002
{
1070
     2
1000
-2000051
1002
}
1002
{
1070
     3
1000
-2000042
1002
}
  0
LINE
  5
149
330
70
100
AcDbEntity
  8
A-DETL-THIN
100
AcDbLine
 10
3940.153234689708
 20
3779.187499586413
 30
0.0
 11
3940.153234689708
 21
3791.355870228243
 31
0.0
1001
REVIT
1002
{
1070
     1
1000
216933
1002
}
1002
{
1070
     5
1000
219786
1002
}
1002
{
1070
     2
1000
-2000051
1002
}
1002
{
1070
     3
1000
-2000042
1002
}
  0
LINE
  5
14A
330
70
100
AcDbEntity
  8
A-DETL-THIN
100
AcDbLine
 10
3940.153234689708
 20
3802.295120228238
 30
0.0
 11
3940.153234689708
 21
3815.703492611397
 31
0.0
1001
REVIT
1002
{
1070
     1
1000
216933
1002
}
1002
{
1070
     5
1000
219786
1002
}
1002
{
1070
     2
1000
-2000051
1002
}
1002
{
1070
     3
1000
-2000042
1002
}
  0
ARC
  5
14B
330
70
100
AcDbEntity
  8
A-DETL-THIN
100
AcDbCircle
 10
3937.998241173812
 20
3815.703492611398
 30
0.0
 40
2.154993515896421
100
AcDbArc
 50
359.9999999999876
 51
90.00000000001207
1001
REVIT
1002
{
1070
     1
1000
216933
1002
}
1002
{
1070
     5
1000
219786
1002
}
1002
{
1070
     2
1000
-2000051
1002
}
1002
{
1070
     3
1000
-2000042
1002
}
  0
LINE
  5
14C
330
70
100
AcDbEntity
  8
A-DETL-THIN
100
AcDbLine
 10
3937.998241173811
 20
3817.858486127295
 30
0.0
 11
3935.153234689709
 21
3817.858486127295
 31
0.0
1001
REVIT
1002
{
1070
     1
1000
216933
1002
}
1002
{
1070
     5
1000
219786
1002
}
1002
{
1070
     2
1000
-2000051
1002
}
1002
{
1070
     3
1000
-2000042
1002
}
  0
HATCH
  5
163
330
70
100
AcDbEntity
  8
A-DETL-GENF
100
AcDbHatch
 10
0.0
 20
0.0
 30
0.0
210
0.0
220
0.0
230
1.0
  2
FP_3
 70
     0
 71
     0
 91
        1
 92
        0
 93
       22
 72
     1
 10
4064.950670938578
 20
3729.187499586416
 11
4068.746932437772
 21
3730.445986718689
 72
     1
 10
4068.746932437772
 20
3730.445986718689
 11
4071.594128562168
 21
3732.223185401227
 72
     1
 10
4071.594128562168
 20
3732.223185401227
 11
4073.492259311765
 21
3734.519095634031
 72
     1
 10
4073.492259311765
 20
3734.519095634031
 11
4074.441324686564
 21
3737.333717417098
 72
     1
 10
4074.441324686564
 20
3737.333717417098
 11
4074.441324686563
 21
3740.667050750433
 72
     1
 10
4074.441324686563
 20
3740.667050750433
 11
4073.492259311765
 21
3744.519095634032
 72
     1
 10
4073.492259311765
 20
3744.519095634032
 11
4071.594128562168
 21
3748.889852067895
 72
     1
 10
4071.594128562168
 20
3748.889852067895
 11
4068.746932437773
 21
3753.779320052025
 72
     1
 10
4068.746932437773
 20
3753.779320052025
 11
4064.950670938578
 21
3759.187499586418
 72
     1
 10
4064.950670938578
 20
3759.187499586418
 11
4062.441471613378
 21
3762.646041846457
 72
     1
 10
4062.441471613378
 20
3762.646041846457
 11
4060.55957211948
 21
3765.795504097042
 72
     1
 10
4060.55957211948
 20
3765.795504097042
 11
4059.304972456881
 21
3768.635886338173
 72
     1
 10
4059.304972456881
 20
3768.635886338173
 11
4058.677672625582
 21
3771.16718856985
 72
     1
 10
4058.677672625582
 20
3771.16718856985
 11
4058.677672625582
 21
3773.389410792071
 72
     1
 10
4058.677672625582
 20
3773.389410792071
 11
4059.304972456881
 21
3775.302553004838
 72
     1
 10
4059.304972456881
 20
3775.302553004838
 11
4060.559572119482
 21
3776.906615208154
 72
     1
 10
4060.559572119482
 20
3776.906615208154
 11
4062.441471613379
 21
3778.201597402013
 72
     1
 10
4062.441471613379
 20
3778.201597402013
 11
4064.950670938578
 21
3779.187499586417
 72
     1
 10
4064.950670938578
 20
3779.187499586417
 11
3935.153234689713
 21
3779.187499586417
 72
     1
 10
3935.153234689713
 20
3779.187499586417
 11
3935.153234689713
 21
3729.187499586417
 72
     1
 10
3935.153234689713
 20
3729.187499586417
 11
3957.681954265316
 21
3729.187499586416
 72
     1
 10
3957.681954265316
 20
3729.187499586416
 11
4064.950670938578
 21
3729.187499586416
 97
        0
 75
     0
 76
     2
 52
0.0
 41
1.0
 77
     0
 78
     1
 53
45.0
 43
0.0
 44
0.0
 45
-7.071067811865475
 46
7.071067811865475
 79
     0
 98
        1
 10
0.0
 20
0.0
1001
REVIT
1002
{
1070
     1
1000
216894
1002
}
1002
{
1070
     5
1000
219786
1002
}
1002
{
1070
     2
1000
-2002000
1002
}
  0
LINE
  5
164
330
70
100
AcDbEntity
  8
A-DETL-THIN
100
AcDbLine
 10
3935.153234689709
 20
3779.187499586413
 30
0.0
 11
3935.153234689709
 21
3729.187499586414
 31
0.0
1001
REVIT
1002
{
1070
     1
1000
216894
1002
}
1002
{
1070
     5
1000
219786
1002
}
1002
{
1070
     2
1000
-2000051
1002
}
1002
{
1070
     3
1000
-2000042
1002
}
  0
LINE
  5
165
330
70
100
AcDbEntity
  8
A-DETL-THIN
100
AcDbLine
 10
3940.153234689708
 20
3729.187499586414
 30
0.0
 11
4064.950670938574
 21
3729.187499586414
 31
0.0
1001
REVIT
1002
{
1070
     1
1000
216894
1002
}
1002
{
1070
     5
1000
219786
1002
}
1002
{
1070
     2
1000
-2000051
1002
}
1002
{
1070
     3
1000
-2000042
1002
}
  0
SPLINE
  5
166
330
70
100
AcDbEntity
  8
A-DETL-THIN
100
AcDbSpline
210
0.0
220
0.0
230
1.0
 70
     8
 71
     3
 72
    15
 73
    11
 74
     0
 42
0.000000001
 43
0.0000000001
 40
0.0
 40
0.0
 40
0.0
 40
0.0
 40
0.1111111111111111
 40
0.2222222222222222
 40
0.4444444444444445
 40
0.5555555555555556
 40
0.6666666666666666
 40
0.7777777777777778
 40
0.8888888888888889
 40
1.0
 40
1.0
 40
1.0
 40
1.0
 10
4064.950670938574
 20
3729.187499586413
 30
0.0
 10
4066.374269000771
 20
3729.520543372127
 30
0.0
 10
4068.905110000234
 20
3730.359534793642
 30
0.0
 10
4072.701371499429
 20
3732.729133037027
 30
0.0
 10
4074.599502249025
 20
3736.136154380937
 30
0.0
 10
4074.599502249025
 20
3740.580598825385
 30
0.0
 10
4073.65043687423
 20
3744.432643708984
 30
0.0
 10
4071.75230612463
 20
3748.803400142848
 30
0.0
 10
4068.905110000236
 20
3753.692868126977
 30
0.0
 10
4066.374269000774
 20
3757.298321149907
 30
0.0
 10
4064.950670938573
 20
3759.187499586414
 30
0.0
1001
REVIT
1002
{
1070
     1
1000
216894
1002
}
1002
{
1070
     5
1000
219786
1002
}
1002
{
1070
     2
1000
-2000051
1002
}
1002
{
1070
     3
1000
-2000042
1002
}
  0
SPLINE
  5
167
330
70
100
AcDbEntity
  8
A-DETL-THIN
100
AcDbSpline
210
0.0
220
0.0
230
1.0
 70
     8
 71
     3
 72
    16
 73
    12
 74
     0
 42
0.000000001
 43
0.0000000001
 40
0.0
 40
0.0
 40
0.0
 40
0.0
 40
0.1111111111111111
 40
0.2222222222222222
 40
0.3333333333333333
 40
0.4444444444444445
 40
0.5555555555555556
 40
0.6666666666666666
 40
0.7777777777777778
 40
0.8888888888888889
 40
1.0
 40
1.0
 40
1.0
 40
1.0
 10
4064.950670938573
 20
3759.187499586415
 30
0.0
 10
4064.009721191623
 20
3760.391860341336
 30
0.0
 10
4062.336921641491
 20
3762.697555181361
 30
0.0
 10
4060.455022147592
 20
3765.847017431947
 30
0.0
 10
4059.200422484994
 20
3768.687399673078
 30
0.0
 10
4058.573122653696
 20
3771.218701904756
 30
0.0
 10
4058.573122653695
 20
3773.440924126977
 30
0.0
 10
4059.200422484992
 20
3775.354066339744
 30
0.0
 10
4060.455022147595
 20
3776.958128543062
 30
0.0
 10
4062.336921641491
 20
3778.253110736916
 30
0.0
 10
4064.009721191625
 20
3778.910378859855
 30
0.0
 10
4064.950670938574
 20
3779.187499586414
 30
0.0
1001
REVIT
1002
{
1070
     1
1000
216894
1002
}
1002
{
1070
     5
1000
219786
1002
}
1002
{
1070
     2
1000
-2000051
1002
}
1002
{
1070
     3
1000
-2000042
1002
}
  0
LINE
  5
168
330
70
100
AcDbEntity
  8
A-DETL-THIN
100
AcDbLine
 10
4064.950670938574
 20
3779.187499586413
 30
0.0
 11
3940.153234689708
 21
3779.187499586413
 31
0.0
1001
REVIT
1002
{
1070
     1
1000
216894
1002
}
1002
{
1070
     5
1000
219786
1002
}
1002
{
1070
     2
1000
-2000051
1002
}
1002
{
1070
     3
1000
-2000042
1002
}
  0
SPLINE
  5
16A
330
70
100
AcDbEntity
  8
A-DETL-MEDM
100
AcDbSpline
210
0.0
220
0.0
230
1.0
 70
     8
 71
     2
 72
     6
 73
     3
 74
     0
 42
0.000000001
 43
0.0000000001
 40
0.0
 40
0.0
 40
0.0
 40
0.0646454575443003
 40
0.0646454575443003
 40
0.0646454575443003
 10
4064.950670938574
 20
3779.187499586414
 30
0.0
 10
4080.426225386985
 20
3775.351214034641
 30
0.0
 10
4066.967879192153
 20
3756.130703742446
 30
0.0
1001
REVIT
1002
{
1070
     1
1000
216902
1002
}
1002
{
1070
     2
1000
-2000051
1002
}
1002
{
1070
     3
1000
-2000043
1002
}
  0
INSERT
  5
173
330
70
100
AcDbEntity
  8
A-DETL-GENF
100
AcDbBlockReference
  2
4811_Air Seal w Foam - Airseal on PEF Backing Rod-172310-W-TRSIL-21-V - Handrail End Fixing Detail
 10
3933.243562670903
 20
3810.324848135676
 30
0.0
 50
269.9999999999985
1001
REVIT
1002
{
1070
     1
1000
216991
1002
}
1002
{
1070
     5
1000
59784
1002
}
1002
{
1070
     2
1000
-2002000
1002
}
  0
INSERT
  5
17E
330
70
100
AcDbEntity
  8
A-DETL-GENF
100
AcDbBlockReference
  2
4811_Air Seal w Foam - Airseal on PEF Backing Rod-172733-W-TRSIL-21-V - Handrail End Fixing Detail
 10
3933.243562670903
 20
3697.979529573239
 30
0.0
 50
90.00000000000147
1001
REVIT
1002
{
1070
     1
1000
216992
1002
}
1002
{
1070
     5
1000
59784
1002
}
1002
{
1070
     2
1000
-2002000
1002
}
  0
HATCH
  5
18A
330
70
100
AcDbEntity
  8
A-DETL-GENF
100
AcDbHatch
 10
0.0
 20
0.0
 30
0.0
210
0.0
220
0.0
230
1.0
  2
FP_3
 70
     0
 71
     0
 91
        1
 92
        0
 93
       11
 72
     1
 10
3935.153234689713
 20
3690.516513045535
 11
3937.998241173815
 21
3690.516513045535
 72
     1
 10
3937.998241173815
 20
3690.516513045535
 11
3938.555994537802
 21
3690.589942668943
 72
     1
 10
3938.555994537802
 20
3690.589942668943
 11
3939.075737931763
 21
3690.805227431674
 72
     1
 10
3939.075737931763
 20
3690.805227431674
 11
3939.522051702319
 21
3691.147696032928
 72
     1
 10
3939.522051702319
 20
3691.147696032928
 11
3939.864520303573
 21
3691.594009803484
 72
     1
 10
3939.864520303573
 20
3691.594009803484
 11
3940.079805066306
 21
3692.113753197446
 72
     1
 10
3940.079805066306
 20
3692.113753197446
 11
3940.153234689712
 21
3692.936999657767
 72
     1
 10
3940.153234689712
 20
3692.936999657767
 11
3940.153234689712
 21
3729.187499586417
 72
     1
 10
3940.153234689712
 20
3729.187499586417
 11
3935.153234689713
 21
3729.187499586417
 72
     1
 10
3935.153234689713
 20
3729.187499586417
 11
3935.153234689713
 21
3692.936999657767
 72
     1
 10
3935.153234689713
 20
3692.936999657767
 11
3935.153234689713
 21
3690.516513045535
 97
        0
 75
     0
 76
     2
 52
0.0
 41
1.0
 77
     0
 78
     1
 53
45.0
 43
0.0
 44
0.0
 45
-7.071067811865475
 46
7.071067811865475
 79
     0
 98
        1
 10
0.0
 20
0.0
1001
REVIT
1002
{
1070
     1
1000
218630
1002
}
1002
{
1070
     5
1000
219786
1002
}
1002
{
1070
     2
1000
-2002000
1002
}
  0
LINE
  5
18B
330
70
100
AcDbEntity
  8
A-DETL-THIN
100
AcDbLine
 10
3935.153234689709
 20
3690.516513045532
 30
0.0
 11
3937.998241173811
 21
3690.516513045532
 31
0.0
1001
REVIT
1002
{
1070
     1
1000
218630
1002
}
1002
{
1070
     5
1000
219786
1002
}
1002
{
1070
     2
1000
-2000051
1002
}
1002
{
1070
     3
1000
-2000042
1002
}
  0
ARC
  5
18C
330
70
100
AcDbEntity
  8
A-DETL-THIN
100
AcDbCircle
 10
3937.998241173812
 20
3692.671506561429
 30
0.0
 40
2.154993515896421
100
AcDbArc
 50
269.9999999999875
 51
0.0000000000120906
1001
REVIT
1002
{
1070
     1
1000
218630
1002
}
1002
{
1070
     5
1000
219786
1002
}
1002
{
1070
     2
1000
-2000051
1002
}
1002
{
1070
     3
1000
-2000042
1002
}
  0
LINE
  5
18D
330
70
100
AcDbEntity
  8
A-DETL-THIN
100
AcDbLine
 10
3940.153234689708
 20
3692.671506561429
 30
0.0
 11
3940.153234689708
 21
3706.079878944589
 31
0.0
1001
REVIT
1002
{
1070
     1
1000
218630
1002
}
1002
{
1070
     5
1000
219786
1002
}
1002
{
1070
     2
1000
-2000051
1002
}
1002
{
1070
     3
1000
-2000042
1002
}
  0
LINE
  5
18E
330
70
100
AcDbEntity
  8
A-DETL-THIN
100
AcDbLine
 10
3940.153234689708
 20
3717.019128944585
 30
0.0
 11
3940.153234689708
 21
3729.187499586414
 31
0.0
1001
REVIT
1002
{
1070
     1
1000
218630
1002
}
1002
{
1070
     5
1000
219786
1002
}
1002
{
1070
     2
1000
-2000051
1002
}
1002
{
1070
     3
1000
-2000042
1002
}
  0
LINE
  5
18F
330
70
100
AcDbEntity
  8
A-DETL-THIN
100
AcDbLine
 10
3935.153234689709
 20
3729.187499586414
 30
0.0
 11
3935.153234689709
 21
3690.516513045532
 31
0.0
1001
REVIT
1002
{
1070
     1
1000
218630
1002
}
1002
{
1070
     5
1000
219786
1002
}
1002
{
1070
     2
1000
-2000051
1002
}
1002
{
1070
     3
1000
-2000042
1002
}
  0
INSERT
  5
198
330
70
100
AcDbEntity
  8
A-DETL-GENF
100
AcDbBlockReference
  2
FP Timber Nog Packer1 - Variable-216047-W-TRSIL-21-V - Handrail End Fixing Detail
 10
3932.829608845169
 20
3853.341407901068
 30
0.0
 50
269.9999999999998
1001
REVIT
1002
{
1070
     1
1000
218796
1002
}
1002
{
1070
     5
1000
44489
1002
}
1002
{
1070
     2
1000
-2002000
1002
}
  0
INSERT
  5
1D6
330
70
100
AcDbEntity
  8
A-DETL-GENF
100
AcDbBlockReference
  2
Hex head timberfix screw_long - Hex head timberfix screw_long-161035-W-TRSIL-21-V - Handrail End Fixing Detail
 10
3940.153234689708
 20
3796.825495228241
 30
0.0
 50
89.99999999999991
1001
REVIT
1002
{
1070
     1
1000
219387
1002
}
1002
{
1070
     5
1000
161035
1002
}
1002
{
1070
     2
1000
-2002000
1002
}
  0
INSERT
  5
214
330
70
100
AcDbEntity
  8
A-DETL-GENF
100
AcDbBlockReference
  2
Hex head timberfix screw_long - Hex head timberfix screw_long-219692-W-TRSIL-21-V - Handrail End Fixing Detail
 10
3940.153234689708
 20
3711.549503944587
 30
0.0
 50
270.0000000000001
1001
REVIT
1002
{
1070
     1
1000
219691
1002
}
1002
{
1070
     5
1000
161035
1002
}
1002
{
1070
     2
1000
-2002000
1002
}
  0
LINE
  5
216
330
70
100
AcDbEntity
  8
G-ANNO-TEXT
100
AcDbLine
 10
3630.043539851028
 20
3716.037350396791
 30
0.0
 11
3602.328284888018
 21
3716.037350396791
 31
0.0
1001
REVIT
1002
{
1070
     1
1000
216864
1002
}
1002
{
1070
     5
1000
16489
1002
}
1002
{
1070
     2
1000
-2000300
1002
}
  0
LINE
  5
217
330
70
100
AcDbEntity
  8
G-ANNO-TEXT
100
AcDbLine
 10
3779.334155377863
 20
3716.037350396792
 30
0.0
 11
3764.334155377864
 21
3718.012137860603
 31
0.0
1001
REVIT
1002
{
1070
     1
1000
216864
1002
}
1002
{
1070
     5
1000
16489
1002
}
1002
{
1070
     2
1000
-2000300
1002
}
  0
LINE
  5
218
330
70
100
AcDbEntity
  8
G-ANNO-TEXT
100
AcDbLine
 10
3764.334155377864
 20
3718.012137860603
 30
0.0
 11
3764.334155377864
 21
3714.062562932982
 31
0.0
1001
REVIT
1002
{
1070
     1
1000
216864
1002
}
1002
{
1070
     5
1000
16489
1002
}
1002
{
1070
     2
1000
-2000300
1002
}
  0
LINE
  5
219
330
70
100
AcDbEntity
  8
G-ANNO-TEXT
100
AcDbLine
 10
3764.334155377864
 20
3714.062562932982
 30
0.0
 11
3779.334155377863
 21
3716.037350396792
 31
0.0
1001
REVIT
1002
{
1070
     1
1000
216864
1002
}
1002
{
1070
     5
1000
16489
1002
}
1002
{
1070
     2
1000
-2000300
1002
}
  0
HATCH
  5
21A
330
70
100
AcDbEntity
  8
G-ANNO-TEXT
100
AcDbHatch
 10
0.0
 20
0.0
 30
0.0
210
0.0
220
0.0
230
1.0
  2
SOLID
 70
     1
 71
     0
 91
        1
 92
        0
 93
        3
 72
     1
 10
3779.334155377863
 20
3716.037350396792
 11
3764.334155377864
 21
3718.012137860603
 72
     1
 10
3764.334155377864
 20
3718.012137860603
 11
3764.334155377864
 21
3714.062562932982
 72
     1
 10
3764.334155377864
 20
3714.062562932982
 11
3779.334155377863
 21
3716.037350396792
 97
        0
 75
     0
 76
     1
 98
        1
 10
0.0
 20
0.0
450
        0
451
        0
460
0.0
461
0.0
452
        0
462
0.0
453
        0
470

1001
REVIT
1002
{
1070
     1
1000
216864
1002
}
1002
{
1070
     5
1000
16489
1002
}
1002
{
1070
     2
1000
-2000300
1002
}
  0
LINE
  5
21B
330
70
100
AcDbEntity
  8
G-ANNO-TEXT
100
AcDbLine
 10
3779.334155377863
 20
3716.037350396792
 30
0.0
 11
3630.043539851028
 21
3716.037350396791
 31
0.0
1001
REVIT
1002
{
1070
     1
1000
216864
1002
}
1002
{
1070
     5
1000
16489
1002
}
1002
{
1070
     2
1000
-2000300
1002
}
  0
MTEXT
  5
21D
330
70
100
AcDbEntity
  8
G-ANNO-TEXT
100
AcDbMText
 10
3495.232191138018
 20
3722.28735039679
 30
0.0
 40
12.5
 41
123.740465625
 46
0.0
 71
     1
 72
     1
  1
Internal lining
  7
Century Gothic
 73
     2
 44
1.0
1001
REVIT
1002
{
1070
     1
1000
216864
1002
}
1002
{
1070
     5
1000
16489
1002
}
1002
{
1070
     2
1000
-2000300
1002
}
  0
LINE
  5
21E
330
70
100
AcDbEntity
  8
G-ANNO-TEXT
100
AcDbLine
 10
3882.8919617691
 20
3841.728256708275
 30
0.0
 11
3894.317643081887
 21
3851.645594660862
 31
0.0
1001
REVIT
1002
{
1070
     1
1000
216865
1002
}
1002
{
1070
     5
1000
16489
1002
}
1002
{
1070
     2
1000
-2000300
1002
}
  0
LINE
  5
21F
330
70
100
AcDbEntity
  8
G-ANNO-TEXT
100
AcDbLine
 10
3894.317643081887
 20
3851.645594660862
 30
0.0
 11
3891.361526493223
 21
3854.264853491738
 31
0.0
1001
REVIT
1002
{
1070
     1
1000
216865
1002
}
1002
{
1070
     5
1000
16489
1002
}
1002
{
1070
     2
1000
-2000300
1002
}
  0
LINE
  5
220
330
70
100
AcDbEntity
  8
G-ANNO-TEXT
100
AcDbLine
 10
3891.361526493223
 20
3854.264853491738
 30
0.0
 11
3882.8919617691
 21
3841.728256708275
 31
0.0
1001
REVIT
1002
{
1070
     1
1000
216865
1002
}
1002
{
1070
     5
1000
16489
1002
}
1002
{
1070
     2
1000
-2000300
1002
}
  0
HATCH
  5
221
330
70
100
AcDbEntity
  8
G-ANNO-TEXT
100
AcDbHatch
 10
0.0
 20
0.0
 30
0.0
210
0.0
220
0.0
230
1.0
  2
SOLID
 70
     1
 71
     0
 91
        1
 92
        0
 93
        3
 72
     1
 10
3882.8919617691
 20
3841.728256708275
 11
3894.317643081887
 21
3851.645594660862
 72
     1
 10
3894.317643081887
 20
3851.645594660862
 11
3891.361526493223
 21
3854.264853491738
 72
     1
 10
3891.361526493223
 20
3854.264853491738
 11
3882.8919617691
 21
3841.728256708275
 97
        0
 75
     0
 76
     1
 98
        1
 10
0.0
 20
0.0
450
        0
451
        0
460
0.0
461
0.0
452
        0
462
0.0
453
        0
470

1001
REVIT
1002
{
1070
     1
1000
216865
1002
}
1002
{
1070
     5
1000
16489
1002
}
1002
{
1070
     2
1000
-2000300
1002
}
  0
LINE
  5
222
330
70
100
AcDbEntity
  8
G-ANNO-TEXT
100
AcDbLine
 10
3977.182420171504
 20
3948.145226635265
 30
0.0
 11
4051.843929319885
 21
3948.145226635262
 31
0.0
1001
REVIT
1002
{
1070
     1
1000
216865
1002
}
1002
{
1070
     5
1000
16489
1002
}
1002
{
1070
     2
1000
-2000300
1002
}
  0
LINE
  5
223
330
70
100
AcDbEntity
  8
G-ANNO-TEXT
100
AcDbLine
 10
3882.8919617691
 20
3841.728256708275
 30
0.0
 11
3977.182420171504
 21
3948.145226635265
 31
0.0
1001
REVIT
1002
{
1070
     1
1000
216865
1002
}
1002
{
1070
     5
1000
16489
1002
}
1002
{
1070
     2
1000
-2000300
1002
}
  0
MTEXT
  5
224
330
70
100
AcDbEntity
  8
G-ANNO-TEXT
100
AcDbMText
 10
4056.843929319886
 20
3954.39522663526
 30
0.0
 40
12.5
 41
200.5822125
 46
0.0
 71
     1
 72
     1
  1
Flexible flashing tape 
  7
Century Gothic
 73
     2
 44
1.0
1001
REVIT
1002
{
1070
     1
1000
216865
1002
}
1002
{
1070
     5
1000
16489
1002
}
1002
{
1070
     2
1000
-2000300
1002
}
  0
MTEXT
  5
225
330
70
100
AcDbEntity
  8
G-ANNO-TEXT
100
AcDbMText
 10
4056.843929319886
 20
3933.55928913526
 30
0.0
 40
12.5
 41
185.791078125
 46
0.0
 71
     1
 72
     1
  1
bandage all roundfi
  7
Century Gothic
 73
     2
 44
1.0
1001
REVIT
1002
{
1070
     1
1000
216865
1002
}
1002
{
1070
     5
1000
16489
1002
}
1002
{
1070
     2
1000
-2000300
1002
}
  0
LINE
  5
226
330
70
100
AcDbEntity
  8
G-ANNO-TEXT
100
AcDbLine
 10
3643.58090819117
 20
3876.507345285348
 30
0.0
 11
3604.411878638018
 21
3876.507345285348
 31
0.0
1001
REVIT
1002
{
1070
     1
1000
216867
1002
}
1002
{
1070
     5
1000
16489
1002
}
1002
{
1070
     2
1000
-2000300
1002
}
  0
LINE
  5
227
330
70
100
AcDbEntity
  8
G-ANNO-TEXT
100
AcDbLine
 10
3879.705545862009
 20
3876.507345285349
 30
0.0
 11
3864.70554586201
 21
3878.482132749161
 31
0.0
1001
REVIT
1002
{
1070
     1
1000
216867
1002
}
1002
{
1070
     5
1000
16489
1002
}
1002
{
1070
     2
1000
-2000300
1002
}
  0
LINE
  5
228
330
70
100
AcDbEntity
  8
G-ANNO-TEXT
100
AcDbLine
 10
3864.70554586201
 20
3878.482132749161
 30
0.0
 11
3864.70554586201
 21
3874.532557821538
 31
0.0
1001
REVIT
1002
{
1070
     1
1000
216867
1002
}
1002
{
1070
     5
1000
16489
1002
}
1002
{
1070
     2
1000
-2000300
1002
}
  0
LINE
  5
229
330
70
100
AcDbEntity
  8
G-ANNO-TEXT
100
AcDbLine
 10
3864.70554586201
 20
3874.532557821538
 30
0.0
 11
3879.705545862009
 21
3876.507345285349
 31
0.0
1001
REVIT
1002
{
1070
     1
1000
216867
1002
}
1002
{
1070
     5
1000
16489
1002
}
1002
{
1070
     2
1000
-2000300
1002
}
  0
HATCH
  5
22A
330
70
100
AcDbEntity
  8
G-ANNO-TEXT
100
AcDbHatch
 10
0.0
 20
0.0
 30
0.0
210
0.0
220
0.0
230
1.0
  2
SOLID
 70
     1
 71
     0
 91
        1
 92
        0
 93
        3
 72
     1
 10
3879.705545862009
 20
3876.507345285349
 11
3864.70554586201
 21
3878.482132749161
 72
     1
 10
3864.70554586201
 20
3878.482132749161
 11
3864.70554586201
 21
3874.532557821538
 72
     1
 10
3864.70554586201
 20
3874.532557821538
 11
3879.705545862009
 21
3876.507345285349
 97
        0
 75
     0
 76
     1
 98
        1
 10
0.0
 20
0.0
450
        0
451
        0
460
0.0
461
0.0
452
        0
462
0.0
453
        0
470

1001
REVIT
1002
{
1070
     1
1000
216867
1002
}
1002
{
1070
     5
1000
16489
1002
}
1002
{
1070
     2
1000
-2000300
1002
}
  0
LINE
  5
22B
330
70
100
AcDbEntity
  8
G-ANNO-TEXT
100
AcDbLine
 10
3879.705545862009
 20
3876.507345285349
 30
0.0
 11
3643.58090819117
 21
3876.507345285348
 31
0.0
1001
REVIT
1002
{
1070
     1
1000
216867
1002
}
1002
{
1070
     5
1000
16489
1002
}
1002
{
1070
     2
1000
-2000300
1002
}
  0
MTEXT
  5
22C
330
70
100
AcDbEntity
  8
G-ANNO-TEXT
100
AcDbMText
 10
3495.232191138018
 20
3882.757345285348
 30
0.0
 40
12.5
 41
126.26578125
 46
0.0
 71
     1
 72
     1
  1
Wall underlay
  7
Century Gothic
 73
     2
 44
1.0
1001
REVIT
1002
{
1070
     1
1000
216867
1002
}
1002
{
1070
     5
1000
16489
1002
}
1002
{
1070
     2
1000
-2000300
1002
}
  0
LINE
  5
22D
330
70
100
AcDbEntity
  8
G-ANNO-TEXT
100
AcDbLine
 10
3930.130425396314
 20
3565.511644013213
 30
0.0
 11
3945.130425396314
 21
3563.536856549402
 31
0.0
1001
REVIT
1002
{
1070
     1
1000
216889
1002
}
1002
{
1070
     5
1000
16489
1002
}
1002
{
1070
     2
1000
-2000300
1002
}
  0
LINE
  5
22E
330
70
100
AcDbEntity
  8
G-ANNO-TEXT
100
AcDbLine
 10
3945.130425396314
 20
3563.536856549402
 30
0.0
 11
3945.130425396314
 21
3567.486431477024
 31
0.0
1001
REVIT
1002
{
1070
     1
1000
216889
1002
}
1002
{
1070
     5
1000
16489
1002
}
1002
{
1070
     2
1000
-2000300
1002
}
  0
LINE
  5
22F
330
70
100
AcDbEntity
  8
G-ANNO-TEXT
100
AcDbLine
 10
3945.130425396314
 20
3567.486431477024
 30
0.0
 11
3930.130425396314
 21
3565.511644013213
 31
0.0
1001
REVIT
1002
{
1070
     1
1000
216889
1002
}
1002
{
1070
     5
1000
16489
1002
}
1002
{
1070
     2
1000
-2000300
1002
}
  0
HATCH
  5
230
330
70
100
AcDbEntity
  8
G-ANNO-TEXT
100
AcDbHatch
 10
0.0
 20
0.0
 30
0.0
210
0.0
220
0.0
230
1.0
  2
SOLID
 70
     1
 71
     0
 91
        1
 92
        0
 93
        3
 72
     1
 10
3930.130425396314
 20
3565.511644013213
 11
3945.130425396314
 21
3563.536856549402
 72
     1
 10
3945.130425396314
 20
3563.536856549402
 11
3945.130425396314
 21
3567.486431477024
 72
     1
 10
3945.130425396314
 20
3567.486431477024
 11
3930.130425396314
 21
3565.511644013213
 97
        0
 75
     0
 76
     1
 98
        1
 10
0.0
 20
0.0
450
        0
451
        0
460
0.0
461
0.0
452
        0
462
0.0
453
        0
470

1001
REVIT
1002
{
1070
     1
1000
216889
1002
}
1002
{
1070
     5
1000
16489
1002
}
1002
{
1070
     2
1000
-2000300
1002
}
  0
LINE
  5
231
330
70
100
AcDbEntity
  8
G-ANNO-TEXT
100
AcDbLine
 10
3930.130425396314
 20
3565.511644013213
 30
0.0
 11
4051.843929319885
 21
3565.511644013213
 31
0.0
1001
REVIT
1002
{
1070
     1
1000
216889
1002
}
1002
{
1070
     5
1000
16489
1002
}
1002
{
1070
     2
1000
-2000300
1002
}
  0
MTEXT
  5
232
330
70
100
AcDbEntity
  8
G-ANNO-TEXT
100
AcDbMText
 10
4056.843929319885
 20
3571.761644013211
 30
0.0
 40
12.5
 41
225.11385
 46
0.0
 71
     1
 72
     1
  1
TRS Interlocking Vertical 
  7
Century Gothic
 73
     2
 44
1.0
1001
REVIT
1002
{
1070
     1
1000
216889
1002
}
1002
{
1070
     5
1000
16489
1002
}
1002
{
1070
     2
1000
-2000300
1002
}
  0
MTEXT
  5
233
330
70
100
AcDbEntity
  8
G-ANNO-TEXT
100
AcDbMText
 10
4056.843929319885
 20
3550.92570651321
 30
0.0
 40
12.5
 41
87.30376874999999
 46
0.0
 71
     1
 72
     1
  1
Cladding
  7
Century Gothic
 73
     2
 44
1.0
1001
REVIT
1002
{
1070
     1
1000
216889
1002
}
1002
{
1070
     5
1000
16489
1002
}
1002
{
1070
     2
1000
-2000300
1002
}
  0
LINE
  5
234
330
70
100
AcDbEntity
  8
G-ANNO-TEXT
100
AcDbLine
 10
3716.155949910974
 20
3638.011644013213
 30
0.0
 11
3693.411097388019
 21
3638.011644013213
 31
0.0
1001
REVIT
1002
{
1070
     1
1000
216890
1002
}
1002
{
1070
     5
1000
16489
1002
}
1002
{
1070
     2
1000
-2000300
1002
}
  0
LINE
  5
235
330
70
100
AcDbEntity
  8
G-ANNO-TEXT
100
AcDbLine
 10
3896.880741161857
 20
3638.011644013219
 30
0.0
 11
3881.880741161857
 21
3639.986431477029
 31
0.0
1001
REVIT
1002
{
1070
     1
1000
216890
1002
}
1002
{
1070
     5
1000
16489
1002
}
1002
{
1070
     2
1000
-2000300
1002
}
  0
LINE
  5
236
330
70
100
AcDbEntity
  8
G-ANNO-TEXT
100
AcDbLine
 10
3881.880741161857
 20
3639.986431477029
 30
0.0
 11
3881.880741161857
 21
3636.036856549407
 31
0.0
1001
REVIT
1002
{
1070
     1
1000
216890
1002
}
1002
{
1070
     5
1000
16489
1002
}
1002
{
1070
     2
1000
-2000300
1002
}
  0
LINE
  5
237
330
70
100
AcDbEntity
  8
G-ANNO-TEXT
100
AcDbLine
 10
3881.880741161857
 20
3636.036856549407
 30
0.0
 11
3896.880741161857
 21
3638.011644013219
 31
0.0
1001
REVIT
1002
{
1070
     1
1000
216890
1002
}
1002
{
1070
     5
1000
16489
1002
}
1002
{
1070
     2
1000
-2000300
1002
}
  0
HATCH
  5
238
330
70
100
AcDbEntity
  8
G-ANNO-TEXT
100
AcDbHatch
 10
0.0
 20
0.0
 30
0.0
210
0.0
220
0.0
230
1.0
  2
SOLID
 70
     1
 71
     0
 91
        1
 92
        0
 93
        3
 72
     1
 10
3896.880741161857
 20
3638.011644013219
 11
3881.880741161857
 21
3639.986431477029
 72
     1
 10
3881.880741161857
 20
3639.986431477029
 11
3881.880741161857
 21
3636.036856549407
 72
     1
 10
3881.880741161857
 20
3636.036856549407
 11
3896.880741161857
 21
3638.011644013219
 97
        0
 75
     0
 76
     1
 98
        1
 10
0.0
 20
0.0
450
        0
451
        0
460
0.0
461
0.0
452
        0
462
0.0
453
        0
470

1001
REVIT
1002
{
1070
     1
1000
216890
1002
}
1002
{
1070
     5
1000
16489
1002
}
1002
{
1070
     2
1000
-2000300
1002
}
  0
LINE
  5
239
330
70
100
AcDbEntity
  8
G-ANNO-TEXT
100
AcDbLine
 10
3896.880741161857
 20
3638.011644013219
 30
0.0
 11
3716.155949910974
 21
3638.011644013213
 31
0.0
1001
REVIT
1002
{
1070
     1
1000
216890
1002
}
1002
{
1070
     5
1000
16489
1002
}
1002
{
1070
     2
1000
-2000300
1002
}
  0
MTEXT
  5
23A
330
70
100
AcDbEntity
  8
G-ANNO-TEXT
100
AcDbMText
 10
3495.232191138017
 20
3644.261644013211
 30
0.0
 40
12.5
 41
234.132834375
 46
0.0
 71
     1
 72
     1
  1
Horizontal support cavity 
  7
Century Gothic
 73
     2
 44
1.0
1001
REVIT
1002
{
1070
     1
1000
216890
1002
}
1002
{
1070
     5
1000
16489
1002
}
1002
{
1070
     2
1000
-2000300
1002
}
  0
MTEXT
  5
23B
330
70
100
AcDbEntity
  8
G-ANNO-TEXT
100
AcDbMText
 10
3495.232191138017
 20
3623.425706513212
 30
0.0
 40
12.5
 41
246.7594125
 46
0.0
 71
     1
 72
     1
  1
battens @ 600mm crs max.
  7
Century Gothic
 73
     2
 44
1.0
1001
REVIT
1002
{
1070
     1
1000
216890
1002
}
1002
{
1070
     5
1000
16489
1002
}
1002
{
1070
     2
1000
-2000300
1002
}
  0
LINE
  5
23C
330
70
100
AcDbEntity
  8
G-ANNO-TEXT
100
AcDbLine
 10
3608.007191138019
 20
3797.655957375068
 30
0.0
 11
3607.68609738802
 21
3797.655957375068
 31
0.0
1001
REVIT
1002
{
1070
     1
1000
216891
1002
}
1002
{
1070
     5
1000
16489
1002
}
1002
{
1070
     2
1000
-2000300
1002
}
  0
LINE
  5
23D
330
70
100
AcDbEntity
  8
G-ANNO-TEXT
100
AcDbLine
 10
3840.208655822174
 20
3797.65595737507
 30
0.0
 11
3825.208655822174
 21
3799.630744838881
 31
0.0
1001
REVIT
1002
{
1070
     1
1000
216891
1002
}
1002
{
1070
     5
1000
16489
1002
}
1002
{
1070
     2
1000
-2000300
1002
}
  0
LINE
  5
23E
330
70
100
AcDbEntity
  8
G-ANNO-TEXT
100
AcDbLine
 10
3825.208655822174
 20
3799.630744838881
 30
0.0
 11
3825.208655822174
 21
3795.68116991126
 31
0.0
1001
REVIT
1002
{
1070
     1
1000
216891
1002
}
1002
{
1070
     5
1000
16489
1002
}
1002
{
1070
     2
1000
-2000300
1002
}
  0
LINE
  5
23F
330
70
100
AcDbEntity
  8
G-ANNO-TEXT
100
AcDbLine
 10
3825.208655822174
 20
3795.68116991126
 30
0.0
 11
3840.208655822174
 21
3797.65595737507
 31
0.0
1001
REVIT
1002
{
1070
     1
1000
216891
1002
}
1002
{
1070
     5
1000
16489
1002
}
1002
{
1070
     2
1000
-2000300
1002
}
  0
HATCH
  5
240
330
70
100
AcDbEntity
  8
G-ANNO-TEXT
100
AcDbHatch
 10
0.0
 20
0.0
 30
0.0
210
0.0
220
0.0
230
1.0
  2
SOLID
 70
     1
 71
     0
 91
        1
 92
        0
 93
        3
 72
     1
 10
3840.208655822174
 20
3797.65595737507
 11
3825.208655822174
 21
3799.630744838881
 72
     1
 10
3825.208655822174
 20
3799.630744838881
 11
3825.208655822174
 21
3795.68116991126
 72
     1
 10
3825.208655822174
 20
3795.68116991126
 11
3840.208655822174
 21
3797.65595737507
 97
        0
 75
     0
 76
     1
 98
        1
 10
0.0
 20
0.0
450
        0
451
        0
460
0.0
461
0.0
452
        0
462
0.0
453
        0
470

1001
REVIT
1002
{
1070
     1
1000
216891
1002
}
1002
{
1070
     5
1000
16489
1002
}
1002
{
1070
     2
1000
-2000300
1002
}
  0
LINE
  5
241
330
70
100
AcDbEntity
  8
G-ANNO-TEXT
100
AcDbLine
 10
3840.208655822174
 20
3797.65595737507
 30
0.0
 11
3608.007191138019
 21
3797.655957375068
 31
0.0
1001
REVIT
1002
{
1070
     1
1000
216891
1002
}
1002
{
1070
     5
1000
16489
1002
}
1002
{
1070
     2
1000
-2000300
1002
}
  0
MTEXT
  5
242
330
70
100
AcDbEntity
  8
G-ANNO-TEXT
100
AcDbMText
 10
3495.232191138018
 20
3803.905957375068
 30
0.0
 40
12.5
 41
130.234134375
 46
0.0
 71
     1
 72
     1
  1
Nogs for fixing
  7
Century Gothic
 73
     2
 44
1.0
1001
REVIT
1002
{
1070
     1
1000
216891
1002
}
1002
{
1070
     5
1000
16489
1002
}
1002
{
1070
     2
1000
-2000300
1002
}
  0
LINE
  5
243
330
70
100
AcDbEntity
  8
G-ANNO-TEXT
100
AcDbLine
 10
3938.276891451009
 20
3812.180517979173
 30
0.0
 11
3949.848706383519
 21
3821.9269473097
 31
0.0
1001
REVIT
1002
{
1070
     1
1000
216953
1002
}
1002
{
1070
     5
1000
16489
1002
}
1002
{
1070
     2
1000
-2000300
1002
}
  0
LINE
  5
244
330
70
100
AcDbEntity
  8
G-ANNO-TEXT
100
AcDbLine
 10
3949.848706383519
 20
3821.9269473097
 30
0.0
 11
3946.931844818872
 21
3824.589851874565
 31
0.0
1001
REVIT
1002
{
1070
     1
1000
216953
1002
}
1002
{
1070
     5
1000
16489
1002
}
1002
{
1070
     2
1000
-2000300
1002
}
  0
LINE
  5
245
330
70
100
AcDbEntity
  8
G-ANNO-TEXT
100
AcDbLine
 10
3946.931844818872
 20
3824.589851874565
 30
0.0
 11
3938.276891451009
 21
3812.180517979173
 31
0.0
1001
REVIT
1002
{
1070
     1
1000
216953
1002
}
1002
{
1070
     5
1000
16489
1002
}
1002
{
1070
     2
1000
-2000300
1002
}
  0
HATCH
  5
246
330
70
100
AcDbEntity
  8
G-ANNO-TEXT
100
AcDbHatch
 10
0.0
 20
0.0
 30
0.0
210
0.0
220
0.0
230
1.0
  2
SOLID
 70
     1
 71
     0
 91
        1
 92
        0
 93
        3
 72
     1
 10
3938.276891451009
 20
3812.180517979173
 11
3949.848706383519
 21
3821.9269473097
 72
     1
 10
3949.848706383519
 20
3821.9269473097
 11
3946.931844818872
 21
3824.589851874565
 72
     1
 10
3946.931844818872
 20
3824.589851874565
 11
3938.276891451009
 21
3812.180517979173
 97
        0
 75
     0
 76
     1
 98
        1
 10
0.0
 20
0.0
450
        0
451
        0
460
0.0
461
0.0
452
        0
462
0.0
453
        0
470

1001
REVIT
1002
{
1070
     1
1000
216953
1002
}
1002
{
1070
     5
1000
16489
1002
}
1002
{
1070
     2
1000
-2000300
1002
}
  0
LINE
  5
247
330
70
100
AcDbEntity
  8
G-ANNO-TEXT
100
AcDbLine
 10
3995.861925107274
 20
3875.257345285349
 30
0.0
 11
4051.843929319885
 21
3875.257345285349
 31
0.0
1001
REVIT
1002
{
1070
     1
1000
216953
1002
}
1002
{
1070
     5
1000
16489
1002
}
1002
{
1070
     2
1000
-2000300
1002
}
  0
LINE
  5
248
330
70
100
AcDbEntity
  8
G-ANNO-TEXT
100
AcDbLine
 10
3938.276891451009
 20
3812.180517979173
 30
0.0
 11
3995.861925107274
 21
3875.257345285349
 31
0.0
1001
REVIT
1002
{
1070
     1
1000
216953
1002
}
1002
{
1070
     5
1000
16489
1002
}
1002
{
1070
     2
1000
-2000300
1002
}
  0
MTEXT
  5
249
330
70
100
AcDbEntity
  8
G-ANNO-TEXT
100
AcDbMText
 10
4056.843929319886
 20
3881.507345285348
 30
0.0
 40
12.5
 41
270.930290625
 46
0.0
 71
     1
 72
     1
  1
Selected metal handrail end 
  7
Century Gothic
 73
     2
 44
1.0
1001
REVIT
1002
{
1070
     1
1000
216953
1002
}
1002
{
1070
     5
1000
16489
1002
}
1002
{
1070
     2
1000
-2000300
1002
}
  0
MTEXT
  5
24A
330
70
100
AcDbEntity
  8
G-ANNO-TEXT
100
AcDbMText
 10
4056.843929319886
 20
3860.671407785348
 30
0.0
 40
12.5
 41
276.702440625
 46
0.0
 71
     1
 72
     1
  1
sealed around and fixed with 
  7
Century Gothic
 73
     2
 44
1.0
1001
REVIT
1002
{
1070
     1
1000
216953
1002
}
1002
{
1070
     5
1000
16489
1002
}
1002
{
1070
     2
1000
-2000300
1002
}
  0
MTEXT
  5
24B
330
70
100
AcDbEntity
  8
G-ANNO-TEXT
100
AcDbMText
 10
4056.843929319886
 20
3839.835470285348
 30
0.0
 40
12.5
 41
268.404975
 46
0.0
 71
     1
 72
     1
  1
screw to timber framing wall 
  7
Century Gothic
 73
     2
 44
1.0
1001
REVIT
1002
{
1070
     1
1000
216953
1002
}
1002
{
1070
     5
1000
16489
1002
}
1002
{
1070
     2
1000
-2000300
1002
}
  0
MTEXT
  5
24C
330
70
100
AcDbEntity
  8
G-ANNO-TEXT
100
AcDbMText
 10
4056.843929319886
 20
3818.999532785348
 30
0.0
 40
12.5
 41
310.2530625
 46
0.0
 71
     1
 72
     1
  1
through TRS Interlocking cladding
  7
Century Gothic
 73
     2
 44
1.0
1001
REVIT
1002
{
1070
     1
1000
216953
1002
}
1002
{
1070
     5
1000
16489
1002
}
1002
{
1070
     2
1000
-2000300
1002
}
  0
LINE
  5
24D
330
70
100
AcDbEntity
  8
G-ANNO-TEXT
100
AcDbLine
 10
3932.468927186252
 20
3697.010031672767
 30
0.0
 11
3945.144667009093
 21
3688.750164514581
 31
0.0
1001
REVIT
1002
{
1070
     1
1000
216954
1002
}
1002
{
1070
     5
1000
16489
1002
}
1002
{
1070
     2
1000
-2000300
1002
}
  0
LINE
  5
24E
330
70
100
AcDbEntity
  8
G-ANNO-TEXT
100
AcDbLine
 10
3945.144667009093
 20
3688.750164514581
 30
0.0
 11
3946.85056257901
 21
3692.312335539874
 31
0.0
1001
REVIT
1002
{
1070
     1
1000
216954
1002
}
1002
{
1070
     5
1000
16489
1002
}
1002
{
1070
     2
1000
-2000300
1002
}
  0
LINE
  5
24F
330
70
100
AcDbEntity
  8
G-ANNO-TEXT
100
AcDbLine
 10
3946.85056257901
 20
3692.312335539874
 30
0.0
 11
3932.468927186252
 21
3697.010031672767
 31
0.0
1001
REVIT
1002
{
1070
     1
1000
216954
1002
}
1002
{
1070
     5
1000
16489
1002
}
1002
{
1070
     2
1000
-2000300
1002
}
  0
HATCH
  5
250
330
70
100
AcDbEntity
  8
G-ANNO-TEXT
100
AcDbHatch
 10
0.0
 20
0.0
 30
0.0
210
0.0
220
0.0
230
1.0
  2
SOLID
 70
     1
 71
     0
 91
        1
 92
        0
 93
        3
 72
     1
 10
3932.468927186252
 20
3697.010031672767
 11
3945.144667009093
 21
3688.750164514581
 72
     1
 10
3945.144667009093
 20
3688.750164514581
 11
3946.85056257901
 21
3692.312335539874
 72
     1
 10
3946.85056257901
 20
3692.312335539874
 11
3932.468927186252
 21
3697.010031672767
 97
        0
 75
     0
 76
     1
 98
        1
 10
0.0
 20
0.0
450
        0
451
        0
460
0.0
461
0.0
452
        0
462
0.0
453
        0
470

1001
REVIT
1002
{
1070
     1
1000
216954
1002
}
1002
{
1070
     5
1000
16489
1002
}
1002
{
1070
     2
1000
-2000300
1002
}
  0
LINE
  5
251
330
70
100
AcDbEntity
  8
G-ANNO-TEXT
100
AcDbLine
 10
3995.861925107274
 20
3666.651625647513
 30
0.0
 11
4051.843929319886
 21
3666.651625647513
 31
0.0
1001
REVIT
1002
{
1070
     1
1000
216954
1002
}
1002
{
1070
     5
1000
16489
1002
}
1002
{
1070
     2
1000
-2000300
1002
}
  0
LINE
  5
252
330
70
100
AcDbEntity
  8
G-ANNO-TEXT
100
AcDbLine
 10
3932.468927186252
 20
3697.010031672767
 30
0.0
 11
3995.861925107274
 21
3666.651625647513
 31
0.0
1001
REVIT
1002
{
1070
     1
1000
216954
1002
}
1002
{
1070
     5
1000
16489
1002
}
1002
{
1070
     2
1000
-2000300
1002
}
  0
MTEXT
  5
253
330
70
100
AcDbEntity
  8
G-ANNO-TEXT
100
AcDbMText
 10
4056.843929319886
 20
3672.901625647513
 30
0.0
 40
12.5
 41
243.15181875
 46
0.0
 71
     1
 72
     1
  1
Sealant over backing rods
  7
Century Gothic
 73
     2
 44
1.0
1001
REVIT
1002
{
1070
     1
1000
216954
1002
}
1002
{
1070
     5
1000
16489
1002
}
1002
{
1070
     2
1000
-2000300
1002
}
  0
VIEWPORT
  5
255
330
6C
100
AcDbEntity
 67
     1
  8
G-ANNO-NPLT
100
AcDbViewport
 10
146.3626894399702
 20
122.4657586061526
 30
0.0
 40
166.6800223681728
 41
176.1052336037051
 68
    -1
 69
     2
 12
3906.932247058449
 22
3762.28613205269
 13
0.0
 23
0.0
 14
0.0
 24
0.0
 15
0.0
 25
0.0
 16
0.0
 26
0.0
 36
1.0
 17
0.0
 27
0.0
 37
0.0
 42
0.0
 43
0.0
 44
0.0
 45
880.5261680185259
 50
0.0
 51
0.0
 72
  1000
 90
    32768
  1

281
     0
 71
     1
 74
     1
110
0.0
120
0.0
130
0.0
111
1.0
121
0.0
131
0.0
112
0.0
122
1.0
132
0.0
 79
     0
146
0.0
170
     0
 61
     5
292
     1
282
     1
141
0.0
142
0.0
 63
   250
421
  3355443
  0
VIEWPORT
  5
257
330
6C
100
AcDbEntity
 67
     1
  8
0
100
AcDbViewport
 10
6.0
 20
4.5
 30
0.0
 40
12.0
 41
9.0
 68
    -1
 69
     1
 12
6.0
 22
4.5
 13
0.0
 23
0.0
 14
0.0
 24
0.0
 15
0.0
 25
0.0
 16
0.0
 26
0.0
 36
1.0
 17
0.0
 27
0.0
 37
0.0
 42
50.0
 43
0.0
 44
0.0
 45
12.0
 50
0.0
 51
0.0
 72
   100
 90
    32800
  1

281
     0
 71
     1
 74
     1
110
0.0
120
0.0
130
0.0
111
1.0
121
0.0
131
0.0
112
0.0
122
1.0
132
0.0
 79
     0
146
0.0
170
     0
 61
     5
292
     1
282
     1
141
0.0
142
0.0
 63
   250
421
  3355443
  0
INSERT
  5
288
330
6C
100
AcDbEntity
 67
     1
  8
G-ANNO-TTLB
100
AcDbBlockReference
  2
Titleblock A4 The roofing store - Titleblock A4 The roofing store-2694-Handrail End Fixing Detail
 10
0.0
 20
0.0
 30
0.0
1001
REVIT
1002
{
1070
     1
1000
219838
1002
}
1002
{
1070
     5
1000
2694
1002
}
1002
{
1070
     2
1000
-2000280
1002
}
  0
MTEXT
  5
28A
330
6C
100
AcDbEntity
 67
     1
  8
G-ANNO-TTLB
100
AcDbMText
 10
258.464514663047
 20
12.52446433240663
 30
0.0
 40
4.0
 41
36.725304375
 46
0.0
 71
     1
 72
     1
  1
W-TRSIL-21-V
  7
Century Gothic_2
 73
     2
 44
1.0
1001
REVIT
1002
{
1070
     1
1000
219838
1002
}
1002
{
1070
     5
1000
2694
1002
}
1002
{
1070
     2
1000
-2000280
1002
}
  0
MTEXT
  5
28C
330
6C
100
AcDbEntity
 67
     1
  8
G-ANNO-TTLB
100
AcDbMText
 10
76.05126760874208
 20
10.95227683240663
 30
0.0
 40
3.5
 41
66.0911175
 46
0.0
 71
     1
 72
     1
  1
Handrail End Fixing Detail
  7
Century Gothic_3
 73
     2
 44
1.0
1001
REVIT
1002
{
1070
     1
1000
219838
1002
}
1002
{
1070
     5
1000
2694
1002
}
1002
{
1070
     2
1000
-2000280
1002
}
  0
MTEXT
  5
28D
330
6C
100
AcDbEntity
 67
     1
  8
G-ANNO-TTLB
100
AcDbMText
 10
271.6845146630469
 20
20.51531106318182
 30
0.0
 40
1.8
 41
22.2227775
 46
0.0
 71
     1
 72
     1
  1
Date: 10/11/2020
  7
Century Gothic_1
 73
     2
 44
1.0
1001
REVIT
1002
{
1070
     1
1000
219838
1002
}
1002
{
1070
     5
1000
2694
1002
}
1002
{
1070
     2
1000
-2000280
1002
}
  0
MTEXT
  5
28F
330
6C
100
AcDbEntity
 67
     1
  8
G-ANNO-TTLB
100
AcDbMText
 10
75.81756651341409
 20
19.95645689651516
 30
0.0
 40
4.999999999999999
 41
63.814325
 46
0.0
 71
     1
 72
     1
  1
TRS Interlocking
  7
Century Gothic_4
 73
     2
 44
1.0
1001
REVIT
1002
{
1070
     1
1000
219838
1002
}
1002
{
1070
     5
1000
2694
1002
}
1002
{
1070
     2
1000
-2000280
1002
}
  0
ENDSEC
  0
SECTION
  2
OBJECTS
  0
DICTIONARY
  5
C
330
0
100
AcDbDictionary
281
     1
  3
ACAD_CIP_PREVIOUS_PRODUCT_INFO
350
79
  3
ACAD_COLOR
350
63
  3
ACAD_DETAILVIEWSTYLE
350
6A
  3
ACAD_GROUP
350
D
  3
ACAD_IMAGE_DICT
350
25C
  3
ACAD_IMAGE_VARS
350
7A
  3
ACAD_LAYOUT
350
62
  3
ACAD_MATERIAL
350
10
  3
ACAD_MLEADERSTYLE
350
66
  3
ACAD_MLINESTYLE
350
5F
  3
ACAD_PLOTSETTINGS
350
61
  3
ACAD_PLOTSTYLENAME
350
E
  3
ACAD_SCALELIST
350
42
  3
ACAD_SECTIONVIEWSTYLE
350
68
  3
ACAD_TABLESTYLE
350
64
  3
ACAD_VISUALSTYLE
350
29
  3
ACDB_RECOMPOSE_DATA
350
29A
  3
AcDbVariableDictionary
350
7B
  3
REVIT_DICTIONARY
350
290
  0
DICTIONARY
  5
295
330
70
100
AcDbDictionary
280
     1
281
     1
  3
ACAD_SORTENTS
360
296
  0
IMAGEDEF_REACTOR
  5
25F
330
25E
100
AcDbRasterImageDefReactor
 90
        2
330
25E
  0
XRECORD
  5
79
102
{ACAD_REACTORS
330
C
102
}
330
C
100
AcDbXrecord
280
     1
300
RVT
300
2019
300
RVT2019
  0
DICTIONARY
  5
63
102
{ACAD_REACTORS
330
C
102
}
330
C
100
AcDbDictionary
281
     1
  0
DICTIONARY
  5
6A
102
{ACAD_REACTORS
330
C
102
}
330
C
100
AcDbDictionary
281
     1
  3
Imperial24
350
6B
  0
DICTIONARY
  5
D
102
{ACAD_REACTORS
330
C
102
}
330
C
100
AcDbDictionary
281
     1
  0
DICTIONARY
  5
25C
102
{ACAD_REACTORS
330
C
102
}
330
C
100
AcDbDictionary
281
     1
  3
TRSInterlockingCladdingDetails-TheRoofingStore_w-107754
350
25D
  0
RASTERVARIABLES
  5
7A
102
{ACAD_REACTORS
330
C
102
}
330
C
100
AcDbRasterVariables
 90
        0
 70
     0
 71
     1
 72
     1
  0
DICTIONARY
  5
62
102
{ACAD_REACTORS
330
C
102
}
330
C
100
AcDbDictionary
281
     1
  3
Layout1
350
6F
  3
Layout2
350
77
  3
Model
350
73
  0
DICTIONARY
  5
10
102
{ACAD_REACTORS
330
C
102
}
330
C
100
AcDbDictionary
281
     1
  3
ByBlock
350
19
  3
ByLayer
350
11
  3
Global
350
21
  0
DICTIONARY
  5
66
102
{ACAD_REACTORS
330
C
102
}
330
C
100
AcDbDictionary
281
     1
  3
Standard
350
67
  0
DICTIONARY
  5
5F
102
{ACAD_REACTORS
330
C
102
}
330
C
100
AcDbDictionary
281
     1
  3
Standard
350
60
  0
DICTIONARY
  5
61
102
{ACAD_REACTORS
330
C
102
}
330
C
100
AcDbDictionary
281
     1
  0
ACDBDICTIONARYWDFLT
  5
E
102
{ACAD_REACTORS
330
C
102
}
330
C
100
AcDbDictionary
281
     1
  3
Normal
350
F
100
AcDbDictionaryWithDefault
340
F
  0
DICTIONARY
  5
42
102
{ACAD_REACTORS
330
C
102
}
330
C
100
AcDbDictionary
281
     1
  3
A0
350
43
  3
A1
350
44
  3
A2
350
45
  3
A3
350
46
  3
A4
350
47
  3
A5
350
48
  3
A6
350
49
  3
A7
350
4A
  3
A8
350
4B
  3
A9
350
4C
  3
B0
350
4D
  3
B1
350
4E
  3
B2
350
4F
  3
B3
350
50
  3
B4
350
51
  3
B5
350
52
  3
B6
350
53
  0
DICTIONARY
  5
68
102
{ACAD_REACTORS
330
C
102
}
330
C
100
AcDbDictionary
281
     1
  3
Imperial24
350
69
  0
DICTIONARY
  5
64
102
{ACAD_REACTORS
330
C
102
}
330
C
100
AcDbDictionary
281
     1
  3
Standard
350
65
  0
DICTIONARY
  5
29
102
{ACAD_REACTORS
330
C
102
}
330
C
100
AcDbDictionary
281
     1
  3
2dWireframe
350
2F
  3
Basic
350
2E
  3
Brighten
350
35
  3
ColorChange
350
39
  3
Conceptual
350
32
  3
Dim
350
34
  3
EdgeColorOff
350
41
  3
Facepattern
350
38
  3
Flat
350
2A
  3
FlatWithEdges
350
2B
  3
Gouraud
350
2C
  3
GouraudWithEdges
350
2D
  3
Hidden
350
31
  3
JitterOff
350
3F
  3
Linepattern
350
37
  3
OverhangOff
350
40
  3
Realistic
350
33
  3
Shaded
350
3E
  3
Shaded with edges
350
3D
  3
Shades of Gray
350
3A
  3
Sketchy
350
3B
  3
Thicken
350
36
  3
Wireframe
350
30
  3
X-Ray
350
3C
  0
XRECORD
  5
29A
102
{ACAD_REACTORS
330
C
102
}
330
C
100
AcDbXrecord
280
     1
 90
        1
330
65
  0
DICTIONARY
  5
7B
102
{ACAD_REACTORS
330
C
102
}
330
C
100
AcDbDictionary
281
     1
  3
CANNOSCALE
350
80
  3
CMLEADERSTYLE
350
7D
  3
CTABLESTYLE
350
7C
  3
CVIEWDETAILSTYLE
350
7E
  3
CVIEWSECTIONSTYLE
350
7F
  0
DICTIONARY
  5
290
102
{ACAD_REACTORS
330
C
102
}
330
C
100
AcDbDictionary
281
     1
  3
DRAWING_TOOL
350
294
  3
REVIT_CATEGORY_MAPPING
350
292
  3
REVIT_SUB_CATEGORY_MAPPING
350
293
  3
REVIT_TYPE_MAPPING
350
291
  0
SORTENTSTABLE
  5
296
102
{ACAD_REACTORS
330
295
102
}
330
295
100
AcDbSortentsTable
330
70
  0
ACDBDETAILVIEWSTYLE
  5
6B
102
{ACAD_XDICTIONARY
360
2CF
102
}
102
{ACAD_REACTORS
330
6A
102
}
330
6A
100
AcDbModelDocViewStyle
 70
     0
  3
Imperial24
290
     0
100
AcDbDetailViewStyle
 70
     0
 71
     0
 90
        3
 71
     1
340
55
 62
   256
 40
0.24
340
0
 62
   256
 40
0.24
300

 40
0.36
280
     3
 71
     2
340
5D
 90
       25
 62
   256
 71
     3
340
55
 62
   256
 40
0.24
 90
        1
 40
0.75
 90
        1
300
%<\AcVar ViewType \f "%tc1">% %<\AcVar ViewDetailId>%\PSCALE %<\AcVar ViewScale \f "%sn">%
 71
     4
340
5D
 90
       25
 62
   256
340
5D
 90
       25
 62
   256
280
     0
  0
IMAGEDEF
  5
25D
102
{ACAD_REACTORS
330
25C
330
25F
102
}
330
25C
100
AcDbRasterImageDef
 90
        0
  1
E:\CAD Files\TRS Interlocking Panel\Custom Detail with TRS Weatherboard 20201110\TRSInterlockingCladdingDetails-TheRoofingStore_w-107754.jpg
 10
2863.0
 20
400.0
 11
0.0846666666666667
 21
0.0846666666666667
280
     1
281
     5
  0
LAYOUT
  5
6F
102
{ACAD_REACTORS
330
62
102
}
330
62
100
AcDbPlotSettings
  1

  2

  4

  6

 40
0.0
 41
0.0
 42
0.0
 43
0.0
 44
0.0
 45
0.0
 46
0.0
 47
0.0
 48
0.0
 49
0.0
140
0.0
141
0.0
142
1.0
143
1.0
 70
   688
 72
     0
 73
     0
 74
     5
  7

 75
    16
147
1.0
 76
     0
 77
     2
 78
   300
148
0.0
149
0.0
100
AcDbLayout
  1
Layout1
 70
     1
 71
     1
 10
0.0
 20
0.0
 11
12.0
 21
9.0
 12
0.0
 22
0.0
 32
0.0
 14
0.0
 24
0.0
 34
0.0
 15
0.0
 25
0.0
 35
0.0
146
0.0
 13
0.0
 23
0.0
 33
0.0
 16
1.0
 26
0.0
 36
0.0
 17
0.0
 27
1.0
 37
0.0
 76
     0
330
6C
  0
LAYOUT
  5
77
102
{ACAD_REACTORS
330
62
102
}
330
62
100
AcDbPlotSettings
  1

  2

  4

  6

 40
0.0
 41
0.0
 42
0.0
 43
0.0
 44
0.0
 45
0.0
 46
0.0
 47
0.0
 48
0.0
 49
0.0
140
0.0
141
0.0
142
1.0
143
1.0
 70
   688
 72
     0
 73
     0
 74
     5
  7

 75
    16
147
1.0
 76
     0
 77
     2
 78
   300
148
0.0
149
0.0
100
AcDbLayout
  1
Layout2
 70
     1
 71
     2
 10
0.0
 20
0.0
 11
12.0
 21
9.0
 12
0.0
 22
0.0
 32
0.0
 14
0.0
 24
0.0
 34
0.0
 15
0.0
 25
0.0
 35
0.0
146
0.0
 13
0.0
 23
0.0
 33
0.0
 16
1.0
 26
0.0
 36
0.0
 17
0.0
 27
1.0
 37
0.0
 76
     0
330
74
  0
LAYOUT
  5
73
102
{ACAD_REACTORS
330
62
102
}
330
62
100
AcDbPlotSettings
  1

  2

  4

  6

 40
0.0
 41
0.0
 42
0.0
 43
0.0
 44
0.0
 45
0.0
 46
0.0
 47
0.0
 48
0.0
 49
0.0
140
0.0
141
0.0
142
1.0
143
1.0
 70
  1712
 72
     0
 73
     0
 74
     0
  7

 75
     0
147
1.0
 76
     0
 77
     2
 78
   300
148
0.0
149
0.0
100
AcDbLayout
  1
Model
 70
     1
 71
     0
 10
0.0
 20
0.0
 11
12.0
 21
9.0
 12
0.0
 22
0.0
 32
0.0
 14
0.0
 24
0.0
 34
0.0
 15
0.0
 25
0.0
 35
0.0
146
0.0
 13
0.0
 23
0.0
 33
0.0
 16
1.0
 26
0.0
 36
0.0
 17
0.0
 27
1.0
 37
0.0
 76
     0
330
70
  0
MATERIAL
  5
19
102
{ACAD_XDICTIONARY
360
1A
102
}
102
{ACAD_REACTORS
330
10
102
}
330
10
100
AcDbMaterial
  1
ByBlock
 72
     0
 43
0.0208333333333333
 43
0.0
 43
0.0
 43
0.0
 43
0.0
 43
0.0208333333333333
 43
0.0
 43
0.0
 43
0.0
 43
0.0
 43
1.0
 43
0.0
 43
0.0
 43
0.0
 43
0.0
 43
1.0
 77
     0
 47
0.0208333333333333
 47
0.0
 47
0.0
 47
0.0
 47
0.0
 47
0.0208333333333333
 47
0.0
 47
0.0
 47
0.0
 47
0.0
 47
1.0
 47
0.0
 47
0.0
 47
0.0
 47
0.0
 47
1.0
171
     0
 49
0.0208333333333333
 49
0.0
 49
0.0
 49
0.0
 49
0.0
 49
0.0208333333333333
 49
0.0
 49
0.0
 49
0.0
 49
0.0
 49
1.0
 49
0.0
 49
0.0
 49
0.0
 49
0.0
 49
1.0
175
     0
142
0.0208333333333333
142
0.0
142
0.0
142
0.0
142
0.0
142
0.0208333333333333
142
0.0
142
0.0
142
0.0
142
0.0
142
1.0
142
0.0
142
0.0
142
0.0
142
0.0
142
1.0
179
     0
144
0.0208333333333333
144
0.0
144
0.0
144
0.0
144
0.0
144
0.0208333333333333
144
0.0
144
0.0
144
0.0
144
0.0
144
1.0
144
0.0
144
0.0
144
0.0
144
0.0
144
1.0
147
0.0208333333333333
147
0.0
147
0.0
147
0.0
147
0.0
147
0.0208333333333333
147
0.0
147
0.0
147
0.0
147
0.0
147
1.0
147
0.0
147
0.0
147
0.0
147
0.0
147
1.0
  0
MATERIAL
  5
11
102
{ACAD_XDICTIONARY
360
12
102
}
102
{ACAD_REACTORS
330
10
102
}
330
10
100
AcDbMaterial
  1
ByLayer
 72
     0
 43
0.0208333333333333
 43
0.0
 43
0.0
 43
0.0
 43
0.0
 43
0.0208333333333333
 43
0.0
 43
0.0
 43
0.0
 43
0.0
 43
1.0
 43
0.0
 43
0.0
 43
0.0
 43
0.0
 43
1.0
 77
     0
 47
0.0208333333333333
 47
0.0
 47
0.0
 47
0.0
 47
0.0
 47
0.0208333333333333
 47
0.0
 47
0.0
 47
0.0
 47
0.0
 47
1.0
 47
0.0
 47
0.0
 47
0.0
 47
0.0
 47
1.0
171
     0
 49
0.0208333333333333
 49
0.0
 49
0.0
 49
0.0
 49
0.0
 49
0.0208333333333333
 49
0.0
 49
0.0
 49
0.0
 49
0.0
 49
1.0
 49
0.0
 49
0.0
 49
0.0
 49
0.0
 49
1.0
175
     0
142
0.0208333333333333
142
0.0
142
0.0
142
0.0
142
0.0
142
0.0208333333333333
142
0.0
142
0.0
142
0.0
142
0.0
142
1.0
142
0.0
142
0.0
142
0.0
142
0.0
142
1.0
179
     0
144
0.0208333333333333
144
0.0
144
0.0
144
0.0
144
0.0
144
0.0208333333333333
144
0.0
144
0.0
144
0.0
144
0.0
144
1.0
144
0.0
144
0.0
144
0.0
144
0.0
144
1.0
147
0.0208333333333333
147
0.0
147
0.0
147
0.0
147
0.0
147
0.0208333333333333
147
0.0
147
0.0
147
0.0
147
0.0
147
1.0
147
0.0
147
0.0
147
0.0
147
0.0
147
1.0
  0
MATERIAL
  5
21
102
{ACAD_XDICTIONARY
360
22
102
}
102
{ACAD_REACTORS
330
10
102
}
330
10
100
AcDbMaterial
  1
Global
 72
     0
 43
0.0208333333333333
 43
0.0
 43
0.0
 43
0.0
 43
0.0
 43
0.0208333333333333
 43
0.0
 43
0.0
 43
0.0
 43
0.0
 43
1.0
 43
0.0
 43
0.0
 43
0.0
 43
0.0
 43
1.0
 77
     0
 47
0.0208333333333333
 47
0.0
 47
0.0
 47
0.0
 47
0.0
 47
0.0208333333333333
 47
0.0
 47
0.0
 47
0.0
 47
0.0
 47
1.0
 47
0.0
 47
0.0
 47
0.0
 47
0.0
 47
1.0
171
     0
 49
0.0208333333333333
 49
0.0
 49
0.0
 49
0.0
 49
0.0
 49
0.0208333333333333
 49
0.0
 49
0.0
 49
0.0
 49
0.0
 49
1.0
 49
0.0
 49
0.0
 49
0.0
 49
0.0
 49
1.0
175
     0
142
0.0208333333333333
142
0.0
142
0.0
142
0.0
142
0.0
142
0.0208333333333333
142
0.0
142
0.0
142
0.0
142
0.0
142
1.0
142
0.0
142
0.0
142
0.0
142
0.0
142
1.0
179
     0
144
0.0208333333333333
144
0.0
144
0.0
144
0.0
144
0.0
144
0.0208333333333333
144
0.0
144
0.0
144
0.0
144
0.0
144
1.0
144
0.0
144
0.0
144
0.0
144
0.0
144
1.0
147
0.0208333333333333
147
0.0
147
0.0
147
0.0
147
0.0
147
0.0208333333333333
147
0.0
147
0.0
147
0.0
147
0.0
147
1.0
147
0.0
147
0.0
147
0.0
147
0.0
147
1.0
  0
MLEADERSTYLE
  5
67
102
{ACAD_XDICTIONARY
360
2CB
102
}
102
{ACAD_REACTORS
330
66
102
}
330
66
100
AcDbMLeaderStyle
179
     2
170
     2
171
     1
172
     0
 90
        2
 40
0.0
 41
0.0
173
     1
 91
-1056964608
340
5B
 92
       -2
290
     1
 42
0.09
291
     1
 43
0.36
  3
Standard
 44
0.18
300

342
55
174
     1
178
     6
175
     1
176
     0
 93
-1056964608
 45
0.18
292
     0
297
     0
 46
0.18
 94
-1056964608
 47
1.0
 49
1.0
140
1.0
293
     1
141
0.0
294
     1
177
     0
142
1.0
295
     0
296
     0
143
0.125
271
     0
272
     9
273
     9
  0
MLINESTYLE
  5
60
102
{ACAD_REACTORS
330
5F
102
}
330
5F
100
AcDbMlineStyle
  2
STANDARD
 70
     0
  3

 62
   256
 51
90.0
 52
90.0
 71
     2
 49
0.5
 62
   256
  6
BYLAYER
 49
-0.5
 62
   256
  6
BYLAYER
  0
ACDBPLACEHOLDER
  5
F
102
{ACAD_REACTORS
330
E
102
}
330
E
  0
SCALE
  5
43
102
{ACAD_REACTORS
330
42
102
}
330
42
100
AcDbScale
 70
     0
300
1:1
140
1.0
141
1.0
290
     1
  0
SCALE
  5
44
102
{ACAD_REACTORS
330
42
102
}
330
42
100
AcDbScale
 70
     0
300
1/128" = 1'-0"
140
0.0078125
141
12.0
290
     0
  0
SCALE
  5
45
102
{ACAD_REACTORS
330
42
102
}
330
42
100
AcDbScale
 70
     0
300
1/64" = 1'-0"
140
0.015625
141
12.0
290
     0
  0
SCALE
  5
46
102
{ACAD_REACTORS
330
42
102
}
330
42
100
AcDbScale
 70
     0
300
1/32" = 1'-0"
140
0.03125
141
12.0
290
     0
  0
SCALE
  5
47
102
{ACAD_REACTORS
330
42
102
}
330
42
100
AcDbScale
 70
     0
300
1/16" = 1'-0"
140
0.0625
141
12.0
290
     0
  0
SCALE
  5
48
102
{ACAD_REACTORS
330
42
102
}
330
42
100
AcDbScale
 70
     0
300
3/32" = 1'-0"
140
0.09375
141
12.0
290
     0
  0
SCALE
  5
49
102
{ACAD_REACTORS
330
42
102
}
330
42
100
AcDbScale
 70
     0
300
1/8" = 1'-0"
140
0.125
141
12.0
290
     0
  0
SCALE
  5
4A
102
{ACAD_REACTORS
330
42
102
}
330
42
100
AcDbScale
 70
     0
300
3/16" = 1'-0"
140
0.1875
141
12.0
290
     0
  0
SCALE
  5
4B
102
{ACAD_REACTORS
330
42
102
}
330
42
100
AcDbScale
 70
     0
300
1/4" = 1'-0"
140
0.25
141
12.0
290
     0
  0
SCALE
  5
4C
102
{ACAD_REACTORS
330
42
102
}
330
42
100
AcDbScale
 70
     0
300
3/8" = 1'-0"
140
0.375
141
12.0
290
     0
  0
SCALE
  5
4D
102
{ACAD_REACTORS
330
42
102
}
330
42
100
AcDbScale
 70
     0
300
1/2" = 1'-0"
140
0.5
141
12.0
290
     0
  0
SCALE
  5
4E
102
{ACAD_REACTORS
330
42
102
}
330
42
100
AcDbScale
 70
     0
300
3/4" = 1'-0"
140
0.75
141
12.0
290
     0
  0
SCALE
  5
4F
102
{ACAD_REACTORS
330
42
102
}
330
42
100
AcDbScale
 70
     0
300
1" = 1'-0"
140
1.0
141
12.0
290
     0
  0
SCALE
  5
50
102
{ACAD_REACTORS
330
42
102
}
330
42
100
AcDbScale
 70
     0
300
1-1/2" = 1'-0"
140
1.5
141
12.0
290
     0
  0
SCALE
  5
51
102
{ACAD_REACTORS
330
42
102
}
330
42
100
AcDbScale
 70
     0
300
3" = 1'-0"
140
3.0
141
12.0
290
     0
  0
SCALE
  5
52
102
{ACAD_REACTORS
330
42
102
}
330
42
100
AcDbScale
 70
     0
300
6" = 1'-0"
140
6.0
141
12.0
290
     0
  0
SCALE
  5
53
102
{ACAD_REACTORS
330
42
102
}
330
42
100
AcDbScale
 70
     0
300
1'-0" = 1'-0"
140
12.0
141
12.0
290
     0
  0
ACDBSECTIONVIEWSTYLE
  5
69
102
{ACAD_XDICTIONARY
360
2CD
102
}
102
{ACAD_REACTORS
330
68
102
}
330
68
100
AcDbModelDocViewStyle
 70
     0
  3
Imperial24
290
     0
100
AcDbSectionViewStyle
 70
     0
 71
     0
 90
       78
 71
     1
340
55
 62
   256
 40
0.24
340
0
340
0
 62
   256
 40
0.24
300
I, O, Q, S, X, Z
 40
0.48
 90
        3
 40
0.18
 90
        1
 71
     2
340
5D
 90
       25
 62
   256
340
5D
 90
       50
 62
   256
 40
0.24
 40
0.0
 40
0.24
 71
     3
340
55
 62
   256
 40
0.24
 90
        1
 40
0.75
 90
        1
300
%<\AcVar ViewType \f "%tc1">% %<\AcVar ViewSectionStartId>%-%<\AcVar ViewSectionEndId>%\PSCALE %<\AcVar ViewScale \f "%sn">%
 71
     4
 62
   256
 62
   257
300
ANSI31
 40
1.0
 90
        0
290
     0
290
     0
 90
        6
 40
0.0
 40
1.570796326794896
 40
0.2617993877991494
 40
1.308996938995747
 40
-0.2617993877991494
 40
1.832595714594046
  0
TABLESTYLE
  5
65
102
{ACAD_XDICTIONARY
360
298
102
}
102
{ACAD_REACTORS
330
64
102
}
330
64
100
AcDbTableStyle
280
     0
  3
Standard
 70
     0
 71
     0
 40
0.06
 41
0.06
280
     0
281
     0
  7
Standard
140
0.18
170
     2
 62
     0
 63
     7
283
     0
 90
      512
 91
        0
  1

274
    -2
284
     1
 64
     0
275
    -2
285
     1
 65
     0
276
    -2
286
     1
 66
     0
277
    -2
287
     1
 67
     0
278
    -2
288
     1
 68
     0
279
    -2
289
     1
 69
     0
  7
Standard
140
0.25
170
     5
 62
     0
 63
     7
283
     0
 90
      512
 91
        0
  1

274
    -2
284
     1
 64
     0
275
    -2
285
     1
 65
     0
276
    -2
286
     1
 66
     0
277
    -2
287
     1
 67
     0
278
    -2
288
     1
 68
     0
279
    -2
289
     1
 69
     0
  7
Standard
140
0.18
170
     5
 62
     0
 63
     7
283
     0
 90
      512
 91
        0
  1

274
    -2
284
     1
 64
     0
275
    -2
285
     1
 65
     0
276
    -2
286
     1
 66
     0
277
    -2
287
     1
 67
     0
278
    -2
288
     1
 68
     0
279
    -2
289
     1
 69
     0
  0
VISUALSTYLE
  5
2F
102
{ACAD_XDICTIONARY
360
2A5
102
}
102
{ACAD_REACTORS
330
29
102
}
330
29
100
AcDbVisualStyle
  2
2dWireframe
 70
     4
177
     2
291
     0
 71
     0
176
     1
 72
     2
176
     1
 73
     0
176
     1
 90
        0
176
     1
 40
0.6
176
     1
 41
30.0
176
     1
 63
     7
421
 16777215
176
     1
 74
     1
176
     1
 91
        4
176
     1
 64
     7
176
     1
 65
   257
176
     1
 75
     1
176
     1
175
     1
176
     1
 42
1.0
176
     1
 92
        0
176
     1
 66
   257
176
     1
 43
1.0
176
     1
 76
     1
176
     1
 77
     6
176
     1
 78
     2
176
     1
 67
     7
176
     1
 79
     5
176
     1
170
     0
176
     1
171
     0
176
     1
290
     0
176
     1
 93
        1
176
     1
 44
0.0
176
     1
173
     0
176
     1
1001
ACAD
1000
AcDbSavedByObjectVersion
1070
     0
  0
VISUALSTYLE
  5
2E
102
{ACAD_XDICTIONARY
360
2A3
102
}
102
{ACAD_REACTORS
330
29
102
}
330
29
100
AcDbVisualStyle
  2
Basic
 70
     7
177
     2
291
     1
 71
     1
176
     1
 72
     0
176
     1
 73
     1
176
     1
 90
        0
176
     1
 40
0.6
176
     1
 41
30.0
176
     1
 63
     7
421
 16777215
176
     1
 74
     0
176
     1
 91
        4
176
     1
 64
     7
176
     1
 65
   257
176
     1
 75
     1
176
     1
175
     1
176
     1
 42
1.0
176
     1
 92
        8
176
     1
 66
     7
176
     1
 43
1.0
176
     1
 76
     1
176
     1
 77
     6
176
     1
 78
     2
176
     1
 67
     7
176
     1
 79
     5
176
     1
170
     0
176
     1
171
     0
176
     1
290
     0
176
     1
 93
        1
176
     1
 44
0.0
176
     1
173
     0
176
     1
1001
ACAD
1000
AcDbSavedByObjectVersion
1070
     0
  0
VISUALSTYLE
  5
35
102
{ACAD_XDICTIONARY
360
2B1
102
}
102
{ACAD_REACTORS
330
29
102
}
330
29
100
AcDbVisualStyle
  2
Brighten
 70
    12
177
     2
291
     1
 71
     2
176
     1
 72
     2
176
     1
 73
     0
176
     1
 90
        0
176
     1
 40
0.6
176
     1
 41
30.0
176
     1
 63
     7
421
 16777215
176
     1
 74
     1
176
     1
 91
        4
176
     1
 64
     7
176
     1
 65
   257
176
     1
 75
     1
176
     1
175
     1
176
     1
 42
1.0
176
     1
 92
        8
176
     1
 66
     7
176
     1
 43
1.0
176
     1
 76
     1
176
     1
 77
     6
176
     1
 78
     2
176
     1
 67
     7
176
     1
 79
     5
176
     1
170
     0
176
     1
171
     0
176
     1
290
     0
176
     1
 93
        1
176
     1
 44
50.0
176
     1
173
     0
176
     1
1001
ACAD
1000
AcDbSavedByObjectVersion
1070
     0
  0
VISUALSTYLE
  5
39
102
{ACAD_XDICTIONARY
360
2B9
102
}
102
{ACAD_REACTORS
330
29
102
}
330
29
100
AcDbVisualStyle
  2
ColorChange
 70
    16
177
     2
291
     1
 71
     2
176
     1
 72
     2
176
     1
 73
     3
176
     1
 90
        0
176
     1
 40
0.6
176
     1
 41
30.0
176
     1
 63
     8
421
  8421504
176
     1
 74
     1
176
     1
 91
        4
176
     1
 64
     7
176
     1
 65
   257
176
     1
 75
     1
176
     1
175
     1
176
     1
 42
1.0
176
     1
 92
        8
176
     1
 66
     8
424
  8421504
176
     1
 43
1.0
176
     1
 76
     1
176
     1
 77
     6
176
     1
 78
     2
176
     1
 67
     7
176
     1
 79
     5
176
     1
170
     0
176
     1
171
     0
176
     1
290
     0
176
     1
 93
        1
176
     1
 44
0.0
176
     1
173
     0
176
     1
1001
ACAD
1000
AcDbSavedByObjectVersion
1070
     0
  0
VISUALSTYLE
  5
32
102
{ACAD_XDICTIONARY
360
2AB
102
}
102
{ACAD_REACTORS
330
29
102
}
330
29
100
AcDbVisualStyle
  2
Conceptual
 70
     9
177
     2
291
     0
 71
     3
176
     1
 72
     2
176
     1
 73
     0
176
     1
 90
        0
176
     1
 40
0.6
176
     1
 41
30.0
176
     1
 63
     7
421
 16777215
176
     1
 74
     2
176
     1
 91
        2
176
     1
 64
     7
176
     1
 65
   257
176
     1
 75
     1
176
     1
175
     1
176
     1
 42
179.0
176
     1
 92
        8
176
     1
 66
     7
176
     1
 43
1.0
176
     1
 76
     1
176
     1
 77
     6
176
     1
 78
     2
176
     1
 67
     7
176
     1
 79
     3
176
     1
170
     0
176
     1
171
     0
176
     1
290
     0
176
     1
 93
        1
176
     1
 44
0.0
176
     1
173
     0
176
     1
1001
ACAD
1000
AcDbSavedByObjectVersion
1070
     0
  0
VISUALSTYLE
  5
34
102
{ACAD_XDICTIONARY
360
2AF
102
}
102
{ACAD_REACTORS
330
29
102
}
330
29
100
AcDbVisualStyle
  2
Dim
 70
    11
177
     2
291
     1
 71
     2
176
     1
 72
     2
176
     1
 73
     0
176
     1
 90
        0
176
     1
 40
0.6
176
     1
 41
30.0
176
     1
 63
     7
421
 16777215
176
     1
 74
     1
176
     1
 91
        4
176
     1
 64
     7
176
     1
 65
   257
176
     1
 75
     1
176
     1
175
     1
176
     1
 42
1.0
176
     1
 92
        8
176
     1
 66
     7
176
     1
 43
1.0
176
     1
 76
     1
176
     1
 77
     6
176
     1
 78
     2
176
     1
 67
     7
176
     1
 79
     5
176
     1
170
     0
176
     1
171
     0
176
     1
290
     0
176
     1
 93
        1
176
     1
 44
-50.0
176
     1
173
     0
176
     1
1001
ACAD
1000
AcDbSavedByObjectVersion
1070
     0
  0
VISUALSTYLE
  5
41
102
{ACAD_XDICTIONARY
360
2C9
102
}
102
{ACAD_REACTORS
330
29
102
}
330
29
100
AcDbVisualStyle
  2
EdgeColorOff
 70
    22
177
     2
291
     1
 71
     2
176
     0
 72
     2
176
     0
 73
     0
176
     0
 90
        0
176
     0
 40
0.6
176
     0
 41
30.0
176
     0
 63
     7
421
 16777215
176
     0
 74
     1
176
     0
 91
        4
176
     0
 64
     7
176
     0
 65
   257
176
     0
 75
     1
176
     0
175
     1
176
     0
 42
1.0
176
     0
 92
        8
176
     2
 66
     7
176
     0
 43
1.0
176
     0
 76
     1
176
     0
 77
     6
176
     0
 78
     2
176
     0
 67
     7
176
     0
 79
     5
176
     0
170
     0
176
     0
171
     0
176
     0
290
     0
176
     0
 93
        1
176
     0
 44
0.0
176
     0
173
     0
176
     0
1001
ACAD
1000
AcDbSavedByObjectVersion
1070
     0
  0
VISUALSTYLE
  5
38
102
{ACAD_XDICTIONARY
360
2B7
102
}
102
{ACAD_REACTORS
330
29
102
}
330
29
100
AcDbVisualStyle
  2
Facepattern
 70
    15
177
     2
291
     1
 71
     2
176
     1
 72
     2
176
     1
 73
     0
176
     1
 90
        0
176
     1
 40
0.6
176
     1
 41
30.0
176
     1
 63
     7
421
 16777215
176
     1
 74
     1
176
     1
 91
        4
176
     1
 64
     7
176
     1
 65
   257
176
     1
 75
     1
176
     1
175
     1
176
     1
 42
1.0
176
     1
 92
        8
176
     1
 66
     7
176
     1
 43
1.0
176
     1
 76
     1
176
     1
 77
     6
176
     1
 78
     2
176
     1
 67
     7
176
     1
 79
     5
176
     1
170
     0
176
     1
171
     0
176
     1
290
     0
176
     1
 93
        1
176
     1
 44
0.0
176
     1
173
     0
176
     1
1001
ACAD
1000
AcDbSavedByObjectVersion
1070
     0
  0
VISUALSTYLE
  5
2A
102
{ACAD_XDICTIONARY
360
29B
102
}
102
{ACAD_REACTORS
330
29
102
}
330
29
100
AcDbVisualStyle
  2
Flat
 70
     0
177
     2
291
     1
 71
     2
176
     1
 72
     1
176
     1
 73
     1
176
     1
 90
        2
176
     1
 40
0.6
176
     1
 41
30.0
176
     1
 63
     7
421
 16777215
176
     1
 74
     0
176
     1
 91
        0
176
     1
 64
     7
176
     1
 65
   257
176
     1
 75
     1
176
     1
175
     1
176
     1
 42
1.0
176
     1
 92
        8
176
     1
 66
     7
176
     1
 43
1.0
176
     1
 76
     1
176
     1
 77
     6
176
     1
 78
     2
176
     1
 67
     7
176
     1
 79
     5
176
     1
170
     0
176
     1
171
     0
176
     1
290
     0
176
     1
 93
       13
176
     1
 44
0.0
176
     1
173
     0
176
     1
1001
ACAD
1000
AcDbSavedByObjectVersion
1070
     0
  0
VISUALSTYLE
  5
2B
102
{ACAD_XDICTIONARY
360
29D
102
}
102
{ACAD_REACTORS
330
29
102
}
330
29
100
AcDbVisualStyle
  2
FlatWithEdges
 70
     1
177
     2
291
     1
 71
     2
176
     1
 72
     1
176
     1
 73
     1
176
     1
 90
        2
176
     1
 40
0.6
176
     1
 41
30.0
176
     1
 63
     7
421
 16777215
176
     1
 74
     1
176
     1
 91
        0
176
     1
 64
     7
176
     1
 65
   257
176
     1
 75
     1
176
     1
175
     1
176
     1
 42
1.0
176
     1
 92
        0
176
     1
 66
   257
176
     1
 43
1.0
176
     1
 76
     1
176
     1
 77
     6
176
     1
 78
     2
176
     1
 67
     7
176
     1
 79
     5
176
     1
170
     0
176
     1
171
     0
176
     1
290
     0
176
     1
 93
       13
176
     1
 44
0.0
176
     1
173
     0
176
     1
1001
ACAD
1000
AcDbSavedByObjectVersion
1070
     0
  0
VISUALSTYLE
  5
2C
102
{ACAD_XDICTIONARY
360
29F
102
}
102
{ACAD_REACTORS
330
29
102
}
330
29
100
AcDbVisualStyle
  2
Gouraud
 70
     2
177
     2
291
     1
 71
     2
176
     1
 72
     2
176
     1
 73
     1
176
     1
 90
        2
176
     1
 40
0.6
176
     1
 41
30.0
176
     1
 63
     7
421
 16777215
176
     1
 74
     0
176
     1
 91
        0
176
     1
 64
     7
176
     1
 65
   257
176
     1
 75
     1
176
     1
175
     1
176
     1
 42
1.0
176
     1
 92
        0
176
     1
 66
     7
176
     1
 43
1.0
176
     1
 76
     1
176
     1
 77
     6
176
     1
 78
     2
176
     1
 67
     7
176
     1
 79
     5
176
     1
170
     0
176
     1
171
     0
176
     1
290
     0
176
     1
 93
       13
176
     1
 44
0.0
176
     1
173
     0
176
     1
1001
ACAD
1000
AcDbSavedByObjectVersion
1070
     0
  0
VISUALSTYLE
  5
2D
102
{ACAD_XDICTIONARY
360
2A1
102
}
102
{ACAD_REACTORS
330
29
102
}
330
29
100
AcDbVisualStyle
  2
GouraudWithEdges
 70
     3
177
     2
291
     1
 71
     2
176
     1
 72
     2
176
     1
 73
     1
176
     1
 90
        2
176
     1
 40
0.6
176
     1
 41
30.0
176
     1
 63
     7
421
 16777215
176
     1
 74
     1
176
     1
 91
        0
176
     1
 64
     7
176
     1
 65
   257
176
     1
 75
     1
176
     1
175
     1
176
     1
 42
1.0
176
     1
 92
        0
176
     1
 66
   257
176
     1
 43
1.0
176
     1
 76
     1
176
     1
 77
     6
176
     1
 78
     2
176
     1
 67
     7
176
     1
 79
     5
176
     1
170
     0
176
     1
171
     0
176
     1
290
     0
176
     1
 93
       13
176
     1
 44
0.0
176
     1
173
     0
176
     1
1001
ACAD
1000
AcDbSavedByObjectVersion
1070
     0
  0
VISUALSTYLE
  5
31
102
{ACAD_XDICTIONARY
360
2A9
102
}
102
{ACAD_REACTORS
330
29
102
}
330
29
100
AcDbVisualStyle
  2
Hidden
 70
     6
177
     2
291
     0
 71
     1
176
     1
 72
     2
176
     1
 73
     2
176
     1
 90
        0
176
     1
 40
0.6
176
     1
 41
30.0
176
     1
 63
     7
421
 16777215
176
     1
 74
     2
176
     1
 91
        2
176
     1
 64
     7
176
     1
 65
   257
176
     1
 75
     2
176
     1
175
     1
176
     1
 42
40.0
176
     1
 92
        0
176
     1
 66
   257
176
     1
 43
1.0
176
     1
 76
     1
176
     1
 77
     6
176
     1
 78
     2
176
     1
 67
     7
176
     1
 79
     3
176
     1
170
     0
176
     1
171
     0
176
     1
290
     0
176
     1
 93
        1
176
     1
 44
0.0
176
     1
173
     0
176
     1
1001
ACAD
1000
AcDbSavedByObjectVersion
1070
     0
  0
VISUALSTYLE
  5
3F
102
{ACAD_XDICTIONARY
360
2C5
102
}
102
{ACAD_REACTORS
330
29
102
}
330
29
100
AcDbVisualStyle
  2
JitterOff
 70
    20
177
     2
291
     1
 71
     2
176
     0
 72
     2
176
     0
 73
     0
176
     0
 90
        0
176
     0
 40
0.6
176
     0
 41
30.0
176
     0
 63
     7
421
 16777215
176
     0
 74
     1
176
     0
 91
        4
176
     0
 64
     7
176
     0
 65
   257
176
     0
 75
     1
176
     0
175
     1
176
     0
 42
1.0
176
     0
 92
       10
176
     2
 66
     7
176
     0
 43
1.0
176
     0
 76
     1
176
     0
 77
     6
176
     0
 78
     2
176
     0
 67
     7
176
     0
 79
     5
176
     0
170
     0
176
     0
171
     0
176
     0
290
     0
176
     0
 93
        1
176
     0
 44
0.0
176
     0
173
     0
176
     0
1001
ACAD
1000
AcDbSavedByObjectVersion
1070
     0
  0
VISUALSTYLE
  5
37
102
{ACAD_XDICTIONARY
360
2B5
102
}
102
{ACAD_REACTORS
330
29
102
}
330
29
100
AcDbVisualStyle
  2
Linepattern
 70
    14
177
     2
291
     1
 71
     2
176
     1
 72
     2
176
     1
 73
     0
176
     1
 90
        0
176
     1
 40
0.6
176
     1
 41
30.0
176
     1
 63
     7
421
 16777215
176
     1
 74
     1
176
     1
 91
        4
176
     1
 64
     7
176
     1
 65
   257
176
     1
 75
     7
176
     1
175
     7
176
     1
 42
1.0
176
     1
 92
        8
176
     1
 66
     7
176
     1
 43
1.0
176
     1
 76
     1
176
     1
 77
     6
176
     1
 78
     2
176
     1
 67
     7
176
     1
 79
     5
176
     1
170
     0
176
     1
171
     0
176
     1
290
     0
176
     1
 93
        1
176
     1
 44
0.0
176
     1
173
     0
176
     1
1001
ACAD
1000
AcDbSavedByObjectVersion
1070
     0
  0
VISUALSTYLE
  5
40
102
{ACAD_XDICTIONARY
360
2C7
102
}
102
{ACAD_REACTORS
330
29
102
}
330
29
100
AcDbVisualStyle
  2
OverhangOff
 70
    21
177
     2
291
     1
 71
     2
176
     0
 72
     2
176
     0
 73
     0
176
     0
 90
        0
176
     0
 40
0.6
176
     0
 41
30.0
176
     0
 63
     7
421
 16777215
176
     0
 74
     1
176
     0
 91
        4
176
     0
 64
     7
176
     0
 65
   257
176
     0
 75
     1
176
     0
175
     1
176
     0
 42
1.0
176
     0
 92
        9
176
     2
 66
     7
176
     0
 43
1.0
176
     0
 76
     1
176
     0
 77
     6
176
     0
 78
     2
176
     0
 67
     7
176
     0
 79
     5
176
     0
170
     0
176
     0
171
     0
176
     0
290
     0
176
     0
 93
        1
176
     0
 44
0.0
176
     0
173
     0
176
     0
1001
ACAD
1000
AcDbSavedByObjectVersion
1070
     0
  0
VISUALSTYLE
  5
33
102
{ACAD_XDICTIONARY
360
2AD
102
}
102
{ACAD_REACTORS
330
29
102
}
330
29
100
AcDbVisualStyle
  2
Realistic
 70
     8
177
     2
291
     0
 71
     2
176
     1
 72
     3
176
     1
 73
     0
176
     1
 90
        2
176
     1
 40
0.6
176
     1
 41
30.0
176
     1
 63
     7
421
 16777215
176
     1
 74
     0
176
     1
 91
        0
176
     1
 64
     7
176
     1
 65
   257
176
     1
 75
     1
176
     1
175
     1
176
     1
 42
1.0
176
     1
 92
        8
176
     1
 66
   257
176
     1
 43
1.0
176
     1
 76
     1
176
     1
 77
     6
176
     1
 78
     2
176
     1
 67
     7
176
     1
 79
     3
176
     1
170
     0
176
     1
171
     0
176
     1
290
     0
176
     1
 93
       13
176
     1
 44
0.0
176
     1
173
     0
176
     1
1001
ACAD
1000
AcDbSavedByObjectVersion
1070
     0
  0
VISUALSTYLE
  5
3E
102
{ACAD_XDICTIONARY
360
2C3
102
}
102
{ACAD_REACTORS
330
29
102
}
330
29
100
AcDbVisualStyle
  2
Shaded
 70
    27
177
     2
291
     0
 71
     2
176
     1
 72
     2
176
     1
 73
     1
176
     1
 90
        2
176
     1
 40
0.6
176
     1
 41
30.0
176
     1
 63
     7
421
 16777215
176
     1
 74
     0
176
     1
 91
        4
176
     1
 64
     7
176
     1
 65
   257
176
     1
 75
     1
176
     1
175
     1
176
     1
 42
1.0
176
     1
 92
        8
176
     1
 66
   257
176
     1
 43
1.0
176
     1
 76
     1
176
     1
 77
     6
176
     1
 78
     2
176
     1
 67
     8
425
  7895160
176
     1
 79
     3
176
     1
170
     0
176
     1
171
     0
176
     1
290
     0
176
     1
 93
        5
176
     1
 44
0.0
176
     1
173
     0
176
     1
1001
ACAD
1000
AcDbSavedByObjectVersion
1070
     0
  0
VISUALSTYLE
  5
3D
102
{ACAD_XDICTIONARY
360
2C1
102
}
102
{ACAD_REACTORS
330
29
102
}
330
29
100
AcDbVisualStyle
  2
Shaded with edges
 70
    26
177
     2
291
     0
 71
     2
176
     1
 72
     2
176
     1
 73
     1
176
     1
 90
        2
176
     1
 40
0.6
176
     1
 41
30.0
176
     1
 63
     7
421
 16777215
176
     1
 74
     1
176
     1
 91
        2
176
     1
 64
     7
176
     1
 65
   257
176
     1
 75
     2
176
     1
175
     1
176
     1
 42
1.0
176
     1
 92
        8
176
     1
 66
   257
176
     1
 43
1.0
176
     1
 76
     1
176
     1
 77
     6
176
     1
 78
     2
176
     1
 67
     7
176
     1
 79
     3
176
     1
170
     0
176
     1
171
     0
176
     1
290
     0
176
     1
 93
        5
176
     1
 44
0.0
176
     1
173
     0
176
     1
1001
ACAD
1000
AcDbSavedByObjectVersion
1070
     0
  0
VISUALSTYLE
  5
3A
102
{ACAD_XDICTIONARY
360
2BB
102
}
102
{ACAD_REACTORS
330
29
102
}
330
29
100
AcDbVisualStyle
  2
Shades of Gray
 70
    23
177
     2
291
     0
 71
     2
176
     1
 72
     2
176
     1
 73
     3
176
     1
 90
        0
176
     1
 40
0.6
176
     1
 41
30.0
176
     1
 63
     7
421
 16777215
176
     1
 74
     2
176
     1
 91
        2
176
     1
 64
     7
176
     1
 65
     7
176
     1
 75
     1
176
     1
175
     1
176
     1
 42
40.0
176
     1
 92
        8
176
     1
 66
     7
176
     1
 43
1.0
176
     1
 76
     1
176
     1
 77
     6
176
     1
 78
     2
176
     1
 67
     7
176
     1
 79
     3
176
     1
170
     0
176
     1
171
     0
176
     1
290
     0
176
     1
 93
        1
176
     1
 44
0.0
176
     1
173
     0
176
     1
1001
ACAD
1000
AcDbSavedByObjectVersion
1070
     0
  0
VISUALSTYLE
  5
3B
102
{ACAD_XDICTIONARY
360
2BD
102
}
102
{ACAD_REACTORS
330
29
102
}
330
29
100
AcDbVisualStyle
  2
Sketchy
 70
    24
177
     2
291
     0
 71
     1
176
     1
 72
     2
176
     1
 73
     2
176
     1
 90
        0
176
     1
 40
0.6
176
     1
 41
30.0
176
     1
 63
     7
421
 16777215
176
     1
 74
     2
176
     1
 91
        2
176
     1
 64
     7
176
     1
 65
     7
176
     1
 75
     1
176
     1
175
     1
176
     1
 42
40.0
176
     1
 92
       11
176
     1
 66
     7
176
     1
 43
1.0
176
     1
 76
     1
176
     1
 77
     6
176
     1
 78
     2
176
     1
 67
     7
176
     1
 79
     6
176
     1
170
     0
176
     1
171
     0
176
     1
290
     0
176
     1
 93
        1
176
     1
 44
0.0
176
     1
173
     0
176
     1
1001
ACAD
1000
AcDbSavedByObjectVersion
1070
     0
  0
VISUALSTYLE
  5
36
102
{ACAD_XDICTIONARY
360
2B3
102
}
102
{ACAD_REACTORS
330
29
102
}
330
29
100
AcDbVisualStyle
  2
Thicken
 70
    13
177
     2
291
     1
 71
     2
176
     1
 72
     2
176
     1
 73
     0
176
     1
 90
        0
176
     1
 40
0.6
176
     1
 41
30.0
176
     1
 63
     7
421
 16777215
176
     1
 74
     1
176
     1
 91
        4
176
     1
 64
     7
176
     1
 65
   257
176
     1
 75
     1
176
     1
175
     1
176
     1
 42
1.0
176
     1
 92
       12
176
     1
 66
     7
176
     1
 43
1.0
176
     1
 76
     1
176
     1
 77
     6
176
     1
 78
     2
176
     1
 67
     7
176
     1
 79
     5
176
     1
170
     0
176
     1
171
     0
176
     1
290
     0
176
     1
 93
        1
176
     1
 44
0.0
176
     1
173
     0
176
     1
1001
ACAD
1000
AcDbSavedByObjectVersion
1070
     0
  0
VISUALSTYLE
  5
30
102
{ACAD_XDICTIONARY
360
2A7
102
}
102
{ACAD_REACTORS
330
29
102
}
330
29
100
AcDbVisualStyle
  2
Wireframe
 70
     5
177
     2
291
     0
 71
     0
176
     1
 72
     2
176
     1
 73
     0
176
     1
 90
        0
176
     1
 40
0.6
176
     1
 41
30.0
176
     1
 63
     7
421
 16777215
176
     1
 74
     1
176
     1
 91
        4
176
     1
 64
     7
176
     1
 65
   257
176
     1
 75
     1
176
     1
175
     1
176
     1
 42
1.0
176
     1
 92
        0
176
     1
 66
   257
176
     1
 43
1.0
176
     1
 76
     1
176
     1
 77
     6
176
     1
 78
     2
176
     1
 67
     7
176
     1
 79
     3
176
     1
170
     0
176
     1
171
     0
176
     1
290
     0
176
     1
 93
        1
176
     1
 44
0.0
176
     1
173
     0
176
     1
1001
ACAD
1000
AcDbSavedByObjectVersion
1070
     0
  0
VISUALSTYLE
  5
3C
102
{ACAD_XDICTIONARY
360
2BF
102
}
102
{ACAD_REACTORS
330
29
102
}
330
29
100
AcDbVisualStyle
  2
X-Ray
 70
    25
177
     2
291
     0
 71
     2
176
     1
 72
     2
176
     1
 73
     1
176
     1
 90
        1
176
     1
 40
0.5
176
     1
 41
30.0
176
     1
 63
     7
421
 16777215
176
     1
 74
     1
176
     1
 91
        0
176
     1
 64
     7
176
     1
 65
   257
176
     1
 75
     1
176
     1
175
     1
176
     1
 42
1.0
176
     1
 92
        8
176
     1
 66
     7
176
     1
 43
1.0
176
     1
 76
     1
176
     1
 77
     6
176
     1
 78
     2
176
     1
 67
     7
176
     1
 79
     3
176
     1
170
     0
176
     1
171
     0
176
     1
290
     0
176
     1
 93
       13
176
     1
 44
0.0
176
     1
173
     0
176
     1
1001
ACAD
1000
AcDbSavedByObjectVersion
1070
     0
  0
DICTIONARYVAR
  5
80
102
{ACAD_REACTORS
330
7B
102
}
330
7B
100
DictionaryVariables
280
     0
  1
1:1
  0
DICTIONARYVAR
  5
7D
102
{ACAD_REACTORS
330
7B
102
}
330
7B
100
DictionaryVariables
280
     0
  1
STANDARD
  0
DICTIONARYVAR
  5
7C
102
{ACAD_REACTORS
330
7B
102
}
330
7B
100
DictionaryVariables
280
     0
  1
STANDARD
  0
DICTIONARYVAR
  5
7E
102
{ACAD_REACTORS
330
7B
102
}
330
7B
100
DictionaryVariables
280
     0
  1
Imperial24
  0
DICTIONARYVAR
  5
7F
102
{ACAD_REACTORS
330
7B
102
}
330
7B
100
DictionaryVariables
280
     0
  1
Imperial24
  0
XRECORD
  5
294
102
{ACAD_REACTORS
330
290
102
}
330
290
100
AcDbXrecord
280
     1
  1
BUILDING_ID
  1
TRS Interlocking Cladding Details
  1
FLOOR_ID
  1
219833
  0
XRECORD
  5
292
102
{ACAD_REACTORS
330
290
102
}
330
290
100
AcDbXrecord
280
     1
  1
-2000051
  1
Lines
  1
-2000280
  1
Title Blocks
  1
-2000300
  1
Text Notes
  1
-2002000
  1
Detail Items
  0
XRECORD
  5
293
102
{ACAD_REACTORS
330
290
102
}
330
290
100
AcDbXrecord
280
     1
  1
-2000042
  1
Thin Lines
  1
-2000043
  1
Medium Lines
  1
-2000077
  1
Insulation Batting Lines
  1
-2000281
  1
Thin Lines
  1
-2000282
  1
Medium Lines
  1
15798
  1
Light Lines
  1
16110
  1
Building Wrap
  1
16210
  1
01 - Black 1
  1
16257
  1
Wide Lines
  1
16362
  1
Thin Lines
  1
19822
  1
FPA_Sect_Sealant
  0
XRECORD
  5
291
102
{ACAD_REACTORS
330
290
102
}
330
290
100
AcDbXrecord
280
     1
  1
14996
  1
Filled region : Crosshatch 3mm
  1
161035
  1
Hex head timberfix screw_long : Hex head timberfix screw_long
  1
16489
  1
Text : Century Gothic 2.5mm
  1
17873
  1
Filled region : White- Solid
  1
17941
  1
Filled region : Plasterboard
  1
219786
  1
Filled region : Diagonal Down 2.0mm
  1
2694
  1
Titleblock A4 The roofing store : Titleblock A4 The roofing store
  1
44489
  1
FP Timber Nog Packer1 : Variable
  1
59784
  1
4811_Air Seal w Foam : Airseal on PEF Backing Rod
  1
59790
  1
FP - Break Line : FP - Break Line
  1
59792
  1
HP_WProof - Building Wrap : HP_WProof - Building Wrap
  0
DICTIONARY
  5
2CF
330
6B
100
AcDbDictionary
280
     1
281
     1
  3
ACAD_XREC_ROUNDTRIP
360
2D0
  0
DICTIONARY
  5
1A
330
19
100
AcDbDictionary
280
     1
281
     1
  3
BUMPTILE
360
1C
  3
DIFFUSETILE
360
1B
  3
OPACITYTILE
360
1F
  3
REFLECTIONTILE
360
1E
  3
REFRACTIONTILE
360
20
  3
SPECULARTILE
360
1D
  0
DICTIONARY
  5
12
330
11
100
AcDbDictionary
280
     1
281
     1
  3
BUMPTILE
360
14
  3
DIFFUSETILE
360
13
  3
OPACITYTILE
360
17
  3
REFLECTIONTILE
360
16
  3
REFRACTIONTILE
360
18
  3
SPECULARTILE
360
15
  0
DICTIONARY
  5
22
330
21
100
AcDbDictionary
280
     1
281
     1
  3
BUMPTILE
360
24
  3
DIFFUSETILE
360
23
  3
OPACITYTILE
360
27
  3
REFLECTIONTILE
360
26
  3
REFRACTIONTILE
360
28
  3
SPECULARTILE
360
25
  0
DICTIONARY
  5
2CB
330
67
100
AcDbDictionary
280
     1
281
     1
  3
ACAD_XREC_ROUNDTRIP
360
2CC
  0
DICTIONARY
  5
2CD
330
69
100
AcDbDictionary
280
     1
281
     1
  3
ACAD_XREC_ROUNDTRIP
360
2CE
  0
DICTIONARY
  5
298
330
65
100
AcDbDictionary
280
     1
281
     1
  3
ACAD_ROUNDTRIP_2008_TABLESTYLE_CELLSTYLEMAP
360
299
  0
DICTIONARY
  5
2A5
330
2F
100
AcDbDictionary
280
     1
281
     1
  3
ACAD_XREC_ROUNDTRIP
360
2A6
  0
DICTIONARY
  5
2A3
330
2E
100
AcDbDictionary
280
     1
281
     1
  3
ACAD_XREC_ROUNDTRIP
360
2A4
  0
DICTIONARY
  5
2B1
330
35
100
AcDbDictionary
280
     1
281
     1
  3
ACAD_XREC_ROUNDTRIP
360
2B2
  0
DICTIONARY
  5
2B9
330
39
100
AcDbDictionary
280
     1
281
     1
  3
ACAD_XREC_ROUNDTRIP
360
2BA
  0
DICTIONARY
  5
2AB
330
32
100
AcDbDictionary
280
     1
281
     1
  3
ACAD_XREC_ROUNDTRIP
360
2AC
  0
DICTIONARY
  5
2AF
330
34
100
AcDbDictionary
280
     1
281
     1
  3
ACAD_XREC_ROUNDTRIP
360
2B0
  0
DICTIONARY
  5
2C9
330
41
100
AcDbDictionary
280
     1
281
     1
  3
ACAD_XREC_ROUNDTRIP
360
2CA
  0
DICTIONARY
  5
2B7
330
38
100
AcDbDictionary
280
     1
281
     1
  3
ACAD_XREC_ROUNDTRIP
360
2B8
  0
DICTIONARY
  5
29B
330
2A
100
AcDbDictionary
280
     1
281
     1
  3
ACAD_XREC_ROUNDTRIP
360
29C
  0
DICTIONARY
  5
29D
330
2B
100
AcDbDictionary
280
     1
281
     1
  3
ACAD_XREC_ROUNDTRIP
360
29E
  0
DICTIONARY
  5
29F
330
2C
100
AcDbDictionary
280
     1
281
     1
  3
ACAD_XREC_ROUNDTRIP
360
2A0
  0
DICTIONARY
  5
2A1
330
2D
100
AcDbDictionary
280
     1
281
     1
  3
ACAD_XREC_ROUNDTRIP
360
2A2
  0
DICTIONARY
  5
2A9
330
31
100
AcDbDictionary
280
     1
281
     1
  3
ACAD_XREC_ROUNDTRIP
360
2AA
  0
DICTIONARY
  5
2C5
330
3F
100
AcDbDictionary
280
     1
281
     1
  3
ACAD_XREC_ROUNDTRIP
360
2C6
  0
DICTIONARY
  5
2B5
330
37
100
AcDbDictionary
280
     1
281
     1
  3
ACAD_XREC_ROUNDTRIP
360
2B6
  0
DICTIONARY
  5
2C7
330
40
100
AcDbDictionary
280
     1
281
     1
  3
ACAD_XREC_ROUNDTRIP
360
2C8
  0
DICTIONARY
  5
2AD
330
33
100
AcDbDictionary
280
     1
281
     1
  3
ACAD_XREC_ROUNDTRIP
360
2AE
  0
DICTIONARY
  5
2C3
330
3E
100
AcDbDictionary
280
     1
281
     1
  3
ACAD_XREC_ROUNDTRIP
360
2C4
  0
DICTIONARY
  5
2C1
330
3D
100
AcDbDictionary
280
     1
281
     1
  3
ACAD_XREC_ROUNDTRIP
360
2C2
  0
DICTIONARY
  5
2BB
330
3A
100
AcDbDictionary
280
     1
281
     1
  3
ACAD_XREC_ROUNDTRIP
360
2BC
  0
DICTIONARY
  5
2BD
330
3B
100
AcDbDictionary
280
     1
281
     1
  3
ACAD_XREC_ROUNDTRIP
360
2BE
  0
DICTIONARY
  5
2B3
330
36
100
AcDbDictionary
280
     1
281
     1
  3
ACAD_XREC_ROUNDTRIP
360
2B4
  0
DICTIONARY
  5
2A7
330
30
100
AcDbDictionary
280
     1
281
     1
  3
ACAD_XREC_ROUNDTRIP
360
2A8
  0
DICTIONARY
  5
2BF
330
3C
100
AcDbDictionary
280
     1
281
     1
  3
ACAD_XREC_ROUNDTRIP
360
2C0
  0
XRECORD
  5
2D0
102
{ACAD_REACTORS
330
2CF
102
}
330
2CF
100
AcDbXrecord
280
     1
102
DISPLAYNAME
  1
Imperial24
102
FLAGS
 90
        0
  0
XRECORD
  5
1C
102
{ACAD_REACTORS
330
1A
102
}
330
1A
100
AcDbXrecord
280
     1
270
     1
271
     1
  0
XRECORD
  5
1B
102
{ACAD_REACTORS
330
1A
102
}
330
1A
100
AcDbXrecord
280
     1
270
     1
271
     1
  0
XRECORD
  5
1F
102
{ACAD_REACTORS
330
1A
102
}
330
1A
100
AcDbXrecord
280
     1
270
     1
271
     1
  0
XRECORD
  5
1E
102
{ACAD_REACTORS
330
1A
102
}
330
1A
100
AcDbXrecord
280
     1
270
     1
271
     1
  0
XRECORD
  5
20
102
{ACAD_REACTORS
330
1A
102
}
330
1A
100
AcDbXrecord
280
     1
270
     1
271
     1
  0
XRECORD
  5
1D
102
{ACAD_REACTORS
330
1A
102
}
330
1A
100
AcDbXrecord
280
     1
270
     1
271
     1
  0
XRECORD
  5
14
102
{ACAD_REACTORS
330
12
102
}
330
12
100
AcDbXrecord
280
     1
270
     1
271
     1
  0
XRECORD
  5
13
102
{ACAD_REACTORS
330
12
102
}
330
12
100
AcDbXrecord
280
     1
270
     1
271
     1
  0
XRECORD
  5
17
102
{ACAD_REACTORS
330
12
102
}
330
12
100
AcDbXrecord
280
     1
270
     1
271
     1
  0
XRECORD
  5
16
102
{ACAD_REACTORS
330
12
102
}
330
12
100
AcDbXrecord
280
     1
270
     1
271
     1
  0
XRECORD
  5
18
102
{ACAD_REACTORS
330
12
102
}
330
12
100
AcDbXrecord
280
     1
270
     1
271
     1
  0
XRECORD
  5
15
102
{ACAD_REACTORS
330
12
102
}
330
12
100
AcDbXrecord
280
     1
270
     1
271
     1
  0
XRECORD
  5
24
102
{ACAD_REACTORS
330
22
102
}
330
22
100
AcDbXrecord
280
     1
270
     1
271
     1
  0
XRECORD
  5
23
102
{ACAD_REACTORS
330
22
102
}
330
22
100
AcDbXrecord
280
     1
270
     1
271
     1
  0
XRECORD
  5
27
102
{ACAD_REACTORS
330
22
102
}
330
22
100
AcDbXrecord
280
     1
270
     1
271
     1
  0
XRECORD
  5
26
102
{ACAD_REACTORS
330
22
102
}
330
22
100
AcDbXrecord
280
     1
270
     1
271
     1
  0
XRECORD
  5
28
102
{ACAD_REACTORS
330
22
102
}
330
22
100
AcDbXrecord
280
     1
270
     1
271
     1
  0
XRECORD
  5
25
102
{ACAD_REACTORS
330
22
102
}
330
22
100
AcDbXrecord
280
     1
270
     1
271
     1
  0
XRECORD
  5
2CC
102
{ACAD_REACTORS
330
2CB
102
}
330
2CB
100
AcDbXrecord
280
     1
102
ACAD_ROUNDTRIP_2012_MLEADER_STYLE
298
     1
  0
XRECORD
  5
2CE
102
{ACAD_REACTORS
330
2CD
102
}
330
2CD
100
AcDbXrecord
280
     1
102
DISPLAYNAME
  1
Imperial24
102
FLAGS
 90
        0
  0
CELLSTYLEMAP
  5
299
102
{ACAD_REACTORS
330
298
102
}
330
298
100
AcDbCellStyleMap
 90
        3
300
CELLSTYLE
  1
TABLEFORMAT_BEGIN
 90
        5
170
     1
 91
        0
 92
    32768
 62
   257
 93
        1
300
CONTENTFORMAT
  1
CONTENTFORMAT_BEGIN
 90
        0
 91
        0
 92
      512
 93
        0
300

 40
0.0
140
1.0
 94
        5
 62
     0
340
55
144
0.25
309
CONTENTFORMAT_END
171
     0
 94
        0
309
TABLEFORMAT_END
  1
CELLSTYLE_BEGIN
 90
        1
 91
        1
300
_TITLE
309
CELLSTYLE_END
300
CELLSTYLE
  1
TABLEFORMAT_BEGIN
 90
        5
170
     1
 91
        0
 92
        0
 62
   257
 93
        1
300
CONTENTFORMAT
  1
CONTENTFORMAT_BEGIN
 90
        0
 91
        0
 92
      512
 93
        0
300

 40
0.0
140
1.0
 94
        5
 62
     0
340
55
144
0.18
309
CONTENTFORMAT_END
171
     0
 94
        0
309
TABLEFORMAT_END
  1
CELLSTYLE_BEGIN
 90
        2
 91
        1
300
_HEADER
309
CELLSTYLE_END
300
CELLSTYLE
  1
TABLEFORMAT_BEGIN
 90
        5
170
     1
 91
        0
 92
        0
 62
   257
 93
        1
300
CONTENTFORMAT
  1
CONTENTFORMAT_BEGIN
 90
        0
 91
        0
 92
      512
 93
        0
300

 40
0.0
140
1.0
 94
        2
 62
     0
340
55
144
0.18
309
CONTENTFORMAT_END
171
     0
 94
        0
309
TABLEFORMAT_END
  1
CELLSTYLE_BEGIN
 90
        3
 91
        2
300
_DATA
309
CELLSTYLE_END
  0
XRECORD
  5
2A6
102
{ACAD_REACTORS
330
2A5
102
}
330
2A5
100
AcDbXrecord
280
     1
102
RTVSPost2010Prop28
280
     1
102
RTVSPost2010PropOp28
 70
     1
102
RTVSPost2010Prop29
280
     1
102
RTVSPost2010PropOp29
 70
     1
102
RTVSPost2010Prop30
280
     0
102
RTVSPost2010PropOp30
 70
     1
102
RTVSPost2010Prop31
280
     0
102
RTVSPost2010PropOp31
 70
     1
102
RTVSPost2010Prop32
280
     0
102
RTVSPost2010PropOp32
 70
     1
102
RTVSPost2010Prop33
280
     0
102
RTVSPost2010PropOp33
 70
     1
102
RTVSPost2010Prop34
280
     0
102
RTVSPost2010PropOp34
 70
     1
102
RTVSPost2010Prop35
280
     0
102
RTVSPost2010PropOp35
 70
     1
102
RTVSPost2010Prop36
280
     0
102
RTVSPost2010PropOp36
 70
     1
102
RTVSPost2010Prop37
 90
       50
102
RTVSPost2010PropOp37
 70
     1
102
RTVSPost2010Prop38
140
0.0
102
RTVSPost2010PropOp38
 70
     1
102
RTVSPost2010Prop39
140
1.0
102
RTVSPost2010PropOp39
 70
     1
102
RTVSPost2010Prop40
 90
        0
102
RTVSPost2010PropOp40
 70
     1
102
RTVSPost2010Prop41ColorIndex
 90
       18
102
RTVSPost2010Prop41ColorRGB
 90
        0
102
RTVSPost2010PropOp41
 70
     1
102
RTVSPost2010Prop42
 90
       50
102
RTVSPost2010PropOp42
 70
     1
102
RTVSPost2010Prop43
 90
        3
102
RTVSPost2010PropOp43
 70
     1
102
RTVSPost2010Prop44ColorIndex
 90
        5
102
RTVSPost2010Prop44ColorRGB
 90
      255
102
RTVSPost2010PropOp44
 70
     1
102
RTVSPost2010Prop45
280
     0
102
RTVSPost2010PropOp45
 70
     1
102
RTVSPost2010Prop46
 90
       50
102
RTVSPost2010PropOp46
 70
     1
102
RTVSPost2010Prop47
 90
       50
102
RTVSPost2010PropOp47
 70
     1
102
RTVSPost2010Prop48
 90
       50
102
RTVSPost2010PropOp48
 70
     1
102
RTVSPost2010Prop49
280
     0
102
RTVSPost2010PropOp49
 70
     1
102
RTVSPost2010Prop50
 90
       50
102
RTVSPost2010PropOp50
 70
     1
102
RTVSPost2010Prop51ColorIndex
 90
      256
102
RTVSPost2010Prop51ColorRGB
 90
-16777216
102
RTVSPost2010PropOp51
 70
     0
102
RTVSPost2010Prop52
140
1.0
102
RTVSPost2010PropOp52
 70
     0
102
RTVSPost2010Prop53
 90
        2
102
RTVSPost2010PropOp53
 70
     1
102
RTVSPost2010Prop54
  1
strokes_ogs.tif
102
RTVSPost2010PropOp54
 70
     1
102
RTVSPost2010Prop55
280
     0
102
RTVSPost2010PropOp55
 70
     1
102
RTVSPost2010Prop56
140
1.0
102
RTVSPost2010PropOp56
 70
     1
102
RTVSPost2010Prop57
140
1.0
102
RTVSPost2010PropOp57
 70
     1
  0
XRECORD
  5
2A4
102
{ACAD_REACTORS
330
2A3
102
}
330
2A3
100
AcDbXrecord
280
     1
102
RTVSPost2010Prop28
280
     0
102
RTVSPost2010PropOp28
 70
     1
102
RTVSPost2010Prop29
280
     1
102
RTVSPost2010PropOp29
 70
     1
102
RTVSPost2010Prop30
280
     1
102
RTVSPost2010PropOp30
 70
     1
102
RTVSPost2010Prop31
280
     0
102
RTVSPost2010PropOp31
 70
     1
102
RTVSPost2010Prop32
280
     0
102
RTVSPost2010PropOp32
 70
     1
102
RTVSPost2010Prop33
280
     0
102
RTVSPost2010PropOp33
 70
     1
102
RTVSPost2010Prop34
280
     0
102
RTVSPost2010PropOp34
 70
     1
102
RTVSPost2010Prop35
280
     0
102
RTVSPost2010PropOp35
 70
     1
102
RTVSPost2010Prop36
280
     0
102
RTVSPost2010PropOp36
 70
     1
102
RTVSPost2010Prop37
 90
       50
102
RTVSPost2010PropOp37
 70
     1
102
RTVSPost2010Prop38
140
0.0
102
RTVSPost2010PropOp38
 70
     1
102
RTVSPost2010Prop39
140
1.0
102
RTVSPost2010PropOp39
 70
     1
102
RTVSPost2010Prop40
 90
        0
102
RTVSPost2010PropOp40
 70
     1
102
RTVSPost2010Prop41ColorIndex
 90
       18
102
RTVSPost2010Prop41ColorRGB
 90
        0
102
RTVSPost2010PropOp41
 70
     1
102
RTVSPost2010Prop42
 90
       50
102
RTVSPost2010PropOp42
 70
     1
102
RTVSPost2010Prop43
 90
        3
102
RTVSPost2010PropOp43
 70
     1
102
RTVSPost2010Prop44ColorIndex
 90
        5
102
RTVSPost2010Prop44ColorRGB
 90
      255
102
RTVSPost2010PropOp44
 70
     1
102
RTVSPost2010Prop45
280
     0
102
RTVSPost2010PropOp45
 70
     1
102
RTVSPost2010Prop46
 90
       50
102
RTVSPost2010PropOp46
 70
     1
102
RTVSPost2010Prop47
 90
       50
102
RTVSPost2010PropOp47
 70
     1
102
RTVSPost2010Prop48
 90
       50
102
RTVSPost2010PropOp48
 70
     1
102
RTVSPost2010Prop49
280
     0
102
RTVSPost2010PropOp49
 70
     1
102
RTVSPost2010Prop50
 90
       50
102
RTVSPost2010PropOp50
 70
     1
102
RTVSPost2010Prop51ColorIndex
 90
      256
102
RTVSPost2010Prop51ColorRGB
 90
-16777216
102
RTVSPost2010PropOp51
 70
     0
102
RTVSPost2010Prop52
140
1.0
102
RTVSPost2010PropOp52
 70
     0
102
RTVSPost2010Prop53
 90
        2
102
RTVSPost2010PropOp53
 70
     1
102
RTVSPost2010Prop54
  1
strokes_ogs.tif
102
RTVSPost2010PropOp54
 70
     1
102
RTVSPost2010Prop55
280
     0
102
RTVSPost2010PropOp55
 70
     1
102
RTVSPost2010Prop56
140
1.0
102
RTVSPost2010PropOp56
 70
     1
102
RTVSPost2010Prop57
140
1.0
102
RTVSPost2010PropOp57
 70
     1
  0
XRECORD
  5
2B2
102
{ACAD_REACTORS
330
2B1
102
}
330
2B1
100
AcDbXrecord
280
     1
102
RTVSPost2010Prop28
280
     0
102
RTVSPost2010PropOp28
 70
     1
102
RTVSPost2010Prop29
280
     1
102
RTVSPost2010PropOp29
 70
     1
102
RTVSPost2010Prop30
280
     1
102
RTVSPost2010PropOp30
 70
     1
102
RTVSPost2010Prop31
280
     0
102
RTVSPost2010PropOp31
 70
     1
102
RTVSPost2010Prop32
280
     0
102
RTVSPost2010PropOp32
 70
     1
102
RTVSPost2010Prop33
280
     0
102
RTVSPost2010PropOp33
 70
     1
102
RTVSPost2010Prop34
280
     0
102
RTVSPost2010PropOp34
 70
     1
102
RTVSPost2010Prop35
280
     0
102
RTVSPost2010PropOp35
 70
     1
102
RTVSPost2010Prop36
280
     0
102
RTVSPost2010PropOp36
 70
     1
102
RTVSPost2010Prop37
 90
       50
102
RTVSPost2010PropOp37
 70
     1
102
RTVSPost2010Prop38
140
0.0
102
RTVSPost2010PropOp38
 70
     1
102
RTVSPost2010Prop39
140
1.0
102
RTVSPost2010PropOp39
 70
     1
102
RTVSPost2010Prop40
 90
        0
102
RTVSPost2010PropOp40
 70
     1
102
RTVSPost2010Prop41ColorIndex
 90
       18
102
RTVSPost2010Prop41ColorRGB
 90
        0
102
RTVSPost2010PropOp41
 70
     1
102
RTVSPost2010Prop42
 90
       50
102
RTVSPost2010PropOp42
 70
     1
102
RTVSPost2010Prop43
 90
        3
102
RTVSPost2010PropOp43
 70
     1
102
RTVSPost2010Prop44ColorIndex
 90
        5
102
RTVSPost2010Prop44ColorRGB
 90
      255
102
RTVSPost2010PropOp44
 70
     1
102
RTVSPost2010Prop45
280
     0
102
RTVSPost2010PropOp45
 70
     1
102
RTVSPost2010Prop46
 90
       50
102
RTVSPost2010PropOp46
 70
     1
102
RTVSPost2010Prop47
 90
       50
102
RTVSPost2010PropOp47
 70
     1
102
RTVSPost2010Prop48
 90
       50
102
RTVSPost2010PropOp48
 70
     1
102
RTVSPost2010Prop49
280
     0
102
RTVSPost2010PropOp49
 70
     1
102
RTVSPost2010Prop50
 90
       50
102
RTVSPost2010PropOp50
 70
     1
102
RTVSPost2010Prop51ColorIndex
 90
      256
102
RTVSPost2010Prop51ColorRGB
 90
-16777216
102
RTVSPost2010PropOp51
 70
     0
102
RTVSPost2010Prop52
140
1.0
102
RTVSPost2010PropOp52
 70
     0
102
RTVSPost2010Prop53
 90
        2
102
RTVSPost2010PropOp53
 70
     1
102
RTVSPost2010Prop54
  1
strokes_ogs.tif
102
RTVSPost2010PropOp54
 70
     1
102
RTVSPost2010Prop55
280
     0
102
RTVSPost2010PropOp55
 70
     1
102
RTVSPost2010Prop56
140
1.0
102
RTVSPost2010PropOp56
 70
     1
102
RTVSPost2010Prop57
140
1.0
102
RTVSPost2010PropOp57
 70
     1
  0
XRECORD
  5
2BA
102
{ACAD_REACTORS
330
2B9
102
}
330
2B9
100
AcDbXrecord
280
     1
102
RTVSPost2010Prop28
280
     0
102
RTVSPost2010PropOp28
 70
     1
102
RTVSPost2010Prop29
280
     1
102
RTVSPost2010PropOp29
 70
     1
102
RTVSPost2010Prop30
280
     1
102
RTVSPost2010PropOp30
 70
     1
102
RTVSPost2010Prop31
280
     0
102
RTVSPost2010PropOp31
 70
     1
102
RTVSPost2010Prop32
280
     0
102
RTVSPost2010PropOp32
 70
     1
102
RTVSPost2010Prop33
280
     0
102
RTVSPost2010PropOp33
 70
     1
102
RTVSPost2010Prop34
280
     0
102
RTVSPost2010PropOp34
 70
     1
102
RTVSPost2010Prop35
280
     0
102
RTVSPost2010PropOp35
 70
     1
102
RTVSPost2010Prop36
280
     0
102
RTVSPost2010PropOp36
 70
     1
102
RTVSPost2010Prop37
 90
       50
102
RTVSPost2010PropOp37
 70
     1
102
RTVSPost2010Prop38
140
0.0
102
RTVSPost2010PropOp38
 70
     1
102
RTVSPost2010Prop39
140
1.0
102
RTVSPost2010PropOp39
 70
     1
102
RTVSPost2010Prop40
 90
        0
102
RTVSPost2010PropOp40
 70
     1
102
RTVSPost2010Prop41ColorIndex
 90
       18
102
RTVSPost2010Prop41ColorRGB
 90
        0
102
RTVSPost2010PropOp41
 70
     1
102
RTVSPost2010Prop42
 90
       50
102
RTVSPost2010PropOp42
 70
     1
102
RTVSPost2010Prop43
 90
        3
102
RTVSPost2010PropOp43
 70
     1
102
RTVSPost2010Prop44ColorIndex
 90
        5
102
RTVSPost2010Prop44ColorRGB
 90
      255
102
RTVSPost2010PropOp44
 70
     1
102
RTVSPost2010Prop45
280
     0
102
RTVSPost2010PropOp45
 70
     1
102
RTVSPost2010Prop46
 90
       50
102
RTVSPost2010PropOp46
 70
     1
102
RTVSPost2010Prop47
 90
       50
102
RTVSPost2010PropOp47
 70
     1
102
RTVSPost2010Prop48
 90
       50
102
RTVSPost2010PropOp48
 70
     1
102
RTVSPost2010Prop49
280
     0
102
RTVSPost2010PropOp49
 70
     1
102
RTVSPost2010Prop50
 90
       50
102
RTVSPost2010PropOp50
 70
     1
102
RTVSPost2010Prop51ColorIndex
 90
      256
102
RTVSPost2010Prop51ColorRGB
 90
-16777216
102
RTVSPost2010PropOp51
 70
     0
102
RTVSPost2010Prop52
140
1.0
102
RTVSPost2010PropOp52
 70
     0
102
RTVSPost2010Prop53
 90
        2
102
RTVSPost2010PropOp53
 70
     1
102
RTVSPost2010Prop54
  1
strokes_ogs.tif
102
RTVSPost2010PropOp54
 70
     1
102
RTVSPost2010Prop55
280
     0
102
RTVSPost2010PropOp55
 70
     1
102
RTVSPost2010Prop56
140
1.0
102
RTVSPost2010PropOp56
 70
     1
102
RTVSPost2010Prop57
140
1.0
102
RTVSPost2010PropOp57
 70
     1
  0
XRECORD
  5
2AC
102
{ACAD_REACTORS
330
2AB
102
}
330
2AB
100
AcDbXrecord
280
     1
102
RTVSPost2010Prop28
280
     0
102
RTVSPost2010PropOp28
 70
     1
102
RTVSPost2010Prop29
280
     1
102
RTVSPost2010PropOp29
 70
     1
102
RTVSPost2010Prop30
280
     1
102
RTVSPost2010PropOp30
 70
     1
102
RTVSPost2010Prop31
280
     0
102
RTVSPost2010PropOp31
 70
     1
102
RTVSPost2010Prop32
280
     0
102
RTVSPost2010PropOp32
 70
     1
102
RTVSPost2010Prop33
280
     0
102
RTVSPost2010PropOp33
 70
     1
102
RTVSPost2010Prop34
280
     0
102
RTVSPost2010PropOp34
 70
     1
102
RTVSPost2010Prop35
280
     0
102
RTVSPost2010PropOp35
 70
     1
102
RTVSPost2010Prop36
280
     0
102
RTVSPost2010PropOp36
 70
     1
102
RTVSPost2010Prop37
 90
       50
102
RTVSPost2010PropOp37
 70
     1
102
RTVSPost2010Prop38
140
0.0
102
RTVSPost2010PropOp38
 70
     1
102
RTVSPost2010Prop39
140
1.0
102
RTVSPost2010PropOp39
 70
     1
102
RTVSPost2010Prop40
 90
        0
102
RTVSPost2010PropOp40
 70
     1
102
RTVSPost2010Prop41ColorIndex
 90
       18
102
RTVSPost2010Prop41ColorRGB
 90
        0
102
RTVSPost2010PropOp41
 70
     1
102
RTVSPost2010Prop42
 90
       50
102
RTVSPost2010PropOp42
 70
     1
102
RTVSPost2010Prop43
 90
        3
102
RTVSPost2010PropOp43
 70
     1
102
RTVSPost2010Prop44ColorIndex
 90
        5
102
RTVSPost2010Prop44ColorRGB
 90
      255
102
RTVSPost2010PropOp44
 70
     1
102
RTVSPost2010Prop45
280
     0
102
RTVSPost2010PropOp45
 70
     1
102
RTVSPost2010Prop46
 90
       50
102
RTVSPost2010PropOp46
 70
     1
102
RTVSPost2010Prop47
 90
       50
102
RTVSPost2010PropOp47
 70
     1
102
RTVSPost2010Prop48
 90
       50
102
RTVSPost2010PropOp48
 70
     1
102
RTVSPost2010Prop49
280
     0
102
RTVSPost2010PropOp49
 70
     1
102
RTVSPost2010Prop50
 90
       50
102
RTVSPost2010PropOp50
 70
     1
102
RTVSPost2010Prop51ColorIndex
 90
      256
102
RTVSPost2010Prop51ColorRGB
 90
-16777216
102
RTVSPost2010PropOp51
 70
     0
102
RTVSPost2010Prop52
140
1.0
102
RTVSPost2010PropOp52
 70
     0
102
RTVSPost2010Prop53
 90
        2
102
RTVSPost2010PropOp53
 70
     1
102
RTVSPost2010Prop54
  1
strokes_ogs.tif
102
RTVSPost2010PropOp54
 70
     1
102
RTVSPost2010Prop55
280
     0
102
RTVSPost2010PropOp55
 70
     1
102
RTVSPost2010Prop56
140
1.0
102
RTVSPost2010PropOp56
 70
     1
102
RTVSPost2010Prop57
140
1.0
102
RTVSPost2010PropOp57
 70
     1
  0
XRECORD
  5
2B0
102
{ACAD_REACTORS
330
2AF
102
}
330
2AF
100
AcDbXrecord
280
     1
102
RTVSPost2010Prop28
280
     0
102
RTVSPost2010PropOp28
 70
     1
102
RTVSPost2010Prop29
280
     1
102
RTVSPost2010PropOp29
 70
     1
102
RTVSPost2010Prop30
280
     1
102
RTVSPost2010PropOp30
 70
     1
102
RTVSPost2010Prop31
280
     0
102
RTVSPost2010PropOp31
 70
     1
102
RTVSPost2010Prop32
280
     0
102
RTVSPost2010PropOp32
 70
     1
102
RTVSPost2010Prop33
280
     0
102
RTVSPost2010PropOp33
 70
     1
102
RTVSPost2010Prop34
280
     0
102
RTVSPost2010PropOp34
 70
     1
102
RTVSPost2010Prop35
280
     0
102
RTVSPost2010PropOp35
 70
     1
102
RTVSPost2010Prop36
280
     0
102
RTVSPost2010PropOp36
 70
     1
102
RTVSPost2010Prop37
 90
       50
102
RTVSPost2010PropOp37
 70
     1
102
RTVSPost2010Prop38
140
0.0
102
RTVSPost2010PropOp38
 70
     1
102
RTVSPost2010Prop39
140
1.0
102
RTVSPost2010PropOp39
 70
     1
102
RTVSPost2010Prop40
 90
        0
102
RTVSPost2010PropOp40
 70
     1
102
RTVSPost2010Prop41ColorIndex
 90
       18
102
RTVSPost2010Prop41ColorRGB
 90
        0
102
RTVSPost2010PropOp41
 70
     1
102
RTVSPost2010Prop42
 90
       50
102
RTVSPost2010PropOp42
 70
     1
102
RTVSPost2010Prop43
 90
        3
102
RTVSPost2010PropOp43
 70
     1
102
RTVSPost2010Prop44ColorIndex
 90
        5
102
RTVSPost2010Prop44ColorRGB
 90
      255
102
RTVSPost2010PropOp44
 70
     1
102
RTVSPost2010Prop45
280
     0
102
RTVSPost2010PropOp45
 70
     1
102
RTVSPost2010Prop46
 90
       50
102
RTVSPost2010PropOp46
 70
     1
102
RTVSPost2010Prop47
 90
       50
102
RTVSPost2010PropOp47
 70
     1
102
RTVSPost2010Prop48
 90
       50
102
RTVSPost2010PropOp48
 70
     1
102
RTVSPost2010Prop49
280
     0
102
RTVSPost2010PropOp49
 70
     1
102
RTVSPost2010Prop50
 90
       50
102
RTVSPost2010PropOp50
 70
     1
102
RTVSPost2010Prop51ColorIndex
 90
      256
102
RTVSPost2010Prop51ColorRGB
 90
-16777216
102
RTVSPost2010PropOp51
 70
     0
102
RTVSPost2010Prop52
140
1.0
102
RTVSPost2010PropOp52
 70
     0
102
RTVSPost2010Prop53
 90
        2
102
RTVSPost2010PropOp53
 70
     1
102
RTVSPost2010Prop54
  1
strokes_ogs.tif
102
RTVSPost2010PropOp54
 70
     1
102
RTVSPost2010Prop55
280
     0
102
RTVSPost2010PropOp55
 70
     1
102
RTVSPost2010Prop56
140
1.0
102
RTVSPost2010PropOp56
 70
     1
102
RTVSPost2010Prop57
140
1.0
102
RTVSPost2010PropOp57
 70
     1
  0
XRECORD
  5
2CA
102
{ACAD_REACTORS
330
2C9
102
}
330
2C9
100
AcDbXrecord
280
     1
102
RTVSPost2010Prop28
280
     0
102
RTVSPost2010PropOp28
 70
     0
102
RTVSPost2010Prop29
280
     1
102
RTVSPost2010PropOp29
 70
     0
102
RTVSPost2010Prop30
280
     1
102
RTVSPost2010PropOp30
 70
     0
102
RTVSPost2010Prop31
280
     0
102
RTVSPost2010PropOp31
 70
     0
102
RTVSPost2010Prop32
280
     0
102
RTVSPost2010PropOp32
 70
     0
102
RTVSPost2010Prop33
280
     0
102
RTVSPost2010PropOp33
 70
     0
102
RTVSPost2010Prop34
280
     0
102
RTVSPost2010PropOp34
 70
     0
102
RTVSPost2010Prop35
280
     0
102
RTVSPost2010PropOp35
 70
     0
102
RTVSPost2010Prop36
280
     0
102
RTVSPost2010PropOp36
 70
     0
102
RTVSPost2010Prop37
 90
       50
102
RTVSPost2010PropOp37
 70
     0
102
RTVSPost2010Prop38
140
0.0
102
RTVSPost2010PropOp38
 70
     0
102
RTVSPost2010Prop39
140
1.0
102
RTVSPost2010PropOp39
 70
     0
102
RTVSPost2010Prop40
 90
        0
102
RTVSPost2010PropOp40
 70
     0
102
RTVSPost2010Prop41ColorIndex
 90
       18
102
RTVSPost2010Prop41ColorRGB
 90
        0
102
RTVSPost2010PropOp41
 70
     0
102
RTVSPost2010Prop42
 90
       50
102
RTVSPost2010PropOp42
 70
     0
102
RTVSPost2010Prop43
 90
        3
102
RTVSPost2010PropOp43
 70
     0
102
RTVSPost2010Prop44ColorIndex
 90
        5
102
RTVSPost2010Prop44ColorRGB
 90
      255
102
RTVSPost2010PropOp44
 70
     0
102
RTVSPost2010Prop45
280
     0
102
RTVSPost2010PropOp45
 70
     0
102
RTVSPost2010Prop46
 90
       50
102
RTVSPost2010PropOp46
 70
     0
102
RTVSPost2010Prop47
 90
       50
102
RTVSPost2010PropOp47
 70
     0
102
RTVSPost2010Prop48
 90
       50
102
RTVSPost2010PropOp48
 70
     0
102
RTVSPost2010Prop49
280
     0
102
RTVSPost2010PropOp49
 70
     0
102
RTVSPost2010Prop50
 90
       50
102
RTVSPost2010PropOp50
 70
     0
102
RTVSPost2010Prop51ColorIndex
 90
      256
102
RTVSPost2010Prop51ColorRGB
 90
-16777216
102
RTVSPost2010PropOp51
 70
     0
102
RTVSPost2010Prop52
140
1.0
102
RTVSPost2010PropOp52
 70
     0
102
RTVSPost2010Prop53
 90
        2
102
RTVSPost2010PropOp53
 70
     0
102
RTVSPost2010Prop54
  1
strokes_ogs.tif
102
RTVSPost2010PropOp54
 70
     0
102
RTVSPost2010Prop55
280
     0
102
RTVSPost2010PropOp55
 70
     0
102
RTVSPost2010Prop56
140
1.0
102
RTVSPost2010PropOp56
 70
     0
102
RTVSPost2010Prop57
140
1.0
102
RTVSPost2010PropOp57
 70
     0
  0
XRECORD
  5
2B8
102
{ACAD_REACTORS
330
2B7
102
}
330
2B7
100
AcDbXrecord
280
     1
102
RTVSPost2010Prop28
280
     0
102
RTVSPost2010PropOp28
 70
     1
102
RTVSPost2010Prop29
280
     1
102
RTVSPost2010PropOp29
 70
     1
102
RTVSPost2010Prop30
280
     1
102
RTVSPost2010PropOp30
 70
     1
102
RTVSPost2010Prop31
280
     0
102
RTVSPost2010PropOp31
 70
     1
102
RTVSPost2010Prop32
280
     0
102
RTVSPost2010PropOp32
 70
     1
102
RTVSPost2010Prop33
280
     0
102
RTVSPost2010PropOp33
 70
     1
102
RTVSPost2010Prop34
280
     0
102
RTVSPost2010PropOp34
 70
     1
102
RTVSPost2010Prop35
280
     0
102
RTVSPost2010PropOp35
 70
     1
102
RTVSPost2010Prop36
280
     0
102
RTVSPost2010PropOp36
 70
     1
102
RTVSPost2010Prop37
 90
       50
102
RTVSPost2010PropOp37
 70
     1
102
RTVSPost2010Prop38
140
0.0
102
RTVSPost2010PropOp38
 70
     1
102
RTVSPost2010Prop39
140
1.0
102
RTVSPost2010PropOp39
 70
     1
102
RTVSPost2010Prop40
 90
        0
102
RTVSPost2010PropOp40
 70
     1
102
RTVSPost2010Prop41ColorIndex
 90
       18
102
RTVSPost2010Prop41ColorRGB
 90
        0
102
RTVSPost2010PropOp41
 70
     1
102
RTVSPost2010Prop42
 90
       50
102
RTVSPost2010PropOp42
 70
     1
102
RTVSPost2010Prop43
 90
        3
102
RTVSPost2010PropOp43
 70
     1
102
RTVSPost2010Prop44ColorIndex
 90
        5
102
RTVSPost2010Prop44ColorRGB
 90
      255
102
RTVSPost2010PropOp44
 70
     1
102
RTVSPost2010Prop45
280
     0
102
RTVSPost2010PropOp45
 70
     1
102
RTVSPost2010Prop46
 90
       50
102
RTVSPost2010PropOp46
 70
     1
102
RTVSPost2010Prop47
 90
       50
102
RTVSPost2010PropOp47
 70
     1
102
RTVSPost2010Prop48
 90
       50
102
RTVSPost2010PropOp48
 70
     1
102
RTVSPost2010Prop49
280
     0
102
RTVSPost2010PropOp49
 70
     1
102
RTVSPost2010Prop50
 90
       50
102
RTVSPost2010PropOp50
 70
     1
102
RTVSPost2010Prop51ColorIndex
 90
      256
102
RTVSPost2010Prop51ColorRGB
 90
-16777216
102
RTVSPost2010PropOp51
 70
     0
102
RTVSPost2010Prop52
140
1.0
102
RTVSPost2010PropOp52
 70
     0
102
RTVSPost2010Prop53
 90
        2
102
RTVSPost2010PropOp53
 70
     1
102
RTVSPost2010Prop54
  1
strokes_ogs.tif
102
RTVSPost2010PropOp54
 70
     1
102
RTVSPost2010Prop55
280
     0
102
RTVSPost2010PropOp55
 70
     1
102
RTVSPost2010Prop56
140
1.0
102
RTVSPost2010PropOp56
 70
     1
102
RTVSPost2010Prop57
140
1.0
102
RTVSPost2010PropOp57
 70
     1
  0
XRECORD
  5
29C
102
{ACAD_REACTORS
330
29B
102
}
330
29B
100
AcDbXrecord
280
     1
102
RTVSPost2010Prop28
280
     0
102
RTVSPost2010PropOp28
 70
     1
102
RTVSPost2010Prop29
280
     1
102
RTVSPost2010PropOp29
 70
     1
102
RTVSPost2010Prop30
280
     1
102
RTVSPost2010PropOp30
 70
     1
102
RTVSPost2010Prop31
280
     0
102
RTVSPost2010PropOp31
 70
     1
102
RTVSPost2010Prop32
280
     0
102
RTVSPost2010PropOp32
 70
     1
102
RTVSPost2010Prop33
280
     0
102
RTVSPost2010PropOp33
 70
     1
102
RTVSPost2010Prop34
280
     0
102
RTVSPost2010PropOp34
 70
     1
102
RTVSPost2010Prop35
280
     0
102
RTVSPost2010PropOp35
 70
     1
102
RTVSPost2010Prop36
280
     0
102
RTVSPost2010PropOp36
 70
     1
102
RTVSPost2010Prop37
 90
       50
102
RTVSPost2010PropOp37
 70
     1
102
RTVSPost2010Prop38
140
0.0
102
RTVSPost2010PropOp38
 70
     1
102
RTVSPost2010Prop39
140
1.0
102
RTVSPost2010PropOp39
 70
     1
102
RTVSPost2010Prop40
 90
        0
102
RTVSPost2010PropOp40
 70
     1
102
RTVSPost2010Prop41ColorIndex
 90
       18
102
RTVSPost2010Prop41ColorRGB
 90
        0
102
RTVSPost2010PropOp41
 70
     1
102
RTVSPost2010Prop42
 90
       50
102
RTVSPost2010PropOp42
 70
     1
102
RTVSPost2010Prop43
 90
        3
102
RTVSPost2010PropOp43
 70
     1
102
RTVSPost2010Prop44ColorIndex
 90
        5
102
RTVSPost2010Prop44ColorRGB
 90
      255
102
RTVSPost2010PropOp44
 70
     1
102
RTVSPost2010Prop45
280
     0
102
RTVSPost2010PropOp45
 70
     1
102
RTVSPost2010Prop46
 90
       50
102
RTVSPost2010PropOp46
 70
     1
102
RTVSPost2010Prop47
 90
       50
102
RTVSPost2010PropOp47
 70
     1
102
RTVSPost2010Prop48
 90
       50
102
RTVSPost2010PropOp48
 70
     1
102
RTVSPost2010Prop49
280
     0
102
RTVSPost2010PropOp49
 70
     1
102
RTVSPost2010Prop50
 90
       50
102
RTVSPost2010PropOp50
 70
     1
102
RTVSPost2010Prop51ColorIndex
 90
      256
102
RTVSPost2010Prop51ColorRGB
 90
-16777216
102
RTVSPost2010PropOp51
 70
     0
102
RTVSPost2010Prop52
140
1.0
102
RTVSPost2010PropOp52
 70
     0
102
RTVSPost2010Prop53
 90
        2
102
RTVSPost2010PropOp53
 70
     1
102
RTVSPost2010Prop54
  1
strokes_ogs.tif
102
RTVSPost2010PropOp54
 70
     1
102
RTVSPost2010Prop55
280
     0
102
RTVSPost2010PropOp55
 70
     1
102
RTVSPost2010Prop56
140
1.0
102
RTVSPost2010PropOp56
 70
     1
102
RTVSPost2010Prop57
140
1.0
102
RTVSPost2010PropOp57
 70
     1
  0
XRECORD
  5
29E
102
{ACAD_REACTORS
330
29D
102
}
330
29D
100
AcDbXrecord
280
     1
102
RTVSPost2010Prop28
280
     0
102
RTVSPost2010PropOp28
 70
     1
102
RTVSPost2010Prop29
280
     1
102
RTVSPost2010PropOp29
 70
     1
102
RTVSPost2010Prop30
280
     1
102
RTVSPost2010PropOp30
 70
     1
102
RTVSPost2010Prop31
280
     0
102
RTVSPost2010PropOp31
 70
     1
102
RTVSPost2010Prop32
280
     0
102
RTVSPost2010PropOp32
 70
     1
102
RTVSPost2010Prop33
280
     0
102
RTVSPost2010PropOp33
 70
     1
102
RTVSPost2010Prop34
280
     0
102
RTVSPost2010PropOp34
 70
     1
102
RTVSPost2010Prop35
280
     0
102
RTVSPost2010PropOp35
 70
     1
102
RTVSPost2010Prop36
280
     0
102
RTVSPost2010PropOp36
 70
     1
102
RTVSPost2010Prop37
 90
       50
102
RTVSPost2010PropOp37
 70
     1
102
RTVSPost2010Prop38
140
0.0
102
RTVSPost2010PropOp38
 70
     1
102
RTVSPost2010Prop39
140
1.0
102
RTVSPost2010PropOp39
 70
     1
102
RTVSPost2010Prop40
 90
        0
102
RTVSPost2010PropOp40
 70
     1
102
RTVSPost2010Prop41ColorIndex
 90
       18
102
RTVSPost2010Prop41ColorRGB
 90
        0
102
RTVSPost2010PropOp41
 70
     1
102
RTVSPost2010Prop42
 90
       50
102
RTVSPost2010PropOp42
 70
     1
102
RTVSPost2010Prop43
 90
        3
102
RTVSPost2010PropOp43
 70
     1
102
RTVSPost2010Prop44ColorIndex
 90
        5
102
RTVSPost2010Prop44ColorRGB
 90
      255
102
RTVSPost2010PropOp44
 70
     1
102
RTVSPost2010Prop45
280
     0
102
RTVSPost2010PropOp45
 70
     1
102
RTVSPost2010Prop46
 90
       50
102
RTVSPost2010PropOp46
 70
     1
102
RTVSPost2010Prop47
 90
       50
102
RTVSPost2010PropOp47
 70
     1
102
RTVSPost2010Prop48
 90
       50
102
RTVSPost2010PropOp48
 70
     1
102
RTVSPost2010Prop49
280
     0
102
RTVSPost2010PropOp49
 70
     1
102
RTVSPost2010Prop50
 90
       50
102
RTVSPost2010PropOp50
 70
     1
102
RTVSPost2010Prop51ColorIndex
 90
      256
102
RTVSPost2010Prop51ColorRGB
 90
-16777216
102
RTVSPost2010PropOp51
 70
     0
102
RTVSPost2010Prop52
140
1.0
102
RTVSPost2010PropOp52
 70
     0
102
RTVSPost2010Prop53
 90
        2
102
RTVSPost2010PropOp53
 70
     1
102
RTVSPost2010Prop54
  1
strokes_ogs.tif
102
RTVSPost2010PropOp54
 70
     1
102
RTVSPost2010Prop55
280
     0
102
RTVSPost2010PropOp55
 70
     1
102
RTVSPost2010Prop56
140
1.0
102
RTVSPost2010PropOp56
 70
     1
102
RTVSPost2010Prop57
140
1.0
102
RTVSPost2010PropOp57
 70
     1
  0
XRECORD
  5
2A0
102
{ACAD_REACTORS
330
29F
102
}
330
29F
100
AcDbXrecord
280
     1
102
RTVSPost2010Prop28
280
     0
102
RTVSPost2010PropOp28
 70
     1
102
RTVSPost2010Prop29
280
     1
102
RTVSPost2010PropOp29
 70
     1
102
RTVSPost2010Prop30
280
     1
102
RTVSPost2010PropOp30
 70
     1
102
RTVSPost2010Prop31
280
     0
102
RTVSPost2010PropOp31
 70
     1
102
RTVSPost2010Prop32
280
     0
102
RTVSPost2010PropOp32
 70
     1
102
RTVSPost2010Prop33
280
     0
102
RTVSPost2010PropOp33
 70
     1
102
RTVSPost2010Prop34
280
     0
102
RTVSPost2010PropOp34
 70
     1
102
RTVSPost2010Prop35
280
     0
102
RTVSPost2010PropOp35
 70
     1
102
RTVSPost2010Prop36
280
     0
102
RTVSPost2010PropOp36
 70
     1
102
RTVSPost2010Prop37
 90
       50
102
RTVSPost2010PropOp37
 70
     1
102
RTVSPost2010Prop38
140
0.0
102
RTVSPost2010PropOp38
 70
     1
102
RTVSPost2010Prop39
140
1.0
102
RTVSPost2010PropOp39
 70
     1
102
RTVSPost2010Prop40
 90
        0
102
RTVSPost2010PropOp40
 70
     1
102
RTVSPost2010Prop41ColorIndex
 90
       18
102
RTVSPost2010Prop41ColorRGB
 90
        0
102
RTVSPost2010PropOp41
 70
     1
102
RTVSPost2010Prop42
 90
       50
102
RTVSPost2010PropOp42
 70
     1
102
RTVSPost2010Prop43
 90
        3
102
RTVSPost2010PropOp43
 70
     1
102
RTVSPost2010Prop44ColorIndex
 90
        5
102
RTVSPost2010Prop44ColorRGB
 90
      255
102
RTVSPost2010PropOp44
 70
     1
102
RTVSPost2010Prop45
280
     0
102
RTVSPost2010PropOp45
 70
     1
102
RTVSPost2010Prop46
 90
       50
102
RTVSPost2010PropOp46
 70
     1
102
RTVSPost2010Prop47
 90
       50
102
RTVSPost2010PropOp47
 70
     1
102
RTVSPost2010Prop48
 90
       50
102
RTVSPost2010PropOp48
 70
     1
102
RTVSPost2010Prop49
280
     0
102
RTVSPost2010PropOp49
 70
     1
102
RTVSPost2010Prop50
 90
       50
102
RTVSPost2010PropOp50
 70
     1
102
RTVSPost2010Prop51ColorIndex
 90
      256
102
RTVSPost2010Prop51ColorRGB
 90
-16777216
102
RTVSPost2010PropOp51
 70
     0
102
RTVSPost2010Prop52
140
1.0
102
RTVSPost2010PropOp52
 70
     0
102
RTVSPost2010Prop53
 90
        2
102
RTVSPost2010PropOp53
 70
     1
102
RTVSPost2010Prop54
  1
strokes_ogs.tif
102
RTVSPost2010PropOp54
 70
     1
102
RTVSPost2010Prop55
280
     0
102
RTVSPost2010PropOp55
 70
     1
102
RTVSPost2010Prop56
140
1.0
102
RTVSPost2010PropOp56
 70
     1
102
RTVSPost2010Prop57
140
1.0
102
RTVSPost2010PropOp57
 70
     1
  0
XRECORD
  5
2A2
102
{ACAD_REACTORS
330
2A1
102
}
330
2A1
100
AcDbXrecord
280
     1
102
RTVSPost2010Prop28
280
     0
102
RTVSPost2010PropOp28
 70
     1
102
RTVSPost2010Prop29
280
     1
102
RTVSPost2010PropOp29
 70
     1
102
RTVSPost2010Prop30
280
     1
102
RTVSPost2010PropOp30
 70
     1
102
RTVSPost2010Prop31
280
     0
102
RTVSPost2010PropOp31
 70
     1
102
RTVSPost2010Prop32
280
     0
102
RTVSPost2010PropOp32
 70
     1
102
RTVSPost2010Prop33
280
     0
102
RTVSPost2010PropOp33
 70
     1
102
RTVSPost2010Prop34
280
     0
102
RTVSPost2010PropOp34
 70
     1
102
RTVSPost2010Prop35
280
     0
102
RTVSPost2010PropOp35
 70
     1
102
RTVSPost2010Prop36
280
     0
102
RTVSPost2010PropOp36
 70
     1
102
RTVSPost2010Prop37
 90
       50
102
RTVSPost2010PropOp37
 70
     1
102
RTVSPost2010Prop38
140
0.0
102
RTVSPost2010PropOp38
 70
     1
102
RTVSPost2010Prop39
140
1.0
102
RTVSPost2010PropOp39
 70
     1
102
RTVSPost2010Prop40
 90
        0
102
RTVSPost2010PropOp40
 70
     1
102
RTVSPost2010Prop41ColorIndex
 90
       18
102
RTVSPost2010Prop41ColorRGB
 90
        0
102
RTVSPost2010PropOp41
 70
     1
102
RTVSPost2010Prop42
 90
       50
102
RTVSPost2010PropOp42
 70
     1
102
RTVSPost2010Prop43
 90
        3
102
RTVSPost2010PropOp43
 70
     1
102
RTVSPost2010Prop44ColorIndex
 90
        5
102
RTVSPost2010Prop44ColorRGB
 90
      255
102
RTVSPost2010PropOp44
 70
     1
102
RTVSPost2010Prop45
280
     0
102
RTVSPost2010PropOp45
 70
     1
102
RTVSPost2010Prop46
 90
       50
102
RTVSPost2010PropOp46
 70
     1
102
RTVSPost2010Prop47
 90
       50
102
RTVSPost2010PropOp47
 70
     1
102
RTVSPost2010Prop48
 90
       50
102
RTVSPost2010PropOp48
 70
     1
102
RTVSPost2010Prop49
280
     0
102
RTVSPost2010PropOp49
 70
     1
102
RTVSPost2010Prop50
 90
       50
102
RTVSPost2010PropOp50
 70
     1
102
RTVSPost2010Prop51ColorIndex
 90
      256
102
RTVSPost2010Prop51ColorRGB
 90
-16777216
102
RTVSPost2010PropOp51
 70
     0
102
RTVSPost2010Prop52
140
1.0
102
RTVSPost2010PropOp52
 70
     0
102
RTVSPost2010Prop53
 90
        2
102
RTVSPost2010PropOp53
 70
     1
102
RTVSPost2010Prop54
  1
strokes_ogs.tif
102
RTVSPost2010PropOp54
 70
     1
102
RTVSPost2010Prop55
280
     0
102
RTVSPost2010PropOp55
 70
     1
102
RTVSPost2010Prop56
140
1.0
102
RTVSPost2010PropOp56
 70
     1
102
RTVSPost2010Prop57
140
1.0
102
RTVSPost2010PropOp57
 70
     1
  0
XRECORD
  5
2AA
102
{ACAD_REACTORS
330
2A9
102
}
330
2A9
100
AcDbXrecord
280
     1
102
RTVSPost2010Prop28
280
     0
102
RTVSPost2010PropOp28
 70
     1
102
RTVSPost2010Prop29
280
     1
102
RTVSPost2010PropOp29
 70
     1
102
RTVSPost2010Prop30
280
     1
102
RTVSPost2010PropOp30
 70
     1
102
RTVSPost2010Prop31
280
     0
102
RTVSPost2010PropOp31
 70
     1
102
RTVSPost2010Prop32
280
     0
102
RTVSPost2010PropOp32
 70
     1
102
RTVSPost2010Prop33
280
     0
102
RTVSPost2010PropOp33
 70
     1
102
RTVSPost2010Prop34
280
     0
102
RTVSPost2010PropOp34
 70
     1
102
RTVSPost2010Prop35
280
     0
102
RTVSPost2010PropOp35
 70
     1
102
RTVSPost2010Prop36
280
     0
102
RTVSPost2010PropOp36
 70
     1
102
RTVSPost2010Prop37
 90
       50
102
RTVSPost2010PropOp37
 70
     1
102
RTVSPost2010Prop38
140
0.0
102
RTVSPost2010PropOp38
 70
     1
102
RTVSPost2010Prop39
140
1.0
102
RTVSPost2010PropOp39
 70
     1
102
RTVSPost2010Prop40
 90
        0
102
RTVSPost2010PropOp40
 70
     1
102
RTVSPost2010Prop41ColorIndex
 90
       18
102
RTVSPost2010Prop41ColorRGB
 90
        0
102
RTVSPost2010PropOp41
 70
     1
102
RTVSPost2010Prop42
 90
       50
102
RTVSPost2010PropOp42
 70
     1
102
RTVSPost2010Prop43
 90
        3
102
RTVSPost2010PropOp43
 70
     1
102
RTVSPost2010Prop44ColorIndex
 90
        5
102
RTVSPost2010Prop44ColorRGB
 90
      255
102
RTVSPost2010PropOp44
 70
     1
102
RTVSPost2010Prop45
280
     0
102
RTVSPost2010PropOp45
 70
     1
102
RTVSPost2010Prop46
 90
       50
102
RTVSPost2010PropOp46
 70
     1
102
RTVSPost2010Prop47
 90
       50
102
RTVSPost2010PropOp47
 70
     1
102
RTVSPost2010Prop48
 90
       50
102
RTVSPost2010PropOp48
 70
     1
102
RTVSPost2010Prop49
280
     0
102
RTVSPost2010PropOp49
 70
     1
102
RTVSPost2010Prop50
 90
       50
102
RTVSPost2010PropOp50
 70
     1
102
RTVSPost2010Prop51ColorIndex
 90
      256
102
RTVSPost2010Prop51ColorRGB
 90
-16777216
102
RTVSPost2010PropOp51
 70
     0
102
RTVSPost2010Prop52
140
1.0
102
RTVSPost2010PropOp52
 70
     0
102
RTVSPost2010Prop53
 90
        2
102
RTVSPost2010PropOp53
 70
     1
102
RTVSPost2010Prop54
  1
strokes_ogs.tif
102
RTVSPost2010PropOp54
 70
     1
102
RTVSPost2010Prop55
280
     0
102
RTVSPost2010PropOp55
 70
     1
102
RTVSPost2010Prop56
140
1.0
102
RTVSPost2010PropOp56
 70
     1
102
RTVSPost2010Prop57
140
1.0
102
RTVSPost2010PropOp57
 70
     1
  0
XRECORD
  5
2C6
102
{ACAD_REACTORS
330
2C5
102
}
330
2C5
100
AcDbXrecord
280
     1
102
RTVSPost2010Prop28
280
     0
102
RTVSPost2010PropOp28
 70
     0
102
RTVSPost2010Prop29
280
     1
102
RTVSPost2010PropOp29
 70
     0
102
RTVSPost2010Prop30
280
     1
102
RTVSPost2010PropOp30
 70
     0
102
RTVSPost2010Prop31
280
     0
102
RTVSPost2010PropOp31
 70
     0
102
RTVSPost2010Prop32
280
     0
102
RTVSPost2010PropOp32
 70
     0
102
RTVSPost2010Prop33
280
     0
102
RTVSPost2010PropOp33
 70
     0
102
RTVSPost2010Prop34
280
     0
102
RTVSPost2010PropOp34
 70
     0
102
RTVSPost2010Prop35
280
     0
102
RTVSPost2010PropOp35
 70
     0
102
RTVSPost2010Prop36
280
     0
102
RTVSPost2010PropOp36
 70
     0
102
RTVSPost2010Prop37
 90
       50
102
RTVSPost2010PropOp37
 70
     0
102
RTVSPost2010Prop38
140
0.0
102
RTVSPost2010PropOp38
 70
     0
102
RTVSPost2010Prop39
140
1.0
102
RTVSPost2010PropOp39
 70
     0
102
RTVSPost2010Prop40
 90
        0
102
RTVSPost2010PropOp40
 70
     0
102
RTVSPost2010Prop41ColorIndex
 90
       18
102
RTVSPost2010Prop41ColorRGB
 90
        0
102
RTVSPost2010PropOp41
 70
     0
102
RTVSPost2010Prop42
 90
       50
102
RTVSPost2010PropOp42
 70
     0
102
RTVSPost2010Prop43
 90
        3
102
RTVSPost2010PropOp43
 70
     0
102
RTVSPost2010Prop44ColorIndex
 90
        5
102
RTVSPost2010Prop44ColorRGB
 90
      255
102
RTVSPost2010PropOp44
 70
     0
102
RTVSPost2010Prop45
280
     0
102
RTVSPost2010PropOp45
 70
     0
102
RTVSPost2010Prop46
 90
       50
102
RTVSPost2010PropOp46
 70
     0
102
RTVSPost2010Prop47
 90
       50
102
RTVSPost2010PropOp47
 70
     0
102
RTVSPost2010Prop48
 90
       50
102
RTVSPost2010PropOp48
 70
     0
102
RTVSPost2010Prop49
280
     0
102
RTVSPost2010PropOp49
 70
     0
102
RTVSPost2010Prop50
 90
       50
102
RTVSPost2010PropOp50
 70
     0
102
RTVSPost2010Prop51ColorIndex
 90
      256
102
RTVSPost2010Prop51ColorRGB
 90
-16777216
102
RTVSPost2010PropOp51
 70
     0
102
RTVSPost2010Prop52
140
1.0
102
RTVSPost2010PropOp52
 70
     0
102
RTVSPost2010Prop53
 90
        2
102
RTVSPost2010PropOp53
 70
     0
102
RTVSPost2010Prop54
  1
strokes_ogs.tif
102
RTVSPost2010PropOp54
 70
     0
102
RTVSPost2010Prop55
280
     0
102
RTVSPost2010PropOp55
 70
     0
102
RTVSPost2010Prop56
140
1.0
102
RTVSPost2010PropOp56
 70
     0
102
RTVSPost2010Prop57
140
1.0
102
RTVSPost2010PropOp57
 70
     0
  0
XRECORD
  5
2B6
102
{ACAD_REACTORS
330
2B5
102
}
330
2B5
100
AcDbXrecord
280
     1
102
RTVSPost2010Prop28
280
     0
102
RTVSPost2010PropOp28
 70
     1
102
RTVSPost2010Prop29
280
     1
102
RTVSPost2010PropOp29
 70
     1
102
RTVSPost2010Prop30
280
     1
102
RTVSPost2010PropOp30
 70
     1
102
RTVSPost2010Prop31
280
     0
102
RTVSPost2010PropOp31
 70
     1
102
RTVSPost2010Prop32
280
     0
102
RTVSPost2010PropOp32
 70
     1
102
RTVSPost2010Prop33
280
     0
102
RTVSPost2010PropOp33
 70
     1
102
RTVSPost2010Prop34
280
     0
102
RTVSPost2010PropOp34
 70
     1
102
RTVSPost2010Prop35
280
     0
102
RTVSPost2010PropOp35
 70
     1
102
RTVSPost2010Prop36
280
     0
102
RTVSPost2010PropOp36
 70
     1
102
RTVSPost2010Prop37
 90
       50
102
RTVSPost2010PropOp37
 70
     1
102
RTVSPost2010Prop38
140
0.0
102
RTVSPost2010PropOp38
 70
     1
102
RTVSPost2010Prop39
140
1.0
102
RTVSPost2010PropOp39
 70
     1
102
RTVSPost2010Prop40
 90
        0
102
RTVSPost2010PropOp40
 70
     1
102
RTVSPost2010Prop41ColorIndex
 90
       18
102
RTVSPost2010Prop41ColorRGB
 90
        0
102
RTVSPost2010PropOp41
 70
     1
102
RTVSPost2010Prop42
 90
       50
102
RTVSPost2010PropOp42
 70
     1
102
RTVSPost2010Prop43
 90
        3
102
RTVSPost2010PropOp43
 70
     1
102
RTVSPost2010Prop44ColorIndex
 90
        5
102
RTVSPost2010Prop44ColorRGB
 90
      255
102
RTVSPost2010PropOp44
 70
     1
102
RTVSPost2010Prop45
280
     0
102
RTVSPost2010PropOp45
 70
     1
102
RTVSPost2010Prop46
 90
       50
102
RTVSPost2010PropOp46
 70
     1
102
RTVSPost2010Prop47
 90
       50
102
RTVSPost2010PropOp47
 70
     1
102
RTVSPost2010Prop48
 90
       50
102
RTVSPost2010PropOp48
 70
     1
102
RTVSPost2010Prop49
280
     0
102
RTVSPost2010PropOp49
 70
     1
102
RTVSPost2010Prop50
 90
       50
102
RTVSPost2010PropOp50
 70
     1
102
RTVSPost2010Prop51ColorIndex
 90
      256
102
RTVSPost2010Prop51ColorRGB
 90
-16777216
102
RTVSPost2010PropOp51
 70
     0
102
RTVSPost2010Prop52
140
1.0
102
RTVSPost2010PropOp52
 70
     0
102
RTVSPost2010Prop53
 90
        2
102
RTVSPost2010PropOp53
 70
     1
102
RTVSPost2010Prop54
  1
strokes_ogs.tif
102
RTVSPost2010PropOp54
 70
     1
102
RTVSPost2010Prop55
280
     0
102
RTVSPost2010PropOp55
 70
     1
102
RTVSPost2010Prop56
140
1.0
102
RTVSPost2010PropOp56
 70
     1
102
RTVSPost2010Prop57
140
1.0
102
RTVSPost2010PropOp57
 70
     1
  0
XRECORD
  5
2C8
102
{ACAD_REACTORS
330
2C7
102
}
330
2C7
100
AcDbXrecord
280
     1
102
RTVSPost2010Prop28
280
     0
102
RTVSPost2010PropOp28
 70
     0
102
RTVSPost2010Prop29
280
     1
102
RTVSPost2010PropOp29
 70
     0
102
RTVSPost2010Prop30
280
     1
102
RTVSPost2010PropOp30
 70
     0
102
RTVSPost2010Prop31
280
     0
102
RTVSPost2010PropOp31
 70
     0
102
RTVSPost2010Prop32
280
     0
102
RTVSPost2010PropOp32
 70
     0
102
RTVSPost2010Prop33
280
     0
102
RTVSPost2010PropOp33
 70
     0
102
RTVSPost2010Prop34
280
     0
102
RTVSPost2010PropOp34
 70
     0
102
RTVSPost2010Prop35
280
     0
102
RTVSPost2010PropOp35
 70
     0
102
RTVSPost2010Prop36
280
     0
102
RTVSPost2010PropOp36
 70
     0
102
RTVSPost2010Prop37
 90
       50
102
RTVSPost2010PropOp37
 70
     0
102
RTVSPost2010Prop38
140
0.0
102
RTVSPost2010PropOp38
 70
     0
102
RTVSPost2010Prop39
140
1.0
102
RTVSPost2010PropOp39
 70
     0
102
RTVSPost2010Prop40
 90
        0
102
RTVSPost2010PropOp40
 70
     0
102
RTVSPost2010Prop41ColorIndex
 90
       18
102
RTVSPost2010Prop41ColorRGB
 90
        0
102
RTVSPost2010PropOp41
 70
     0
102
RTVSPost2010Prop42
 90
       50
102
RTVSPost2010PropOp42
 70
     0
102
RTVSPost2010Prop43
 90
        3
102
RTVSPost2010PropOp43
 70
     0
102
RTVSPost2010Prop44ColorIndex
 90
        5
102
RTVSPost2010Prop44ColorRGB
 90
      255
102
RTVSPost2010PropOp44
 70
     0
102
RTVSPost2010Prop45
280
     0
102
RTVSPost2010PropOp45
 70
     0
102
RTVSPost2010Prop46
 90
       50
102
RTVSPost2010PropOp46
 70
     0
102
RTVSPost2010Prop47
 90
       50
102
RTVSPost2010PropOp47
 70
     0
102
RTVSPost2010Prop48
 90
       50
102
RTVSPost2010PropOp48
 70
     0
102
RTVSPost2010Prop49
280
     0
102
RTVSPost2010PropOp49
 70
     0
102
RTVSPost2010Prop50
 90
       50
102
RTVSPost2010PropOp50
 70
     0
102
RTVSPost2010Prop51ColorIndex
 90
      256
102
RTVSPost2010Prop51ColorRGB
 90
-16777216
102
RTVSPost2010PropOp51
 70
     0
102
RTVSPost2010Prop52
140
1.0
102
RTVSPost2010PropOp52
 70
     0
102
RTVSPost2010Prop53
 90
        2
102
RTVSPost2010PropOp53
 70
     0
102
RTVSPost2010Prop54
  1
strokes_ogs.tif
102
RTVSPost2010PropOp54
 70
     0
102
RTVSPost2010Prop55
280
     0
102
RTVSPost2010PropOp55
 70
     0
102
RTVSPost2010Prop56
140
1.0
102
RTVSPost2010PropOp56
 70
     0
102
RTVSPost2010Prop57
140
1.0
102
RTVSPost2010PropOp57
 70
     0
  0
XRECORD
  5
2AE
102
{ACAD_REACTORS
330
2AD
102
}
330
2AD
100
AcDbXrecord
280
     1
102
RTVSPost2010Prop28
280
     0
102
RTVSPost2010PropOp28
 70
     1
102
RTVSPost2010Prop29
280
     1
102
RTVSPost2010PropOp29
 70
     1
102
RTVSPost2010Prop30
280
     1
102
RTVSPost2010PropOp30
 70
     1
102
RTVSPost2010Prop31
280
     0
102
RTVSPost2010PropOp31
 70
     1
102
RTVSPost2010Prop32
280
     0
102
RTVSPost2010PropOp32
 70
     1
102
RTVSPost2010Prop33
280
     0
102
RTVSPost2010PropOp33
 70
     1
102
RTVSPost2010Prop34
280
     0
102
RTVSPost2010PropOp34
 70
     1
102
RTVSPost2010Prop35
280
     0
102
RTVSPost2010PropOp35
 70
     1
102
RTVSPost2010Prop36
280
     0
102
RTVSPost2010PropOp36
 70
     1
102
RTVSPost2010Prop37
 90
       50
102
RTVSPost2010PropOp37
 70
     1
102
RTVSPost2010Prop38
140
0.0
102
RTVSPost2010PropOp38
 70
     1
102
RTVSPost2010Prop39
140
1.0
102
RTVSPost2010PropOp39
 70
     1
102
RTVSPost2010Prop40
 90
        0
102
RTVSPost2010PropOp40
 70
     1
102
RTVSPost2010Prop41ColorIndex
 90
       18
102
RTVSPost2010Prop41ColorRGB
 90
        0
102
RTVSPost2010PropOp41
 70
     1
102
RTVSPost2010Prop42
 90
       50
102
RTVSPost2010PropOp42
 70
     1
102
RTVSPost2010Prop43
 90
        3
102
RTVSPost2010PropOp43
 70
     1
102
RTVSPost2010Prop44ColorIndex
 90
        5
102
RTVSPost2010Prop44ColorRGB
 90
      255
102
RTVSPost2010PropOp44
 70
     1
102
RTVSPost2010Prop45
280
     0
102
RTVSPost2010PropOp45
 70
     1
102
RTVSPost2010Prop46
 90
       50
102
RTVSPost2010PropOp46
 70
     1
102
RTVSPost2010Prop47
 90
       50
102
RTVSPost2010PropOp47
 70
     1
102
RTVSPost2010Prop48
 90
       50
102
RTVSPost2010PropOp48
 70
     1
102
RTVSPost2010Prop49
280
     0
102
RTVSPost2010PropOp49
 70
     1
102
RTVSPost2010Prop50
 90
       50
102
RTVSPost2010PropOp50
 70
     1
102
RTVSPost2010Prop51ColorIndex
 90
      256
102
RTVSPost2010Prop51ColorRGB
 90
-16777216
102
RTVSPost2010PropOp51
 70
     0
102
RTVSPost2010Prop52
140
1.0
102
RTVSPost2010PropOp52
 70
     0
102
RTVSPost2010Prop53
 90
        2
102
RTVSPost2010PropOp53
 70
     1
102
RTVSPost2010Prop54
  1
strokes_ogs.tif
102
RTVSPost2010PropOp54
 70
     1
102
RTVSPost2010Prop55
280
     0
102
RTVSPost2010PropOp55
 70
     1
102
RTVSPost2010Prop56
140
1.0
102
RTVSPost2010PropOp56
 70
     1
102
RTVSPost2010Prop57
140
1.0
102
RTVSPost2010PropOp57
 70
     1
  0
XRECORD
  5
2C4
102
{ACAD_REACTORS
330
2C3
102
}
330
2C3
100
AcDbXrecord
280
     1
102
RTVSPost2010Prop28
280
     0
102
RTVSPost2010PropOp28
 70
     1
102
RTVSPost2010Prop29
280
     1
102
RTVSPost2010PropOp29
 70
     1
102
RTVSPost2010Prop30
280
     1
102
RTVSPost2010PropOp30
 70
     1
102
RTVSPost2010Prop31
280
     0
102
RTVSPost2010PropOp31
 70
     1
102
RTVSPost2010Prop32
280
     0
102
RTVSPost2010PropOp32
 70
     1
102
RTVSPost2010Prop33
280
     0
102
RTVSPost2010PropOp33
 70
     1
102
RTVSPost2010Prop34
280
     0
102
RTVSPost2010PropOp34
 70
     1
102
RTVSPost2010Prop35
280
     0
102
RTVSPost2010PropOp35
 70
     1
102
RTVSPost2010Prop36
280
     0
102
RTVSPost2010PropOp36
 70
     1
102
RTVSPost2010Prop37
 90
       50
102
RTVSPost2010PropOp37
 70
     1
102
RTVSPost2010Prop38
140
0.0
102
RTVSPost2010PropOp38
 70
     1
102
RTVSPost2010Prop39
140
1.0
102
RTVSPost2010PropOp39
 70
     1
102
RTVSPost2010Prop40
 90
        0
102
RTVSPost2010PropOp40
 70
     1
102
RTVSPost2010Prop41ColorIndex
 90
       18
102
RTVSPost2010Prop41ColorRGB
 90
        0
102
RTVSPost2010PropOp41
 70
     1
102
RTVSPost2010Prop42
 90
       50
102
RTVSPost2010PropOp42
 70
     1
102
RTVSPost2010Prop43
 90
        3
102
RTVSPost2010PropOp43
 70
     1
102
RTVSPost2010Prop44ColorIndex
 90
        5
102
RTVSPost2010Prop44ColorRGB
 90
      255
102
RTVSPost2010PropOp44
 70
     1
102
RTVSPost2010Prop45
280
     0
102
RTVSPost2010PropOp45
 70
     1
102
RTVSPost2010Prop46
 90
       50
102
RTVSPost2010PropOp46
 70
     1
102
RTVSPost2010Prop47
 90
       50
102
RTVSPost2010PropOp47
 70
     1
102
RTVSPost2010Prop48
 90
       50
102
RTVSPost2010PropOp48
 70
     1
102
RTVSPost2010Prop49
280
     0
102
RTVSPost2010PropOp49
 70
     1
102
RTVSPost2010Prop50
 90
       50
102
RTVSPost2010PropOp50
 70
     1
102
RTVSPost2010Prop51ColorIndex
 90
      256
102
RTVSPost2010Prop51ColorRGB
 90
-16777216
102
RTVSPost2010PropOp51
 70
     0
102
RTVSPost2010Prop52
140
1.0
102
RTVSPost2010PropOp52
 70
     0
102
RTVSPost2010Prop53
 90
        2
102
RTVSPost2010PropOp53
 70
     1
102
RTVSPost2010Prop54
  1
strokes_ogs.tif
102
RTVSPost2010PropOp54
 70
     1
102
RTVSPost2010Prop55
280
     0
102
RTVSPost2010PropOp55
 70
     1
102
RTVSPost2010Prop56
140
1.0
102
RTVSPost2010PropOp56
 70
     1
102
RTVSPost2010Prop57
140
1.0
102
RTVSPost2010PropOp57
 70
     1
  0
XRECORD
  5
2C2
102
{ACAD_REACTORS
330
2C1
102
}
330
2C1
100
AcDbXrecord
280
     1
102
RTVSPost2010Prop28
280
     0
102
RTVSPost2010PropOp28
 70
     1
102
RTVSPost2010Prop29
280
     1
102
RTVSPost2010PropOp29
 70
     1
102
RTVSPost2010Prop30
280
     1
102
RTVSPost2010PropOp30
 70
     1
102
RTVSPost2010Prop31
280
     0
102
RTVSPost2010PropOp31
 70
     1
102
RTVSPost2010Prop32
280
     0
102
RTVSPost2010PropOp32
 70
     1
102
RTVSPost2010Prop33
280
     0
102
RTVSPost2010PropOp33
 70
     1
102
RTVSPost2010Prop34
280
     0
102
RTVSPost2010PropOp34
 70
     1
102
RTVSPost2010Prop35
280
     0
102
RTVSPost2010PropOp35
 70
     1
102
RTVSPost2010Prop36
280
     0
102
RTVSPost2010PropOp36
 70
     1
102
RTVSPost2010Prop37
 90
       50
102
RTVSPost2010PropOp37
 70
     1
102
RTVSPost2010Prop38
140
0.0
102
RTVSPost2010PropOp38
 70
     1
102
RTVSPost2010Prop39
140
1.0
102
RTVSPost2010PropOp39
 70
     1
102
RTVSPost2010Prop40
 90
        0
102
RTVSPost2010PropOp40
 70
     1
102
RTVSPost2010Prop41ColorIndex
 90
       18
102
RTVSPost2010Prop41ColorRGB
 90
        0
102
RTVSPost2010PropOp41
 70
     1
102
RTVSPost2010Prop42
 90
       50
102
RTVSPost2010PropOp42
 70
     1
102
RTVSPost2010Prop43
 90
        3
102
RTVSPost2010PropOp43
 70
     1
102
RTVSPost2010Prop44ColorIndex
 90
        5
102
RTVSPost2010Prop44ColorRGB
 90
      255
102
RTVSPost2010PropOp44
 70
     1
102
RTVSPost2010Prop45
280
     0
102
RTVSPost2010PropOp45
 70
     1
102
RTVSPost2010Prop46
 90
       50
102
RTVSPost2010PropOp46
 70
     1
102
RTVSPost2010Prop47
 90
       50
102
RTVSPost2010PropOp47
 70
     1
102
RTVSPost2010Prop48
 90
       50
102
RTVSPost2010PropOp48
 70
     1
102
RTVSPost2010Prop49
280
     0
102
RTVSPost2010PropOp49
 70
     1
102
RTVSPost2010Prop50
 90
       50
102
RTVSPost2010PropOp50
 70
     1
102
RTVSPost2010Prop51ColorIndex
 90
      256
102
RTVSPost2010Prop51ColorRGB
 90
-16777216
102
RTVSPost2010PropOp51
 70
     0
102
RTVSPost2010Prop52
140
1.0
102
RTVSPost2010PropOp52
 70
     0
102
RTVSPost2010Prop53
 90
        2
102
RTVSPost2010PropOp53
 70
     1
102
RTVSPost2010Prop54
  1
strokes_ogs.tif
102
RTVSPost2010PropOp54
 70
     1
102
RTVSPost2010Prop55
280
     0
102
RTVSPost2010PropOp55
 70
     1
102
RTVSPost2010Prop56
140
1.0
102
RTVSPost2010PropOp56
 70
     1
102
RTVSPost2010Prop57
140
1.0
102
RTVSPost2010PropOp57
 70
     1
  0
XRECORD
  5
2BC
102
{ACAD_REACTORS
330
2BB
102
}
330
2BB
100
AcDbXrecord
280
     1
102
RTVSPost2010Prop28
280
     0
102
RTVSPost2010PropOp28
 70
     1
102
RTVSPost2010Prop29
280
     1
102
RTVSPost2010PropOp29
 70
     1
102
RTVSPost2010Prop30
280
     1
102
RTVSPost2010PropOp30
 70
     1
102
RTVSPost2010Prop31
280
     0
102
RTVSPost2010PropOp31
 70
     1
102
RTVSPost2010Prop32
280
     0
102
RTVSPost2010PropOp32
 70
     1
102
RTVSPost2010Prop33
280
     0
102
RTVSPost2010PropOp33
 70
     1
102
RTVSPost2010Prop34
280
     0
102
RTVSPost2010PropOp34
 70
     1
102
RTVSPost2010Prop35
280
     0
102
RTVSPost2010PropOp35
 70
     1
102
RTVSPost2010Prop36
280
     0
102
RTVSPost2010PropOp36
 70
     1
102
RTVSPost2010Prop37
 90
       50
102
RTVSPost2010PropOp37
 70
     1
102
RTVSPost2010Prop38
140
0.0
102
RTVSPost2010PropOp38
 70
     1
102
RTVSPost2010Prop39
140
1.0
102
RTVSPost2010PropOp39
 70
     1
102
RTVSPost2010Prop40
 90
        0
102
RTVSPost2010PropOp40
 70
     1
102
RTVSPost2010Prop41ColorIndex
 90
       18
102
RTVSPost2010Prop41ColorRGB
 90
        0
102
RTVSPost2010PropOp41
 70
     1
102
RTVSPost2010Prop42
 90
       50
102
RTVSPost2010PropOp42
 70
     1
102
RTVSPost2010Prop43
 90
        3
102
RTVSPost2010PropOp43
 70
     1
102
RTVSPost2010Prop44ColorIndex
 90
        5
102
RTVSPost2010Prop44ColorRGB
 90
      255
102
RTVSPost2010PropOp44
 70
     1
102
RTVSPost2010Prop45
280
     0
102
RTVSPost2010PropOp45
 70
     1
102
RTVSPost2010Prop46
 90
       50
102
RTVSPost2010PropOp46
 70
     1
102
RTVSPost2010Prop47
 90
       50
102
RTVSPost2010PropOp47
 70
     1
102
RTVSPost2010Prop48
 90
       50
102
RTVSPost2010PropOp48
 70
     1
102
RTVSPost2010Prop49
280
     0
102
RTVSPost2010PropOp49
 70
     1
102
RTVSPost2010Prop50
 90
       50
102
RTVSPost2010PropOp50
 70
     1
102
RTVSPost2010Prop51ColorIndex
 90
      256
102
RTVSPost2010Prop51ColorRGB
 90
-16777216
102
RTVSPost2010PropOp51
 70
     0
102
RTVSPost2010Prop52
140
1.0
102
RTVSPost2010PropOp52
 70
     0
102
RTVSPost2010Prop53
 90
        2
102
RTVSPost2010PropOp53
 70
     1
102
RTVSPost2010Prop54
  1
strokes_ogs.tif
102
RTVSPost2010PropOp54
 70
     1
102
RTVSPost2010Prop55
280
     0
102
RTVSPost2010PropOp55
 70
     1
102
RTVSPost2010Prop56
140
1.0
102
RTVSPost2010PropOp56
 70
     1
102
RTVSPost2010Prop57
140
1.0
102
RTVSPost2010PropOp57
 70
     1
  0
XRECORD
  5
2BE
102
{ACAD_REACTORS
330
2BD
102
}
330
2BD
100
AcDbXrecord
280
     1
102
RTVSPost2010Prop28
280
     0
102
RTVSPost2010PropOp28
 70
     1
102
RTVSPost2010Prop29
280
     1
102
RTVSPost2010PropOp29
 70
     1
102
RTVSPost2010Prop30
280
     1
102
RTVSPost2010PropOp30
 70
     1
102
RTVSPost2010Prop31
280
     0
102
RTVSPost2010PropOp31
 70
     1
102
RTVSPost2010Prop32
280
     0
102
RTVSPost2010PropOp32
 70
     1
102
RTVSPost2010Prop33
280
     0
102
RTVSPost2010PropOp33
 70
     1
102
RTVSPost2010Prop34
280
     0
102
RTVSPost2010PropOp34
 70
     1
102
RTVSPost2010Prop35
280
     0
102
RTVSPost2010PropOp35
 70
     1
102
RTVSPost2010Prop36
280
     0
102
RTVSPost2010PropOp36
 70
     1
102
RTVSPost2010Prop37
 90
       50
102
RTVSPost2010PropOp37
 70
     1
102
RTVSPost2010Prop38
140
0.0
102
RTVSPost2010PropOp38
 70
     1
102
RTVSPost2010Prop39
140
1.0
102
RTVSPost2010PropOp39
 70
     1
102
RTVSPost2010Prop40
 90
        0
102
RTVSPost2010PropOp40
 70
     1
102
RTVSPost2010Prop41ColorIndex
 90
       18
102
RTVSPost2010Prop41ColorRGB
 90
        0
102
RTVSPost2010PropOp41
 70
     1
102
RTVSPost2010Prop42
 90
       50
102
RTVSPost2010PropOp42
 70
     1
102
RTVSPost2010Prop43
 90
        3
102
RTVSPost2010PropOp43
 70
     1
102
RTVSPost2010Prop44ColorIndex
 90
        5
102
RTVSPost2010Prop44ColorRGB
 90
      255
102
RTVSPost2010PropOp44
 70
     1
102
RTVSPost2010Prop45
280
     0
102
RTVSPost2010PropOp45
 70
     1
102
RTVSPost2010Prop46
 90
       50
102
RTVSPost2010PropOp46
 70
     1
102
RTVSPost2010Prop47
 90
       50
102
RTVSPost2010PropOp47
 70
     1
102
RTVSPost2010Prop48
 90
       50
102
RTVSPost2010PropOp48
 70
     1
102
RTVSPost2010Prop49
280
     0
102
RTVSPost2010PropOp49
 70
     1
102
RTVSPost2010Prop50
 90
       50
102
RTVSPost2010PropOp50
 70
     1
102
RTVSPost2010Prop51ColorIndex
 90
      256
102
RTVSPost2010Prop51ColorRGB
 90
-16777216
102
RTVSPost2010PropOp51
 70
     0
102
RTVSPost2010Prop52
140
1.0
102
RTVSPost2010PropOp52
 70
     0
102
RTVSPost2010Prop53
 90
        2
102
RTVSPost2010PropOp53
 70
     1
102
RTVSPost2010Prop54
  1
strokes_ogs.tif
102
RTVSPost2010PropOp54
 70
     1
102
RTVSPost2010Prop55
280
     0
102
RTVSPost2010PropOp55
 70
     1
102
RTVSPost2010Prop56
140
1.0
102
RTVSPost2010PropOp56
 70
     1
102
RTVSPost2010Prop57
140
1.0
102
RTVSPost2010PropOp57
 70
     1
  0
XRECORD
  5
2B4
102
{ACAD_REACTORS
330
2B3
102
}
330
2B3
100
AcDbXrecord
280
     1
102
RTVSPost2010Prop28
280
     0
102
RTVSPost2010PropOp28
 70
     1
102
RTVSPost2010Prop29
280
     1
102
RTVSPost2010PropOp29
 70
     1
102
RTVSPost2010Prop30
280
     1
102
RTVSPost2010PropOp30
 70
     1
102
RTVSPost2010Prop31
280
     0
102
RTVSPost2010PropOp31
 70
     1
102
RTVSPost2010Prop32
280
     0
102
RTVSPost2010PropOp32
 70
     1
102
RTVSPost2010Prop33
280
     0
102
RTVSPost2010PropOp33
 70
     1
102
RTVSPost2010Prop34
280
     0
102
RTVSPost2010PropOp34
 70
     1
102
RTVSPost2010Prop35
280
     0
102
RTVSPost2010PropOp35
 70
     1
102
RTVSPost2010Prop36
280
     0
102
RTVSPost2010PropOp36
 70
     1
102
RTVSPost2010Prop37
 90
       50
102
RTVSPost2010PropOp37
 70
     1
102
RTVSPost2010Prop38
140
0.0
102
RTVSPost2010PropOp38
 70
     1
102
RTVSPost2010Prop39
140
1.0
102
RTVSPost2010PropOp39
 70
     1
102
RTVSPost2010Prop40
 90
        0
102
RTVSPost2010PropOp40
 70
     1
102
RTVSPost2010Prop41ColorIndex
 90
       18
102
RTVSPost2010Prop41ColorRGB
 90
        0
102
RTVSPost2010PropOp41
 70
     1
102
RTVSPost2010Prop42
 90
       50
102
RTVSPost2010PropOp42
 70
     1
102
RTVSPost2010Prop43
 90
        3
102
RTVSPost2010PropOp43
 70
     1
102
RTVSPost2010Prop44ColorIndex
 90
        5
102
RTVSPost2010Prop44ColorRGB
 90
      255
102
RTVSPost2010PropOp44
 70
     1
102
RTVSPost2010Prop45
280
     0
102
RTVSPost2010PropOp45
 70
     1
102
RTVSPost2010Prop46
 90
       50
102
RTVSPost2010PropOp46
 70
     1
102
RTVSPost2010Prop47
 90
       50
102
RTVSPost2010PropOp47
 70
     1
102
RTVSPost2010Prop48
 90
       50
102
RTVSPost2010PropOp48
 70
     1
102
RTVSPost2010Prop49
280
     0
102
RTVSPost2010PropOp49
 70
     1
102
RTVSPost2010Prop50
 90
       50
102
RTVSPost2010PropOp50
 70
     1
102
RTVSPost2010Prop51ColorIndex
 90
      256
102
RTVSPost2010Prop51ColorRGB
 90
-16777216
102
RTVSPost2010PropOp51
 70
     0
102
RTVSPost2010Prop52
140
1.0
102
RTVSPost2010PropOp52
 70
     0
102
RTVSPost2010Prop53
 90
        2
102
RTVSPost2010PropOp53
 70
     1
102
RTVSPost2010Prop54
  1
strokes_ogs.tif
102
RTVSPost2010PropOp54
 70
     1
102
RTVSPost2010Prop55
280
     0
102
RTVSPost2010PropOp55
 70
     1
102
RTVSPost2010Prop56
140
1.0
102
RTVSPost2010PropOp56
 70
     1
102
RTVSPost2010Prop57
140
1.0
102
RTVSPost2010PropOp57
 70
     1
  0
XRECORD
  5
2A8
102
{ACAD_REACTORS
330
2A7
102
}
330
2A7
100
AcDbXrecord
280
     1
102
RTVSPost2010Prop28
280
     0
102
RTVSPost2010PropOp28
 70
     1
102
RTVSPost2010Prop29
280
     1
102
RTVSPost2010PropOp29
 70
     1
102
RTVSPost2010Prop30
280
     1
102
RTVSPost2010PropOp30
 70
     1
102
RTVSPost2010Prop31
280
     0
102
RTVSPost2010PropOp31
 70
     1
102
RTVSPost2010Prop32
280
     0
102
RTVSPost2010PropOp32
 70
     1
102
RTVSPost2010Prop33
280
     0
102
RTVSPost2010PropOp33
 70
     1
102
RTVSPost2010Prop34
280
     0
102
RTVSPost2010PropOp34
 70
     1
102
RTVSPost2010Prop35
280
     0
102
RTVSPost2010PropOp35
 70
     1
102
RTVSPost2010Prop36
280
     0
102
RTVSPost2010PropOp36
 70
     1
102
RTVSPost2010Prop37
 90
       50
102
RTVSPost2010PropOp37
 70
     1
102
RTVSPost2010Prop38
140
0.0
102
RTVSPost2010PropOp38
 70
     1
102
RTVSPost2010Prop39
140
1.0
102
RTVSPost2010PropOp39
 70
     1
102
RTVSPost2010Prop40
 90
        0
102
RTVSPost2010PropOp40
 70
     1
102
RTVSPost2010Prop41ColorIndex
 90
       18
102
RTVSPost2010Prop41ColorRGB
 90
        0
102
RTVSPost2010PropOp41
 70
     1
102
RTVSPost2010Prop42
 90
       50
102
RTVSPost2010PropOp42
 70
     1
102
RTVSPost2010Prop43
 90
        3
102
RTVSPost2010PropOp43
 70
     1
102
RTVSPost2010Prop44ColorIndex
 90
        5
102
RTVSPost2010Prop44ColorRGB
 90
      255
102
RTVSPost2010PropOp44
 70
     1
102
RTVSPost2010Prop45
280
     0
102
RTVSPost2010PropOp45
 70
     1
102
RTVSPost2010Prop46
 90
       50
102
RTVSPost2010PropOp46
 70
     1
102
RTVSPost2010Prop47
 90
       50
102
RTVSPost2010PropOp47
 70
     1
102
RTVSPost2010Prop48
 90
       50
102
RTVSPost2010PropOp48
 70
     1
102
RTVSPost2010Prop49
280
     0
102
RTVSPost2010PropOp49
 70
     1
102
RTVSPost2010Prop50
 90
       50
102
RTVSPost2010PropOp50
 70
     1
102
RTVSPost2010Prop51ColorIndex
 90
      256
102
RTVSPost2010Prop51ColorRGB
 90
-16777216
102
RTVSPost2010PropOp51
 70
     0
102
RTVSPost2010Prop52
140
1.0
102
RTVSPost2010PropOp52
 70
     0
102
RTVSPost2010Prop53
 90
        2
102
RTVSPost2010PropOp53
 70
     1
102
RTVSPost2010Prop54
  1
strokes_ogs.tif
102
RTVSPost2010PropOp54
 70
     1
102
RTVSPost2010Prop55
280
     0
102
RTVSPost2010PropOp55
 70
     1
102
RTVSPost2010Prop56
140
1.0
102
RTVSPost2010PropOp56
 70
     1
102
RTVSPost2010Prop57
140
1.0
102
RTVSPost2010PropOp57
 70
     1
  0
XRECORD
  5
2C0
102
{ACAD_REACTORS
330
2BF
102
}
330
2BF
100
AcDbXrecord
280
     1
102
RTVSPost2010Prop28
280
     0
102
RTVSPost2010PropOp28
 70
     1
102
RTVSPost2010Prop29
280
     1
102
RTVSPost2010PropOp29
 70
     1
102
RTVSPost2010Prop30
280
     1
102
RTVSPost2010PropOp30
 70
     1
102
RTVSPost2010Prop31
280
     0
102
RTVSPost2010PropOp31
 70
     1
102
RTVSPost2010Prop32
280
     0
102
RTVSPost2010PropOp32
 70
     1
102
RTVSPost2010Prop33
280
     0
102
RTVSPost2010PropOp33
 70
     1
102
RTVSPost2010Prop34
280
     0
102
RTVSPost2010PropOp34
 70
     1
102
RTVSPost2010Prop35
280
     0
102
RTVSPost2010PropOp35
 70
     1
102
RTVSPost2010Prop36
280
     0
102
RTVSPost2010PropOp36
 70
     1
102
RTVSPost2010Prop37
 90
       50
102
RTVSPost2010PropOp37
 70
     1
102
RTVSPost2010Prop38
140
0.0
102
RTVSPost2010PropOp38
 70
     1
102
RTVSPost2010Prop39
140
1.0
102
RTVSPost2010PropOp39
 70
     1
102
RTVSPost2010Prop40
 90
        0
102
RTVSPost2010PropOp40
 70
     1
102
RTVSPost2010Prop41ColorIndex
 90
       18
102
RTVSPost2010Prop41ColorRGB
 90
        0
102
RTVSPost2010PropOp41
 70
     1
102
RTVSPost2010Prop42
 90
       50
102
RTVSPost2010PropOp42
 70
     1
102
RTVSPost2010Prop43
 90
        3
102
RTVSPost2010PropOp43
 70
     1
102
RTVSPost2010Prop44ColorIndex
 90
        5
102
RTVSPost2010Prop44ColorRGB
 90
      255
102
RTVSPost2010PropOp44
 70
     1
102
RTVSPost2010Prop45
280
     0
102
RTVSPost2010PropOp45
 70
     1
102
RTVSPost2010Prop46
 90
       50
102
RTVSPost2010PropOp46
 70
     1
102
RTVSPost2010Prop47
 90
       50
102
RTVSPost2010PropOp47
 70
     1
102
RTVSPost2010Prop48
 90
       50
102
RTVSPost2010PropOp48
 70
     1
102
RTVSPost2010Prop49
280
     0
102
RTVSPost2010PropOp49
 70
     1
102
RTVSPost2010Prop50
 90
       50
102
RTVSPost2010PropOp50
 70
     1
102
RTVSPost2010Prop51ColorIndex
 90
      256
102
RTVSPost2010Prop51ColorRGB
 90
-16777216
102
RTVSPost2010PropOp51
 70
     0
102
RTVSPost2010Prop52
140
1.0
102
RTVSPost2010PropOp52
 70
     0
102
RTVSPost2010Prop53
 90
        2
102
RTVSPost2010PropOp53
 70
     1
102
RTVSPost2010Prop54
  1
strokes_ogs.tif
102
RTVSPost2010PropOp54
 70
     1
102
RTVSPost2010Prop55
280
     0
102
RTVSPost2010PropOp55
 70
     1
102
RTVSPost2010Prop56
140
1.0
102
RTVSPost2010PropOp56
 70
     1
102
RTVSPost2010Prop57
140
1.0
102
RTVSPost2010PropOp57
 70
     1
  0
ENDSEC
  0
EOF
