  0
SECTION
  2
HEADER
  9
$ACADVER
  1
AC1015
  9
$ACADMAINTVER
 70
     6
  9
$DWGCODEPAGE
  3
ANSI_949
  9
$INSBASE
 10
0.0
 20
0.0
 30
0.0
  9
$EXTMIN
 10
1.000000000000000E+20
 20
1.000000000000000E+20
 30
1.000000000000000E+20
  9
$EXTMAX
 10
-1.000000000000000E+20
 20
-1.000000000000000E+20
 30
-1.000000000000000E+20
  9
$LIMMIN
 10
0.0
 20
0.0
  9
$LIMMAX
 10
12.0
 20
9.0
  9
$ORTHOMODE
 70
     0
  9
$REGENMODE
 70
     1
  9
$FILLMODE
 70
     1
  9
$QTEXTMODE
 70
     0
  9
$MIRRTEXT
 70
     1
  9
$LTSCALE
 40
1.0
  9
$ATTMODE
 70
     1
  9
$TEXTSIZE
 40
0.2
  9
$TRACEWID
 40
0.05
  9
$TEXTSTYLE
  7
Standard
  9
$CLAYER
  8
0
  9
$CELTYPE
  6
ByLayer
  9
$CECOLOR
 62
   256
  9
$CELTSCALE
 40
1.0
  9
$DISPSILH
 70
     0
  9
$DIMSCALE
 40
1.0
  9
$DIMASZ
 40
0.18
  9
$DIMEXO
 40
0.0625
  9
$DIMDLI
 40
0.38
  9
$DIMRND
 40
0.0
  9
$DIMDLE
 40
0.0
  9
$DIMEXE
 40
0.18
  9
$DIMTP
 40
0.0
  9
$DIMTM
 40
0.0
  9
$DIMTXT
 40
0.18
  9
$DIMCEN
 40
0.09
  9
$DIMTSZ
 40
0.0
  9
$DIMTOL
 70
     0
  9
$DIMLIM
 70
     0
  9
$DIMTIH
 70
     1
  9
$DIMTOH
 70
     1
  9
$DIMSE1
 70
     0
  9
$DIMSE2
 70
     0
  9
$DIMTAD
 70
     0
  9
$DIMZIN
 70
     0
  9
$DIMBLK
  1

  9
$DIMASO
 70
     1
  9
$DIMSHO
 70
     1
  9
$DIMPOST
  1

  9
$DIMAPOST
  1

  9
$DIMALT
 70
     0
  9
$DIMALTD
 70
     2
  9
$DIMALTF
 40
25.4
  9
$DIMLFAC
 40
1.0
  9
$DIMTOFL
 70
     0
  9
$DIMTVP
 40
0.0
  9
$DIMTIX
 70
     0
  9
$DIMSOXD
 70
     0
  9
$DIMSAH
 70
     0
  9
$DIMBLK1
  1

  9
$DIMBLK2
  1

  9
$DIMSTYLE
  2
Standard
  9
$DIMCLRD
 70
     0
  9
$DIMCLRE
 70
     0
  9
$DIMCLRT
 70
     0
  9
$DIMTFAC
 40
1.0
  9
$DIMGAP
 40
0.09
  9
$DIMJUST
 70
     0
  9
$DIMSD1
 70
     0
  9
$DIMSD2
 70
     0
  9
$DIMTOLJ
 70
     1
  9
$DIMTZIN
 70
     0
  9
$DIMALTZ
 70
     0
  9
$DIMALTTZ
 70
     0
  9
$DIMUPT
 70
     0
  9
$DIMDEC
 70
     4
  9
$DIMTDEC
 70
     4
  9
$DIMALTU
 70
     2
  9
$DIMALTTD
 70
     2
  9
$DIMTXSTY
  7
Standard
  9
$DIMAUNIT
 70
     0
  9
$DIMADEC
 70
     0
  9
$DIMALTRND
 40
0.0
  9
$DIMAZIN
 70
     0
  9
$DIMDSEP
 70
    46
  9
$DIMATFIT
 70
     3
  9
$DIMFRAC
 70
     0
  9
$DIMLDRBLK
  1

  9
$DIMLUNIT
 70
     2
  9
$DIMLWD
 70
    -2
  9
$DIMLWE
 70
    -2
  9
$DIMTMOVE
 70
     0
  9
$LUNITS
 70
     2
  9
$LUPREC
 70
     4
  9
$SKETCHINC
 40
0.1
  9
$FILLETRAD
 40
0.5
  9
$AUNITS
 70
     0
  9
$AUPREC
 70
     0
  9
$MENU
  1
.
  9
$ELEVATION
 40
0.0
  9
$PELEVATION
 40
0.0
  9
$THICKNESS
 40
0.0
  9
$LIMCHECK
 70
     0
  9
$CHAMFERA
 40
0.5
  9
$CHAMFERB
 40
0.5
  9
$CHAMFERC
 40
1.0
  9
$CHAMFERD
 40
0.0
  9
$SKPOLY
 70
     0
  9
$TDCREATE
 40
2456522.538483808
  9
$TDUCREATE
 40
2456522.038483808
  9
$TDUPDATE
 40
2456522.538519687
  9
$TDUUPDATE
 40
2456522.038519687
  9
$TDINDWG
 40
0.0000000116
  9
$TDUSRTIMER
 40
0.0000000116
  9
$USRTIMER
 70
     1
  9
$ANGBASE
 50
0.0
  9
$ANGDIR
 70
     0
  9
$PDMODE
 70
     0
  9
$PDSIZE
 40
0.0
  9
$PLINEWID
 40
0.0
  9
$SPLFRAME
 70
     0
  9
$SPLINETYPE
 70
     6
  9
$SPLINESEGS
 70
     8
  9
$HANDSEED
  5
29C
  9
$SURFTAB1
 70
     6
  9
$SURFTAB2
 70
     6
  9
$SURFTYPE
 70
     6
  9
$SURFU
 70
     6
  9
$SURFV
 70
     6
  9
$UCSBASE
  2

  9
$UCSNAME
  2

  9
$UCSORG
 10
0.0
 20
0.0
 30
0.0
  9
$UCSXDIR
 10
1.0
 20
0.0
 30
0.0
  9
$UCSYDIR
 10
0.0
 20
1.0
 30
0.0
  9
$UCSORTHOREF
  2

  9
$UCSORTHOVIEW
 70
     0
  9
$UCSORGTOP
 10
0.0
 20
0.0
 30
0.0
  9
$UCSORGBOTTOM
 10
0.0
 20
0.0
 30
0.0
  9
$UCSORGLEFT
 10
0.0
 20
0.0
 30
0.0
  9
$UCSORGRIGHT
 10
0.0
 20
0.0
 30
0.0
  9
$UCSORGFRONT
 10
0.0
 20
0.0
 30
0.0
  9
$UCSORGBACK
 10
0.0
 20
0.0
 30
0.0
  9
$PUCSBASE
  2

  9
$PUCSNAME
  2

  9
$PUCSORG
 10
0.0
 20
0.0
 30
0.0
  9
$PUCSXDIR
 10
1.0
 20
0.0
 30
0.0
  9
$PUCSYDIR
 10
0.0
 20
1.0
 30
0.0
  9
$PUCSORTHOREF
  2

  9
$PUCSORTHOVIEW
 70
     0
  9
$PUCSORGTOP
 10
0.0
 20
0.0
 30
0.0
  9
$PUCSORGBOTTOM
 10
0.0
 20
0.0
 30
0.0
  9
$PUCSORGLEFT
 10
0.0
 20
0.0
 30
0.0
  9
$PUCSORGRIGHT
 10
0.0
 20
0.0
 30
0.0
  9
$PUCSORGFRONT
 10
0.0
 20
0.0
 30
0.0
  9
$PUCSORGBACK
 10
0.0
 20
0.0
 30
0.0
  9
$USERI1
 70
     0
  9
$USERI2
 70
     0
  9
$USERI3
 70
     0
  9
$USERI4
 70
     0
  9
$USERI5
 70
     0
  9
$USERR1
 40
0.0
  9
$USERR2
 40
0.0
  9
$USERR3
 40
0.0
  9
$USERR4
 40
0.0
  9
$USERR5
 40
0.0
  9
$WORLDVIEW
 70
     1
  9
$SHADEDGE
 70
     3
  9
$SHADEDIF
 70
    70
  9
$TILEMODE
 70
     1
  9
$MAXACTVP
 70
    64
  9
$PINSBASE
 10
0.0
 20
0.0
 30
0.0
  9
$PLIMCHECK
 70
     0
  9
$PEXTMIN
 10
1.000000000000000E+20
 20
1.000000000000000E+20
 30
1.000000000000000E+20
  9
$PEXTMAX
 10
-1.000000000000000E+20
 20
-1.000000000000000E+20
 30
-1.000000000000000E+20
  9
$PLIMMIN
 10
0.0
 20
0.0
  9
$PLIMMAX
 10
12.0
 20
9.0
  9
$UNITMODE
 70
     0
  9
$VISRETAIN
 70
     1
  9
$PLINEGEN
 70
     0
  9
$PSLTSCALE
 70
     1
  9
$TREEDEPTH
 70
  3020
  9
$CMLSTYLE
  2
Standard
  9
$CMLJUST
 70
     0
  9
$CMLSCALE
 40
1.0
  9
$PROXYGRAPHICS
 70
     1
  9
$MEASUREMENT
 70
     0
  9
$CELWEIGHT
370
    -1
  9
$ENDCAPS
280
     0
  9
$JOINSTYLE
280
     0
  9
$LWDISPLAY
290
     1
  9
$INSUNITS
 70
     4
  9
$HYPERLINKBASE
  1

  9
$STYLESHEET
  1

  9
$XEDIT
290
     1
  9
$CEPSNTYPE
380
     0
  9
$PSTYLEMODE
290
     1
  9
$FINGERPRINTGUID
  2
{563EA673-D147-4905-9CDC-E9FAAD9F1F14}
  9
$VERSIONGUID
  2
{FAEB1C32-E019-11D5-929B-00C0DF256EC4}
  9
$EXTNAMES
290
     1
  9
$PSVPSCALE
 40
0.0
  9
$OLESTARTUP
290
     0
  0
ENDSEC
  0
SECTION
  2
CLASSES
  0
CLASS
  1
ACDBDICTIONARYWDFLT
  2
AcDbDictionaryWithDefault
  3
ObjectDBX Classes
 90
        0
280
     0
281
     0
  0
CLASS
  1
VISUALSTYLE
  2
AcDbVisualStyle
  3
ObjectDBX Classes
 90
     4095
280
     0
281
     0
  0
CLASS
  1
MATERIAL
  2
AcDbMaterial
  3
ObjectDBX Classes
 90
     1153
280
     0
281
     0
  0
CLASS
  1
SPATIAL_FILTER
  2
AcDbSpatialFilter
  3
ObjectDBX Classes
 90
        0
280
     0
281
     0
  0
CLASS
  1
SCALE
  2
AcDbScale
  3
ObjectDBX Classes
 90
     1153
280
     0
281
     0
  0
CLASS
  1
DICTIONARYVAR
  2
AcDbDictionaryVar
  3
ObjectDBX Classes
 90
        0
280
     0
281
     0
  0
CLASS
  1
ACDBPLACEHOLDER
  2
AcDbPlaceHolder
  3
ObjectDBX Classes
 90
        0
280
     0
281
     0
  0
CLASS
  1
LAYOUT
  2
AcDbLayout
  3
ObjectDBX Classes
 90
        0
280
     0
281
     0
  0
ENDSEC
  0
SECTION
  2
TABLES
  0
TABLE
  2
VPORT
  5
8
330
0
100
AcDbSymbolTable
 70
     1
  0
VPORT
  5
29
330
8
100
AcDbSymbolTableRecord
100
AcDbViewportTableRecord
  2
*Active
 70
     0
 10
0.0
 20
0.0
 11
1.0
 21
1.0
 12
148.6203422501967
 22
97.79696374944321
 13
0.0
 23
0.0
 14
0.5
 24
0.5
 15
0.5
 25
0.5
 16
0.0
 26
0.0
 36
1.0
 17
0.0
 27
0.0
 37
0.0
 40
195.3708939354756
 41
1.478754032228925
 42
50.0
 43
0.0
 44
0.0
 50
0.0
 51
0.0
 71
     0
 72
   100
 73
     1
 74
     3
 75
     0
 76
     0
 77
     0
 78
     0
281
     0
 65
     1
110
0.0
120
0.0
130
0.0
111
1.0
121
0.0
131
0.0
112
0.0
122
1.0
132
0.0
 79
     0
146
0.0
  0
ENDTAB
  0
TABLE
  2
LTYPE
  5
5
330
0
100
AcDbSymbolTable
 70
     2
  0
LTYPE
  5
14
330
5
100
AcDbSymbolTableRecord
100
AcDbLinetypeTableRecord
  2
ByBlock
 70
     0
  3

 72
    65
 73
     0
 40
0.0
  0
LTYPE
  5
15
330
5
100
AcDbSymbolTableRecord
100
AcDbLinetypeTableRecord
  2
ByLayer
 70
     0
  3

 72
    65
 73
     0
 40
0.0
  0
LTYPE
  5
16
330
5
100
AcDbSymbolTableRecord
100
AcDbLinetypeTableRecord
  2
Continuous
 70
     0
  3
Solid line
 72
    65
 73
     0
 40
0.0
  0
LTYPE
  5
188
330
5
100
AcDbSymbolTableRecord
100
AcDbLinetypeTableRecord
  2
Contour Line
 70
     0
  3
- - - - - 
 72
    65
 73
     2
 40
2.0
 49
1.0
 74
     0
 49
-1.0
 74
     0
  0
ENDTAB
  0
TABLE
  2
LAYER
  5
2
330
0
100
AcDbSymbolTable
 70
     5
  0
LAYER
  5
10
330
2
100
AcDbSymbolTableRecord
100
AcDbLayerTableRecord
  2
0
 70
     0
 62
     7
  6
Continuous
370
    -3
390
F
  0
LAYER
  5
40
330
2
100
AcDbSymbolTableRecord
100
AcDbLayerTableRecord
  2
Doc_ Finishes
 70
     0
 62
     7
  6
Continuous
370
    -3
390
F
  0
LAYER
  5
DB
330
2
100
AcDbSymbolTableRecord
100
AcDbLayerTableRecord
  2
Doc_ Floor
 70
     0
 62
     7
  6
Continuous
370
    -3
390
F
  0
LAYER
  5
E7
330
2
100
AcDbSymbolTableRecord
100
AcDbLayerTableRecord
  2
Des_ Roofs
 70
     0
 62
     7
  6
Continuous
370
    -3
390
F
  0
LAYER
  5
10C
330
2
100
AcDbSymbolTableRecord
100
AcDbLayerTableRecord
  2
Des_ Roof Beams
 70
     0
 62
     7
  6
Continuous
370
    -3
390
F
  0
ENDTAB
  0
TABLE
  2
STYLE
  5
3
330
0
100
AcDbSymbolTable
 70
     4
  0
STYLE
  5
11
330
3
100
AcDbSymbolTableRecord
100
AcDbTextStyleTableRecord
  2
Standard
 70
     0
 40
0.0
 41
1.0
 50
0.0
 71
     0
 42
0.2
  3
txt
  4

  0
STYLE
  5
D6
330
3
100
AcDbSymbolTableRecord
100
AcDbTextStyleTableRecord
  2
GENERATED_STYLE_1
 70
     0
 40
0.0
 41
1.0
 50
0.0
 71
     0
 42
0.2
  3

  4

1001
ACAD
1000
Century Gothic
1071
       34
  0
STYLE
  5
D9
330
3
100
AcDbSymbolTableRecord
100
AcDbTextStyleTableRecord
  2
GENERATED_STYLE_2
 70
     0
 40
0.0
 41
1.0
 50
0.0
 71
     0
 42
0.2
  3

  4

1001
ACAD
1000
DilleniaUPC
1071
 33554450
  0
STYLE
  5
18C
330
3
100
AcDbSymbolTableRecord
100
AcDbTextStyleTableRecord
  2
GENERATED_STYLE_3
 70
     0
 40
0.0
 41
1.0
 50
0.0
 71
     0
 42
0.2
  3

  4

1001
ACAD
1000
Arial
1071
       34
  0
ENDTAB
  0
TABLE
  2
VIEW
  5
6
330
0
100
AcDbSymbolTable
 70
     0
  0
ENDTAB
  0
TABLE
  2
UCS
  5
7
330
0
100
AcDbSymbolTable
 70
     0
  0
ENDTAB
  0
TABLE
  2
APPID
  5
9
330
0
100
AcDbSymbolTable
 70
     1
  0
APPID
  5
12
330
9
100
AcDbSymbolTableRecord
100
AcDbRegAppTableRecord
  2
ACAD
 70
     0
  0
ENDTAB
  0
TABLE
  2
DIMSTYLE
  5
A
330
0
100
AcDbSymbolTable
 70
     1
100
AcDbDimStyleTable
  0
DIMSTYLE
105
27
330
A
100
AcDbSymbolTableRecord
100
AcDbDimStyleTableRecord
  2
Standard
 70
     0
178
     0
340
11
  0
ENDTAB
  0
TABLE
  2
BLOCK_RECORD
  5
1
330
0
100
AcDbSymbolTable
 70
     3
  0
BLOCK_RECORD
  5
1F
330
1
100
AcDbSymbolTableRecord
100
AcDbBlockTableRecord
  2
*Model_Space
340
22
  0
BLOCK_RECORD
  5
1B
330
1
100
AcDbSymbolTableRecord
100
AcDbBlockTableRecord
  2
*Paper_Space
340
1E
  0
BLOCK_RECORD
  5
E3
330
1
100
AcDbSymbolTableRecord
100
AcDbBlockTableRecord
  2
Drawing_1_2
340
0
102
{BLKREFS
331
23F
102
}
  0
BLOCK_RECORD
  5
246
330
1
100
AcDbSymbolTableRecord
100
AcDbBlockTableRecord
  2
R-TRS5-10 APRON DETAIL - KICKOU_STORY_MARKER
340
0
  0
ENDTAB
  0
ENDSEC
  0
SECTION
  2
BLOCKS
  0
BLOCK
  5
20
330
1F
100
AcDbEntity
  8
0
100
AcDbBlockBegin
  2
*Model_Space
 70
     0
 10
0.0
 20
0.0
 30
0.0
  3
*Model_Space
  1

  0
ENDBLK
  5
21
330
1F
100
AcDbEntity
  8
0
100
AcDbBlockEnd
  0
BLOCK
  5
1C
330
1B
100
AcDbEntity
 67
     1
  8
0
100
AcDbBlockBegin
  2
*Paper_Space
 70
     0
 10
0.0
 20
0.0
 30
0.0
  3
*Paper_Space
  1

  0
ENDBLK
  5
1D
330
1B
100
AcDbEntity
 67
     1
  8
0
100
AcDbBlockEnd
  0
BLOCK
  5
E4
330
E3
100
AcDbEntity
  8
0
100
AcDbBlockBegin
  2
Drawing_1_2
 70
     0
 10
180.1182711515631
 20
104.2792165591143
 30
0.0
  3
Drawing_1_2
  1

  0
HATCH
  5
E6
330
E3
100
AcDbEntity
  8
Des_ Roofs
  6
Continuous
 62
   255
 48
0.999999999999998
370
    18
100
AcDbHatch
 10
0.0
 20
0.0
 30
0.0
210
0.0
220
0.0
230
1.0
  2
SOLID
 70
     1
 71
     0
 91
        1
 92
        3
 72
     0
 73
     1
 93
        3
 10
191.4619308073973
 20
71.48374816235156
 10
193.7734069925838
 20
74.34191361474421
 10
191.4913815792389
 20
74.81804386888726
 97
        0
 75
     0
 76
     1
 98
        0
  0
HATCH
  5
E8
330
E3
100
AcDbEntity
  8
Des_ Roofs
  6
Continuous
 62
   255
 48
0.999999999999998
370
    18
100
AcDbHatch
 10
0.0
 20
0.0
 30
0.0
210
0.0
220
0.0
230
1.0
  2
SOLID
 70
     1
 71
     0
 91
        1
 92
        3
 72
     0
 73
     1
 93
        4
 10
198.4535775053407
 20
88.155661569718
 10
199.6983388930212
 20
81.66815138439532
 10
235.218079708612
 20
125.5886697185319
 10
230.0615950728562
 20
126.1587836205646
 97
        0
 75
     0
 76
     1
 98
        0
  0
HATCH
  5
E9
330
E3
100
AcDbEntity
  8
Des_ Roofs
  6
Continuous
 62
   255
 48
0.999999999999998
370
    18
100
AcDbHatch
 10
0.0
 20
0.0
 30
0.0
210
0.0
220
0.0
230
1.0
  2
SOLID
 70
     1
 71
     0
 91
        1
 92
        3
 72
     0
 73
     1
 93
        5
 10
191.4619305150271
 20
71.48374898064236
 10
191.3241350728478
 20
55.88318572561724
 10
192.503112286004
 20
56.6406749652525
 10
234.6408457473952
 20
111.5676422193938
 10
235.2180786106836
 20
125.5886698937156
 97
        0
 75
     0
 76
     1
 98
        0
  0
HATCH
  5
EA
330
E3
100
AcDbEntity
  8
Des_ Roofs
  6
Continuous
 62
   255
 48
0.999999999999998
370
    18
100
AcDbHatch
 10
0.0
 20
0.0
 30
0.0
210
0.0
220
0.0
230
1.0
  2
SOLID
 70
     1
 71
     0
 91
        1
 92
        3
 72
     0
 73
     1
 93
        6
 10
131.9579769137065
 20
90.31156828191885
 10
132.6182859730323
 20
90.17779720746732
 10
132.5417716008293
 20
92.27665305022337
 10
113.425289643916
 20
96.07103260180585
 10
112.8562132913908
 20
95.3487053408478
 10
131.9128122541479
 20
91.53361345545844
 97
        0
 75
     0
 76
     1
 98
        0
  0
HATCH
  5
EB
330
E3
100
AcDbEntity
  8
Des_ Roofs
  6
Continuous
 62
   255
 48
0.999999999999998
370
    18
100
AcDbHatch
 10
0.0
 20
0.0
 30
0.0
210
0.0
220
0.0
230
1.0
  2
SOLID
 70
     1
 71
     0
 91
        1
 92
        3
 72
     0
 73
     1
 93
        4
 10
187.8962340558584
 20
143.4845770744959
 10
170.4783240049851
 20
145.0187865798276
 10
113.425289643916
 20
96.07103260180585
 10
132.5417716008293
 20
92.27665305022337
 97
        0
 75
     0
 76
     1
 98
        0
  0
HATCH
  5
EC
330
E3
100
AcDbEntity
  8
Des_ Roofs
  6
Continuous
 62
   255
 48
0.999999999999998
370
    18
100
AcDbHatch
 10
0.0
 20
0.0
 30
0.0
210
0.0
220
0.0
230
1.0
  2
SOLID
 70
     1
 71
     0
 91
        1
 92
        3
 72
     0
 73
     1
 93
        4
 10
187.8860247896556
 20
141.7043488218388
 10
187.8962340558584
 20
143.4845770744959
 10
132.5417716008293
 20
92.27665305022337
 10
132.6182859730323
 20
90.17779720746732
 97
        0
 75
     0
 76
     1
 98
        0
  0
HATCH
  5
ED
330
E3
100
AcDbEntity
  8
Des_ Roofs
  6
Continuous
 62
   255
 48
0.999999999999998
370
    18
100
AcDbHatch
 10
0.0
 20
0.0
 30
0.0
210
0.0
220
0.0
230
1.0
  2
SOLID
 70
     1
 71
     0
 91
        1
 92
        3
 72
     0
 73
     1
 93
        4
 10
170.2820494662871
 20
172.6644703154242
 10
169.7087576172132
 20
172.6859429634966
 10
111.1396628579164
 20
128.7327996854281
 10
111.7652247121281
 20
128.6500413659272
 97
        0
 75
     0
 76
     1
 98
        0
  0
HATCH
  5
EE
330
E3
100
AcDbEntity
  8
Des_ Roofs
  6
Continuous
 62
   255
 48
0.999999999999998
370
    18
100
AcDbHatch
 10
0.0
 20
0.0
 30
0.0
210
0.0
220
0.0
230
1.0
  2
SOLID
 70
     1
 71
     0
 91
        1
 92
        3
 72
     0
 73
     1
 93
        4
 10
112.8562132913908
 20
95.3487053408478
 10
113.425289643916
 20
96.07103260180585
 10
111.7652247121281
 20
128.6500413659272
 10
111.1396628579164
 20
128.7327996854281
 97
        0
 75
     0
 76
     1
 98
        0
  0
HATCH
  5
EF
330
E3
100
AcDbEntity
  8
Des_ Roofs
  6
Continuous
 62
   255
 48
0.999999999999998
370
    18
100
AcDbHatch
 10
0.0
 20
0.0
 30
0.0
210
0.0
220
0.0
230
1.0
  2
SOLID
 70
     1
 71
     0
 91
        1
 92
        3
 72
     0
 73
     1
 93
        4
 10
170.4783240049851
 20
145.0187865798276
 10
170.2820494662871
 20
172.6644703154242
 10
111.7652247121281
 20
128.6500413659272
 10
113.425289643916
 20
96.07103260180585
 97
        0
 75
     0
 76
     1
 98
        0
  0
HATCH
  5
F0
330
E3
100
AcDbEntity
  8
Des_ Roofs
  6
Continuous
 62
   255
 48
0.999999999999998
370
    18
100
AcDbHatch
 10
0.0
 20
0.0
 30
0.0
210
0.0
220
0.0
230
1.0
  2
SOLID
 70
     1
 71
     0
 91
        1
 92
        3
 72
     0
 73
     1
 93
        7
 10
118.5326770400644
 20
72.41335095869269
 10
118.7052601033948
 20
68.81177976356337
 10
189.6169773027815
 20
50.97528416896662
 10
189.7919268130722
 20
74.25185646677083
 10
189.507078597854
 20
74.31175168257093
 10
189.4404202517737
 20
65.17353999171172
 10
177.4071715106525
 20
58.02867338484271
 97
        0
 75
     0
 76
     1
 98
        0
  0
HATCH
  5
F1
330
E3
100
AcDbEntity
  8
Des_ Roofs
  6
Continuous
 62
   255
 48
0.999999999999998
370
    18
100
AcDbHatch
 10
0.0
 20
0.0
 30
0.0
210
0.0
220
0.0
230
1.0
  2
SOLID
 70
     1
 71
     0
 91
        1
 92
        3
 72
     0
 73
     1
 93
        4
 10
189.5070787095563
 20
74.31175361160463
 10
189.7919273918015
 20
74.25185779396195
 10
191.494690670167
 20
75.19268152326553
 10
189.516505546042
 20
75.60410761405508
 97
        0
 75
     0
 76
     1
 98
        0
  0
HATCH
  5
F2
330
E3
100
AcDbEntity
  8
Des_ Roofs
  6
Continuous
 62
   255
 48
0.999999999999998
370
    18
100
AcDbHatch
 10
0.0
 20
0.0
 30
0.0
210
0.0
220
0.0
230
1.0
  2
SOLID
 70
     1
 71
     0
 91
        1
 92
        3
 72
     0
 73
     1
 93
        4
 10
176.0888758941835
 20
70.20705705139879
 10
176.081827462963
 20
72.45134009955198
 10
101.5931871929255
 20
88.74679374112867
 10
101.7118160154561
 20
86.78054868886015
 97
        0
 75
     0
 76
     1
 98
        0
  0
HATCH
  5
F3
330
E3
100
AcDbEntity
  8
Des_ Roofs
  6
Continuous
 62
   255
 48
0.999999999999998
370
    18
100
AcDbHatch
 10
0.0
 20
0.0
 30
0.0
210
0.0
220
0.0
230
1.0
  2
SOLID
 70
     1
 71
     0
 91
        1
 92
        3
 72
     0
 73
     1
 93
        4
 10
176.081827462963
 20
72.45134009955198
 10
177.374948326584
 20
73.13318981784425
 10
103.0768955772213
 20
89.25728920363136
 10
101.5931871929255
 20
88.74679374112867
 97
        0
 75
     0
 76
     1
 98
        0
  0
HATCH
  5
F4
330
E3
100
AcDbEntity
  8
Des_ Roofs
  6
Continuous
 62
   255
 48
0.999999999999998
370
    18
100
AcDbHatch
 10
0.0
 20
0.0
 30
0.0
210
0.0
220
0.0
230
1.0
  2
SOLID
 70
     1
 71
     0
 91
        1
 92
        3
 72
     0
 73
     1
 93
        3
 10
177.3797116873064
 20
70.90038345660281
 10
176.0857999326843
 20
71.18641014427773
 10
176.0888761684793
 20
70.20705705139879
 97
        0
 75
     0
 76
     1
 98
        0
  0
HATCH
  5
F5
330
E3
100
AcDbEntity
  8
Des_ Roofs
  6
Continuous
 62
   255
 48
0.999999999999998
370
    18
100
AcDbHatch
 10
0.0
 20
0.0
 30
0.0
210
0.0
220
0.0
230
1.0
  2
SOLID
 70
     1
 71
     0
 91
        1
 92
        3
 72
     0
 73
     1
 93
        5
 10
176.0888757726482
 20
70.20705686944683
 10
103.2436394808788
 20
86.43921056938007
 10
103.8614446410155
 20
75.99794196796414
 10
177.407171578803
 20
58.02867230461528
 10
177.3797116416385
 20
70.9003839064721
 97
        0
 75
     0
 76
     1
 98
        0
  0
HATCH
  5
F6
330
E3
100
AcDbEntity
  8
Des_ Roofs
  6
Continuous
 62
   255
 48
0.999999999999998
370
    18
100
AcDbHatch
 10
0.0
 20
0.0
 30
0.0
210
0.0
220
0.0
230
1.0
  2
SOLID
 70
     1
 71
     0
 91
        1
 92
        3
 72
     0
 73
     1
 93
        3
 10
189.4404197940059
 20
65.17354018117719
 10
177.3861049169716
 20
67.90353642523793
 10
177.4071717872761
 20
58.02867230461528
 97
        0
 75
     0
 76
     1
 98
        0
  0
HATCH
  5
F7
330
E3
100
AcDbEntity
  8
Des_ Roofs
  6
Continuous
 62
   255
 48
0.999999999999998
370
    18
100
AcDbHatch
 10
0.0
 20
0.0
 30
0.0
210
0.0
220
0.0
230
1.0
  2
SOLID
 70
     1
 71
     0
 91
        1
 92
        3
 72
     0
 73
     1
 93
       10
 10
187.4347533006801
 20
74.90744841061245
 10
117.3686726026579
 20
89.62051000586631
 10
117.5373696239858
 20
86.11908906775096
 10
177.3749478066042
 20
73.13319130920505
 10
176.0818275677581
 20
72.45133985038493
 10
176.0857993949353
 20
71.18641148591298
 10
177.3797118865427
 20
70.90038359118303
 10
177.3861062466081
 20
67.90353787343473
 10
189.4404203914463
 20
65.17354049134363
 10
189.5297988268643
 20
77.4263738120107
 97
        0
 75
     0
 76
     1
 98
        0
  0
HATCH
  5
F8
330
E3
100
AcDbEntity
  8
Des_ Roofs
  6
Continuous
 62
   255
 48
0.999999999999998
370
    18
100
AcDbHatch
 10
0.0
 20
0.0
 30
0.0
210
0.0
220
0.0
230
1.0
  2
SOLID
 70
     1
 71
     0
 91
        1
 92
        3
 72
     0
 73
     1
 93
        6
 10
189.529798038528
 20
77.42637444264084
 10
189.5165055714724
 20
75.60410676682413
 10
191.4946904740963
 20
75.19268071697637
 10
191.4913812942422
 20
74.81804409507316
 10
193.773408222965
 20
74.34191376749229
 10
192.4226656737624
 20
80.9045414460785
 97
        0
 75
     0
 76
     1
 98
        0
  0
HATCH
  5
F9
330
E3
100
AcDbEntity
  8
Des_ Roofs
  6
Continuous
 62
   255
 48
0.999999999999998
370
    18
100
AcDbHatch
 10
0.0
 20
0.0
 30
0.0
210
0.0
220
0.0
230
1.0
  2
SOLID
 70
     1
 71
     0
 91
        1
 92
        3
 72
     0
 73
     1
 93
        4
 10
114.6263808984253
 20
94.99432121880346
 10
113.528518106224
 20
94.04516641869363
 10
115.465270215871
 20
93.65280211051716
 10
116.5607905504465
 20
94.60705613811183
 97
        0
 75
     0
 76
     1
 98
        0
  0
HATCH
  5
FA
330
E3
100
AcDbEntity
  8
Des_ Roofs
  6
Continuous
 62
   255
 48
0.999999999999998
370
    18
100
AcDbHatch
 10
0.0
 20
0.0
 30
0.0
210
0.0
220
0.0
230
1.0
  2
SOLID
 70
     1
 71
     0
 91
        1
 92
        3
 72
     0
 73
     1
 93
       14
 10
187.4347527753091
 20
74.9074478925336
 10
187.4023094997802
 20
75.05650696873829
 10
170.7406864181554
 20
78.55104343414114
 10
167.3352825550792
 20
83.144530180579
 10
162.6224893427618
 20
84.09928826359464
 10
161.3684360673567
 20
80.51673851998606
 10
143.4202291314306
 20
84.28111749548702
 10
140.0988579530556
 20
88.66231875514724
 10
135.8453203453919
 20
89.52403689752494
 10
134.9548805583324
 20
86.05660294105938
 10
118.7027597532784
 20
89.46525217740108
 10
115.465270102237
 20
93.65280232925682
 10
113.5285177603965
 20
94.04516623530277
 10
114.8768330673279
 20
90.14376834612106
 97
        0
 75
     0
 76
     1
 98
        0
  0
HATCH
  5
FB
330
E3
100
AcDbEntity
  8
Des_ Roofs
  6
Continuous
 62
   255
 48
0.999999999999998
370
    18
100
AcDbHatch
 10
0.0
 20
0.0
 30
0.0
210
0.0
220
0.0
230
1.0
  2
SOLID
 70
     1
 71
     0
 91
        1
 92
        3
 72
     0
 73
     1
 93
        4
 10
116.5607911601954
 20
94.60705656815547
 10
115.4652702172279
 20
93.65280224014779
 10
118.7027596561097
 20
89.46525217740108
 10
123.0126555742392
 20
93.31540637634323
 97
        0
 75
     0
 76
     1
 98
        0
  0
HATCH
  5
FC
330
E3
100
AcDbEntity
  8
Des_ Roofs
  6
Continuous
 62
   255
 48
0.999999999999998
370
    18
100
AcDbHatch
 10
0.0
 20
0.0
 30
0.0
210
0.0
220
0.0
230
1.0
  2
SOLID
 70
     1
 71
     0
 91
        1
 92
        3
 72
     0
 73
     1
 93
        9
 10
118.7027601512684
 20
89.46525343361003
 10
134.9548804730512
 20
86.05660323395067
 10
135.8453207199121
 20
89.52403670624206
 10
186.815705655788
 20
137.6717858261266
 10
183.8719661824416
 20
137.9620100598071
 10
132.6182864033031
 20
90.17779595171743
 10
131.9579779560416
 20
90.31156803740679
 10
131.9128124518091
 20
91.53361310857063
 10
123.0126565544332
 20
93.31540447088938
 97
        0
 75
     0
 76
     1
 98
        0
  0
HATCH
  5
FD
330
E3
100
AcDbEntity
  8
Des_ Roofs
  6
Continuous
 62
   255
 48
0.999999999999998
370
    18
100
AcDbHatch
 10
0.0
 20
0.0
 30
0.0
210
0.0
220
0.0
230
1.0
  2
SOLID
 70
     1
 71
     0
 91
        1
 92
        3
 72
     0
 73
     1
 93
        4
 10
194.6372924299075
 20
141.0883354453831
 10
190.8029227541124
 20
141.4381990763971
 10
135.8453203453919
 20
89.52403689752494
 10
140.0988579530556
 20
88.66231875514724
 97
        0
 75
     0
 76
     1
 98
        0
  0
HATCH
  5
FE
330
E3
100
AcDbEntity
  8
Des_ Roofs
  6
Continuous
 62
   255
 48
0.999999999999998
370
    18
100
AcDbHatch
 10
0.0
 20
0.0
 30
0.0
210
0.0
220
0.0
230
1.0
  2
SOLID
 70
     1
 71
     0
 91
        1
 92
        3
 72
     0
 73
     1
 93
        4
 10
196.5229993023561
 20
136.7147448157872
 10
194.6372924299075
 20
141.0883354453831
 10
140.0988579530556
 20
88.66231875514724
 10
143.4202291314306
 20
84.28111749548702
 97
        0
 75
     0
 76
     1
 98
        0
  0
HATCH
  5
FF
330
E3
100
AcDbEntity
  8
Des_ Roofs
  6
Continuous
 62
   255
 48
0.999999999999998
370
    18
100
AcDbHatch
 10
0.0
 20
0.0
 30
0.0
210
0.0
220
0.0
230
1.0
  2
SOLID
 70
     1
 71
     0
 91
        1
 92
        3
 72
     0
 73
     1
 93
        5
 10
196.5229993760821
 20
136.714745016869
 10
143.4202292099598
 20
84.28111772125143
 10
161.3684362387749
 20
80.51673895926585
 10
162.6224889509243
 20
84.0992885375156
 10
210.9986914093674
 20
135.2875870070225
 97
        0
 75
     0
 76
     1
 98
        0
  0
HATCH
  5
100
330
E3
100
AcDbEntity
  8
Des_ Roofs
  6
Continuous
 62
   255
 48
0.999999999999998
370
    18
100
AcDbHatch
 10
0.0
 20
0.0
 30
0.0
210
0.0
220
0.0
230
1.0
  2
SOLID
 70
     1
 71
     0
 91
        1
 92
        3
 72
     0
 73
     1
 93
        4
 10
218.9133979264527
 20
138.8732839156583
 10
214.7467033713911
 20
139.2534702329982
 10
162.6224893427618
 20
84.09928826359464
 10
167.3352825550792
 20
83.144530180579
 97
        0
 75
     0
 76
     1
 98
        0
  0
HATCH
  5
101
330
E3
100
AcDbEntity
  8
Des_ Roofs
  6
Continuous
 62
   255
 48
0.999999999999998
370
    18
100
AcDbHatch
 10
0.0
 20
0.0
 30
0.0
210
0.0
220
0.0
230
1.0
  2
SOLID
 70
     1
 71
     0
 91
        1
 92
        3
 72
     0
 73
     1
 93
        4
 10
220.8866802825179
 20
134.3127313777077
 10
218.9133979264527
 20
138.8732839156583
 10
167.3352825550792
 20
83.144530180579
 10
170.7406864181554
 20
78.55104343414114
 97
        0
 75
     0
 76
     1
 98
        0
  0
HATCH
  5
102
330
E3
100
AcDbEntity
  8
Des_ Roofs
  6
Continuous
 62
   255
 48
0.999999999999998
370
    18
100
AcDbHatch
 10
0.0
 20
0.0
 30
0.0
210
0.0
220
0.0
230
1.0
  2
SOLID
 70
     1
 71
     0
 91
        1
 92
        3
 72
     0
 73
     1
 93
        4
 10
235.5178550791022
 20
132.8702449773603
 10
220.8866802825179
 20
134.3127313777077
 10
170.7406864181554
 20
78.55104343414114
 10
187.4023094997802
 20
75.05650696873829
 97
        0
 75
     0
 76
     1
 98
        0
  0
HATCH
  5
103
330
E3
100
AcDbEntity
  8
Des_ Roofs
  6
Continuous
 62
   255
 48
0.999999999999998
370
    18
100
AcDbHatch
 10
0.0
 20
0.0
 30
0.0
210
0.0
220
0.0
230
1.0
  2
SOLID
 70
     1
 71
     0
 91
        1
 92
        3
 72
     0
 73
     1
 93
        3
 10
192.5031122280209
 20
56.64067551557683
 10
226.1648527440908
 20
78.2682344461705
 10
211.2752911921902
 20
81.11040300729533
 97
        0
 75
     0
 76
     1
 98
        0
  0
HATCH
  5
104
330
E3
100
AcDbEntity
  8
Des_ Roofs
  6
Continuous
 62
   255
 48
0.999999999999998
370
    18
100
AcDbHatch
 10
0.0
 20
0.0
 30
0.0
210
0.0
220
0.0
230
1.0
  2
SOLID
 70
     1
 71
     0
 91
        1
 92
        3
 72
     0
 73
     1
 93
        4
 10
189.7919268130722
 20
74.25185763757722
 10
189.6169753310307
 20
50.97528416896662
 10
191.2905435413423
 20
52.08017269004891
 10
191.494690670167
 20
75.19268081111277
 97
        0
 75
     0
 76
     1
 98
        0
  0
HATCH
  5
105
330
E3
100
AcDbEntity
  8
Des_ Roofs
  6
Continuous
 62
   255
 48
0.999999999999998
370
    18
100
AcDbHatch
 10
0.0
 20
0.0
 30
0.0
210
0.0
220
0.0
230
1.0
  2
Wood_0002
 70
     0
 71
     0
 91
        1
 92
        3
 72
     0
 73
     1
 93
        4
 10
189.7919268130722
 20
74.25185763757722
 10
189.6169753310307
 20
50.97528416896662
 10
191.2905435413423
 20
52.08017269004891
 10
191.494690670167
 20
75.19268081111277
 97
        0
 75
     0
 76
     2
 52
0.0
 41
1.0
 77
     0
 78
     1
 53
47.48584846409718
 43
180.1182711515631
 44
104.2792165591143
 45
-0.2691161692994589
 46
5.235533326441558
 79
     0
 98
        0
  0
HATCH
  5
106
330
E3
100
AcDbEntity
  8
Des_ Roofs
  6
Continuous
 62
   255
 48
0.999999999999998
370
    18
100
AcDbHatch
 10
0.0
 20
0.0
 30
0.0
210
0.0
220
0.0
230
1.0
  2
SOLID
 70
     1
 71
     0
 91
        1
 92
        3
 72
     0
 73
     1
 93
        4
 10
192.4226654236951
 20
80.90454211445439
 10
193.7734073946869
 20
74.34191328885898
 10
199.6983390851315
 20
81.66815139516704
 10
198.4535776734064
 20
88.15566128097744
 97
        0
 75
     0
 76
     1
 98
        0
  0
HATCH
  5
107
330
E3
100
AcDbEntity
  8
Des_ Roofs
  6
Continuous
 62
   255
 48
0.999999999999998
370
    18
100
AcDbHatch
 10
0.0
 20
0.0
 30
0.0
210
0.0
220
0.0
230
1.0
  2
SOLID
 70
     1
 71
     0
 91
        1
 92
        3
 72
     0
 73
     1
 93
        4
 10
187.4023094997802
 20
75.05650696873829
 10
187.4347527753091
 20
74.9074478925336
 10
235.5113035264649
 20
132.711107468034
 10
235.5178550791022
 20
132.8702449773603
 97
        0
 75
     0
 76
     1
 98
        0
  0
HATCH
  5
108
330
E3
100
AcDbEntity
  8
Des_ Roofs
  6
Continuous
 62
   255
 48
0.999999999999998
370
    18
100
AcDbHatch
 10
0.0
 20
0.0
 30
0.0
210
0.0
220
0.0
230
1.0
  2
Steel_0002
 70
     0
 71
     0
 91
        1
 92
        3
 72
     0
 73
     1
 93
        4
 10
187.4023094997802
 20
75.05650696873829
 10
187.4347527753091
 20
74.9074478925336
 10
235.5113035264649
 20
132.711107468034
 10
235.5178550791022
 20
132.8702449773603
 97
        0
 75
     0
 76
     2
 52
0.0
 41
1.0
 77
     0
 78
     2
 53
74.24850124638489
 43
180.1182711515631
 44
104.2792165591143
 45
-3.160887458787152
 46
8.110115895819797
 79
     0
 53
74.24850124638489
 43
179.064641998634
 44
106.9825885243875
 45
-3.160887458787152
 46
8.110115895819797
 79
     0
 98
        0
  0
HATCH
  5
109
330
E3
100
AcDbEntity
  8
Des_ Roofs
  6
Continuous
 62
   255
 48
0.999999999999998
370
    18
100
AcDbHatch
 10
0.0
 20
0.0
 30
0.0
210
0.0
220
0.0
230
1.0
  2
SOLID
 70
     1
 71
     0
 91
        1
 92
        3
 72
     0
 73
     1
 93
        4
 10
191.3241346223867
 20
55.88318543827508
 10
191.3151777368236
 20
54.86913203714293
 10
226.1340471825363
 20
77.40451438293324
 10
226.1648523235056
 20
78.26823048901873
 97
        0
 75
     0
 76
     1
 98
        0
  0
HATCH
  5
10A
330
E3
100
AcDbEntity
  8
Des_ Roofs
  6
Continuous
 62
   255
 48
0.999999999999998
370
    18
100
AcDbHatch
 10
0.0
 20
0.0
 30
0.0
210
0.0
220
0.0
230
1.0
  2
Plaster_0002
 70
     0
 71
     0
 91
        1
 92
        3
 72
     0
 73
     1
 93
        4
 10
191.3241346223867
 20
55.88318543827508
 10
191.3151777368236
 20
54.86913203714293
 10
226.1340471825363
 20
77.40451438293324
 10
226.1648523235056
 20
78.26823048901873
 97
        0
 75
     0
 76
     2
 52
0.0
 41
1.0
 77
     0
 78
     2
 53
32.72060973372193
 43
180.1182711515631
 44
104.2792165591143
 45
0.089573194771574
 46
10.14102526695616
 79
     2
 49
0.0
 49
-2.301859600781034
 53
32.72060973372193
 43
181.1313538631949
 44
109.9718561296163
 45
0.089573194771574
 46
10.14102526695616
 79
     2
 49
0.0
 49
-2.301859600781034
 98
        0
  0
HATCH
  5
10B
330
E3
100
AcDbEntity
  8
Des_ Roof Beams
  6
Continuous
 62
    31
 48
0.999999999999998
370
     0
100
AcDbHatch
 10
0.0
 20
0.0
 30
0.0
210
0.0
220
0.0
230
1.0
  2
SOLID
 70
     1
 71
     0
 91
        1
 92
        3
 72
     0
 73
     1
 93
        4
 10
97.35401419888326
 20
75.58486970795431
 10
97.24949389801888
 20
77.21191428689485
 10
93.621764941471
 20
78.10135095906269
 10
93.73002457904438
 20
76.4856645504149
 97
        0
 75
     0
 76
     1
 98
        0
  0
HATCH
  5
10D
330
E3
100
AcDbEntity
  8
Des_ Roof Beams
  6
Continuous
 62
    31
 48
0.999999999999998
370
     0
100
AcDbHatch
 10
0.0
 20
0.0
 30
0.0
210
0.0
220
0.0
230
1.0
  2
SOLID
 70
     1
 71
     0
 91
        1
 92
        3
 72
     0
 73
     1
 93
        4
 10
93.621764941471
 20
78.10135040271848
 10
97.24949446327861
 20
77.21191451585035
 10
103.6470185497826
 20
79.62187984411962
 10
103.5205940859045
 20
81.75852707007107
 97
        0
 75
     0
 76
     1
 98
        0
  0
HATCH
  5
10E
330
E3
100
AcDbEntity
  8
Des_ Roof Beams
  6
Continuous
 62
    21
 48
0.999999999999998
370
     0
100
AcDbHatch
 10
0.0
 20
0.0
 30
0.0
210
0.0
220
0.0
230
1.0
  2
SOLID
 70
     1
 71
     0
 91
        1
 92
        3
 72
     0
 73
     1
 93
        4
 10
97.24949389801888
 20
77.21191454146746
 10
97.35401368656314
 20
75.58486972666142
 10
103.741465751829
 20
78.0256519487212
 10
103.6470175118477
 20
79.62188011825621
 97
        0
 75
     0
 76
     1
 98
        0
  0
LINE
  5
10F
330
E3
100
AcDbEntity
  8
Des_ Roofs
  6
Continuous
 48
0.999999999999998
100
AcDbLine
 10
235.2180774819848
 20
125.5886717868797
 30
0.0
 11
230.0615952660125
 21
126.1587840259935
 31
0.0
  0
LINE
  5
110
330
E3
100
AcDbEntity
  8
Des_ Roofs
  6
Continuous
 48
0.999999999999998
100
AcDbLine
 10
235.2180774819848
 20
125.5886717868797
 30
0.0
 11
199.6983373185835
 21
81.66815336725375
 31
0.0
  0
LINE
  5
111
330
E3
100
AcDbEntity
  8
Des_ Roofs
  6
Continuous
 48
0.999999999999998
100
AcDbLine
 10
193.7734062191667
 20
74.34191329624637
 30
0.0
 11
191.4619287926573
 21
71.48374794041045
 31
0.0
  0
LINE
  5
112
330
E3
100
AcDbEntity
  8
Des_ Roofs
  6
Continuous
 48
0.999999999999998
100
AcDbLine
 10
235.2180774819848
 20
125.5886717868797
 30
0.0
 11
234.6408438864307
 21
111.5676407804491
 31
0.0
  0
LINE
  5
113
330
E3
100
AcDbEntity
  8
Des_ Roofs
  6
Continuous
 48
0.999999999999998
100
AcDbLine
 10
234.6408438864307
 20
111.5676407804491
 30
0.0
 11
191.3171708867579
 21
55.0947889186921
 31
0.0
  0
LINE
  5
114
330
E3
100
AcDbEntity
  8
Des_ Roofs
  6
Continuous
 48
0.999999999999998
100
AcDbLine
 10
191.3241340833241
 20
55.88318675679381
 30
0.0
 11
191.4619287926573
 21
71.48374794041045
 31
0.0
  0
LINE
  5
115
330
E3
100
AcDbEntity
  8
Des_ Roofs
  6
Continuous
 48
0.999999999999998
100
AcDbLine
 10
191.3241340833241
 20
55.88318675679381
 30
0.0
 11
192.5031118928291
 21
56.6406768257981
 31
0.0
  0
LINE
  5
116
330
E3
100
AcDbEntity
  8
Des_ Roofs
  6
Continuous
 48
0.999999999999998
100
AcDbLine
 10
192.5031118928291
 20
56.6406768257981
 30
0.0
 11
234.6408438864307
 21
111.5676407804491
 31
0.0
  0
LINE
  5
117
330
E3
100
AcDbEntity
  8
Des_ Roofs
  6
Continuous
 48
0.999999999999998
100
AcDbLine
 10
234.6408438864307
 20
111.5676407804491
 30
0.0
 11
235.2180774819848
 21
125.5886717868797
 31
0.0
  0
LINE
  5
118
330
E3
100
AcDbEntity
  8
Des_ Roofs
  6
Continuous
 48
0.999999999999998
100
AcDbLine
 10
191.4619287926573
 20
71.48374794041045
 30
0.0
 11
235.2180774819848
 21
125.5886717868797
 31
0.0
  0
LINE
  5
119
330
E3
100
AcDbEntity
  8
Des_ Roofs
  6
Continuous
 48
0.999999999999998
100
AcDbLine
 10
170.2820491315351
 20
172.664471372305
 30
0.0
 11
169.7087570465297
 21
172.6859436562767
 31
0.0
  0
LINE
  5
11A
330
E3
100
AcDbEntity
  8
Des_ Roofs
  6
Continuous
 48
0.999999999999998
100
AcDbLine
 10
111.1396625365203
 20
128.7327985194471
 30
0.0
 11
169.7087570465297
 21
172.6859436562767
 31
0.0
  0
LINE
  5
11B
330
E3
100
AcDbEntity
  8
Des_ Roofs
  6
Continuous
 48
0.999999999999998
100
AcDbLine
 10
111.765226459944
 20
128.6500434463304
 30
0.0
 11
111.1396625365203
 21
128.7327985194471
 31
0.0
  0
LINE
  5
11C
330
E3
100
AcDbEntity
  8
Des_ Roofs
  6
Continuous
 48
0.999999999999998
100
AcDbLine
 10
170.2820491315351
 20
172.664471372305
 30
0.0
 11
111.765226459944
 21
128.6500434463304
 31
0.0
  0
LINE
  5
11D
330
E3
100
AcDbEntity
  8
Des_ Roofs
  6
Continuous
 48
0.999999999999998
100
AcDbLine
 10
170.4783255353994
 20
145.0187871388667
 30
0.0
 11
170.2820491315351
 21
172.664471372305
 31
0.0
  0
LINE
  5
11E
330
E3
100
AcDbEntity
  8
Des_ Roofs
  6
Continuous
 48
0.999999999999998
100
AcDbLine
 10
111.1396625365203
 20
128.7327985194471
 30
0.0
 11
112.8562132720765
 21
95.34870362348025
 31
0.0
  0
LINE
  5
11F
330
E3
100
AcDbEntity
  8
Des_ Roofs
  6
Continuous
 48
0.999999999999998
100
AcDbLine
 10
113.4252891478042
 20
96.0710322551919
 30
0.0
 11
111.765226459944
 21
128.6500434463304
 31
0.0
  0
LINE
  5
120
330
E3
100
AcDbEntity
  8
Des_ Roofs
  6
Continuous
 48
0.999999999999998
100
AcDbLine
 10
191.2905417584674
 20
52.08017431257293
 30
0.0
 11
191.3171708867579
 21
55.0947889186921
 31
0.0
  0
LINE
  5
121
330
E3
100
AcDbEntity
  8
Des_ Roofs
  6
Continuous
 48
0.999999999999998
100
AcDbLine
 10
191.4619287926573
 20
71.48374794041045
 30
0.0
 11
191.4946886971235
 21
75.1926802321026
 31
0.0
  0
LINE
  5
122
330
E3
100
AcDbEntity
  8
Des_ Roofs
  6
Continuous
 48
0.999999999999998
100
AcDbLine
 10
113.4252891478042
 20
96.0710322551919
 30
0.0
 11
112.8562132720765
 21
95.34870362348025
 31
0.0
  0
LINE
  5
123
330
E3
100
AcDbEntity
  8
Des_ Roofs
  6
Continuous
 48
0.999999999999998
100
AcDbLine
 10
170.4783255353994
 20
145.0187871388667
 30
0.0
 11
113.4252891478042
 21
96.0710322551919
 31
0.0
  0
LINE
  5
124
330
E3
100
AcDbEntity
  8
Des_ Roofs
  6
Continuous
 48
0.999999999999998
100
AcDbLine
 10
187.896235239652
 20
143.4845780898387
 30
0.0
 11
170.4783255353994
 21
145.0187871388667
 31
0.0
  0
LINE
  5
125
330
E3
100
AcDbEntity
  8
Des_ Roofs
  6
Continuous
 48
0.999999999999998
100
AcDbLine
 10
187.8860256035631
 20
141.7043471944131
 30
0.0
 11
187.896235239652
 21
143.4845780898387
 31
0.0
  0
LINE
  5
126
330
E3
100
AcDbEntity
  8
Des_ Roofs
  6
Continuous
 48
0.999999999999998
100
AcDbLine
 10
112.8562132720765
 20
95.34870362348025
 30
0.0
 11
131.9128132706644
 21
91.53361275939392
 31
0.0
  0
LINE
  5
127
330
E3
100
AcDbEntity
  8
Des_ Roofs
  6
Continuous
 48
0.999999999999998
100
AcDbLine
 10
131.9579762389483
 20
90.31156968098885
 30
0.0
 11
132.6182853894694
 21
90.17779556214148
 31
0.0
  0
LINE
  5
128
330
E3
100
AcDbEntity
  8
Des_ Roofs
  6
Continuous
 48
0.999999999999998
100
AcDbLine
 10
132.6182853894694
 20
90.17779556214148
 30
0.0
 11
132.5417734692811
 21
92.27665201041998
 31
0.0
  0
LINE
  5
129
330
E3
100
AcDbEntity
  8
Des_ Roofs
  6
Continuous
 48
0.999999999999998
100
AcDbLine
 10
132.5417734692811
 20
92.27665201041998
 30
0.0
 11
113.4252891478042
 21
96.0710322551919
 31
0.0
  0
LINE
  5
12A
330
E3
100
AcDbEntity
  8
Des_ Roofs
  6
Continuous
 48
0.999999999999998
100
AcDbLine
 10
131.9128132706644
 20
91.53361275939392
 30
0.0
 11
131.9579762389483
 21
90.31156968098885
 31
0.0
  0
LINE
  5
12B
330
E3
100
AcDbEntity
  8
Des_ Roofs
  6
Continuous
 48
0.999999999999998
100
AcDbLine
 10
187.896235239652
 20
143.4845780898387
 30
0.0
 11
132.5417734692811
 21
92.27665201041998
 31
0.0
  0
LINE
  5
12C
330
E3
100
AcDbEntity
  8
Des_ Roofs
  6
Continuous
 48
0.999999999999998
100
AcDbLine
 10
187.8860256035631
 20
141.7043471944131
 30
0.0
 11
132.6182853894694
 21
90.17779556214148
 31
0.0
  0
LINE
  5
12D
330
E3
100
AcDbEntity
  8
Des_ Roofs
  6
Continuous
 48
0.999999999999998
100
AcDbLine
 10
176.0888764259547
 20
70.20705646337231
 30
0.0
 11
176.0818258252476
 21
72.45134091596451
 31
0.0
  0
LINE
  5
12E
330
E3
100
AcDbEntity
  8
Des_ Roofs
  6
Continuous
 48
0.999999999999998
100
AcDbLine
 10
176.0818258252476
 20
72.45134091596451
 30
0.0
 11
101.5931866380008
 21
88.74679415522354
 31
0.0
  0
LINE
  5
12F
330
E3
100
AcDbEntity
  8
Des_ Roofs
  6
Continuous
 48
0.999999999999998
100
AcDbLine
 10
101.711814867844
 20
86.78055059934775
 30
0.0
 11
101.5931866380008
 21
88.74679415522354
 31
0.0
  0
LINE
  5
130
330
E3
100
AcDbEntity
  8
Des_ Roofs
  6
Continuous
 48
0.999999999999998
100
AcDbLine
 10
176.0888764259547
 20
70.20705646337231
 30
0.0
 11
101.711814867844
 21
86.78055059934775
 31
0.0
  0
LINE
  5
131
330
E3
100
AcDbEntity
  8
Des_ Roofs
  6
Continuous
 48
0.999999999999998
100
AcDbLine
 10
176.0818258252476
 20
72.45134091596451
 30
0.0
 11
177.3749492807933
 21
73.13318894408852
 31
0.0
  0
LINE
  5
132
330
E3
100
AcDbEntity
  8
Des_ Roofs
  6
Continuous
 48
0.999999999999998
100
AcDbLine
 10
177.3749492807933
 20
73.13318894408852
 30
0.0
 11
103.0768969040421
 21
89.25728844597329
 31
0.0
  0
LINE
  5
133
330
E3
100
AcDbEntity
  8
Des_ Roofs
  6
Continuous
 48
0.999999999999998
100
AcDbLine
 10
101.5931866380008
 20
88.74679415522354
 30
0.0
 11
103.0768969040421
 21
89.25728844597329
 31
0.0
  0
LINE
  5
134
330
E3
100
AcDbEntity
  8
Des_ Roofs
  6
Continuous
 48
0.999999999999998
100
AcDbLine
 10
177.3797107254266
 20
70.90038356868065
 30
0.0
 11
176.0888764259547
 21
70.20705646337231
 31
0.0
  0
LINE
  5
135
330
E3
100
AcDbEntity
  8
Des_ Roofs
  6
Continuous
 48
0.999999999999998
100
AcDbLine
 10
177.3797107254266
 20
70.90038356868065
 30
0.0
 11
176.085800632612
 21
71.18641153904342
 31
0.0
  0
LINE
  5
136
330
E3
100
AcDbEntity
  8
Des_ Roofs
  6
Continuous
 48
0.999999999999998
100
AcDbLine
 10
177.4071722741076
 20
58.0286712332434
 30
0.0
 11
177.3797107254266
 21
70.90038356868065
 31
0.0
  0
LINE
  5
137
330
E3
100
AcDbEntity
  8
Des_ Roofs
  6
Continuous
 48
0.999999999999998
100
AcDbLine
 10
103.861444797838
 20
75.99794290731485
 30
0.0
 11
103.2436390324533
 21
86.43921245614148
 31
0.0
  0
LINE
  5
138
330
E3
100
AcDbEntity
  8
Des_ Roofs
  6
Continuous
 48
0.999999999999998
100
AcDbLine
 10
177.4071722741076
 20
58.0286712332434
 30
0.0
 11
103.861444797838
 21
75.99794290731485
 31
0.0
  0
LINE
  5
139
330
E3
100
AcDbEntity
  8
Des_ Roofs
  6
Continuous
 48
0.999999999999998
100
AcDbLine
 10
189.4404208470595
 20
65.17353938747745
 30
0.0
 11
177.4071722741076
 21
58.0286712332434
 31
0.0
  0
LINE
  5
13A
330
E3
100
AcDbEntity
  8
Des_ Roofs
  6
Continuous
 48
0.999999999999998
100
AcDbLine
 10
189.4404208470595
 20
65.17353938747745
 30
0.0
 11
177.3861037140253
 21
67.90353697579565
 31
0.0
  0
LINE
  5
13B
330
E3
100
AcDbEntity
  8
Des_ Roofs
  6
Continuous
 48
0.999999999999998
100
AcDbLine
 10
189.5297978243822
 20
77.42637629732826
 30
0.0
 11
189.4404208470595
 21
65.17353938747745
 31
0.0
  0
LINE
  5
13C
330
E3
100
AcDbEntity
  8
Des_ Roofs
  6
Continuous
 48
0.999999999999998
100
AcDbLine
 10
117.3686726424668
 20
89.6205109212445
 30
0.0
 11
117.5373709587955
 21
86.11908854658586
 31
0.0
  0
LINE
  5
13D
330
E3
100
AcDbEntity
  8
Des_ Roofs
  6
Continuous
 48
0.999999999999998
100
AcDbLine
 10
183.6214152423275
 20
74.25289425969156
 30
0.0
 11
189.5297978243822
 21
77.42637629732826
 31
0.0
  0
LINE
  5
13E
330
E3
100
AcDbEntity
  8
Des_ Roofs
  6
Continuous
 48
0.999999999999998
100
AcDbLine
 10
177.3749492807933
 20
73.13318894408852
 30
0.0
 11
183.6214152423275
 21
74.25289425969156
 31
0.0
  0
LINE
  5
13F
330
E3
100
AcDbEntity
  8
Des_ Roofs
  6
Continuous
 48
0.999999999999998
100
AcDbLine
 10
189.6169772118741
 20
50.9752860799199
 30
0.0
 11
189.7919270053351
 21
74.25185789630545
 31
0.0
  0
LINE
  5
140
330
E3
100
AcDbEntity
  8
Des_ Roofs
  6
Continuous
 48
0.999999999999998
100
AcDbLine
 10
189.7919270053351
 20
74.25185789630545
 30
0.0
 11
189.5070769098249
 21
74.31175470550033
 31
0.0
  0
LINE
  5
141
330
E3
100
AcDbEntity
  8
Des_ Roofs
  6
Continuous
 48
0.999999999999998
100
AcDbLine
 10
118.7052609286998
 20
68.81177837751055
 30
0.0
 11
118.5326752091477
 21
72.41334924934434
 31
0.0
  0
LINE
  5
142
330
E3
100
AcDbEntity
  8
Des_ Roofs
  6
Continuous
 48
0.999999999999998
100
AcDbLine
 10
189.6169772118741
 20
50.9752860799199
 30
0.0
 11
118.7052609286998
 21
68.81177837751055
 31
0.0
  0
LINE
  5
143
330
E3
100
AcDbEntity
  8
Des_ Roofs
  6
Continuous
 48
0.999999999999998
100
AcDbLine
 10
191.2905417584674
 20
52.08017431257293
 30
0.0
 11
189.6169772118741
 21
50.9752860799199
 31
0.0
  0
LINE
  5
144
330
E3
100
AcDbEntity
  8
Des_ Roofs
  6
Continuous
 48
0.999999999999998
100
AcDbLine
 10
191.4946886971235
 20
75.1926802321026
 30
0.0
 11
189.7919270053351
 21
74.25185789630545
 31
0.0
  0
LINE
  5
145
330
E3
100
AcDbEntity
  8
Des_ Roofs
  6
Continuous
 48
0.999999999999998
100
AcDbLine
 10
191.4946886971235
 20
75.1926802321026
 30
0.0
 11
189.5165040707467
 21
75.60410817218482
 31
0.0
  0
LINE
  5
146
330
E3
100
AcDbEntity
  8
Des_ Roofs
  6
Continuous
 48
0.999999999999998
100
AcDbLine
 10
193.7734062191667
 20
74.34191329624637
 30
0.0
 11
198.453577487723
 21
88.15566330125083
 31
0.0
  0
LINE
  5
147
330
E3
100
AcDbEntity
  8
Des_ Roofs
  6
Continuous
 48
0.999999999999998
100
AcDbLine
 10
193.7734062191667
 20
74.34191329624637
 30
0.0
 11
192.422666786296
 21
80.90454084627771
 31
0.0
  0
LINE
  5
148
330
E3
100
AcDbEntity
  8
Des_ Roofs
  6
Continuous
 48
0.999999999999998
100
AcDbLine
 10
191.4913798260714
 20
74.81804527327832
 30
0.0
 11
193.7734062191667
 21
74.34191329624637
 31
0.0
  0
LINE
  5
149
330
E3
100
AcDbEntity
  8
Des_ Roofs
  6
Continuous
 48
0.999999999999998
100
AcDbLine
 10
199.6983373185835
 20
81.66815336725375
 30
0.0
 11
193.7734062191667
 21
74.34191329624637
 31
0.0
  0
LINE
  5
14A
330
E3
100
AcDbEntity
  8
Des_ Roofs
  6
Continuous
 48
0.999999999999998
100
AcDbLine
 10
199.6983373185835
 20
81.66815336725375
 30
0.0
 11
198.453577487723
 21
88.15566330125083
 31
0.0
  0
LINE
  5
14B
330
E3
100
AcDbEntity
  8
Des_ Roofs
  6
Continuous
 48
0.999999999999998
100
AcDbLine
 10
198.453577487723
 20
88.15566330125083
 30
0.0
 11
192.422666786296
 21
80.90454084627771
 31
0.0
  0
LINE
  5
14C
330
E3
100
AcDbEntity
  8
Des_ Roofs
  6
Continuous
 48
0.999999999999998
100
AcDbLine
 10
192.422666786296
 20
80.90454084627771
 30
0.0
 11
199.6983373185835
 21
81.66815336725375
 31
0.0
  0
LINE
  5
14D
330
E3
100
AcDbEntity
  8
Des_ Roofs
  6
Continuous
 48
0.999999999999998
100
AcDbLine
 10
191.3151772399228
 20
54.86913223714676
 30
0.0
 11
191.3241340833241
 21
55.88318675679381
 31
0.0
  0
LINE
  5
14E
330
E3
100
AcDbEntity
  8
Des_ Roofs
  6
Continuous
 48
0.999999999999998
100
AcDbLine
 10
226.1340485692783
 20
77.40451277577307
 30
0.0
 11
191.3151772399228
 21
54.86913223714676
 31
0.0
  0
LINE
  5
14F
330
E3
100
AcDbEntity
  8
Des_ Roofs
  6
Continuous
 48
0.999999999999998
100
AcDbLine
 10
226.1340485692783
 20
77.40451277577307
 30
0.0
 11
226.1648522858269
 21
78.26823217290473
 31
0.0
  0
LINE
  5
150
330
E3
100
AcDbEntity
  8
Des_ Roofs
  6
Continuous
 48
0.999999999999998
100
AcDbLine
 10
226.1648522858269
 20
78.26823217290473
 30
0.0
 11
191.3241340833241
 21
55.88318675679381
 31
0.0
  0
LINE
  5
151
330
E3
100
AcDbEntity
  8
Des_ Roofs
  6
Continuous
 48
0.999999999999998
100
AcDbLine
 10
211.2752904924079
 20
81.11039840883618
 30
0.0
 11
226.1648522858269
 21
78.26823217290473
 31
0.0
  0
LINE
  5
152
330
E3
100
AcDbEntity
  8
Des_ Roofs
  6
Continuous
 48
0.999999999999998
100
AcDbLine
 10
113.528517600424
 20
94.04516658885007
 30
0.0
 11
114.6263802049816
 21
94.99432145275563
 31
0.0
  0
LINE
  5
153
330
E3
100
AcDbEntity
  8
Des_ Roofs
  6
Continuous
 48
0.999999999999998
100
AcDbLine
 10
115.4652685018661
 20
93.65280107570916
 30
0.0
 11
113.528517600424
 21
94.04516658885007
 31
0.0
  0
LINE
  5
154
330
E3
100
AcDbEntity
  8
Des_ Roofs
  6
Continuous
 48
0.999999999999998
100
AcDbLine
 10
186.8157077897255
 20
137.6717865033215
 30
0.0
 11
183.8719654556493
 21
137.9620098724521
 31
0.0
  0
LINE
  5
155
330
E3
100
AcDbEntity
  8
Des_ Roofs
  6
Continuous
 48
0.999999999999998
100
AcDbLine
 10
194.6372921003764
 20
141.0883352949698
 30
0.0
 11
190.8029223800472
 21
141.4381974229742
 31
0.0
  0
LINE
  5
156
330
E3
100
AcDbEntity
  8
Des_ Roofs
  6
Continuous
 48
0.999999999999998
100
AcDbLine
 10
196.5229989834761
 20
136.7147444562164
 30
0.0
 11
194.6372921003764
 21
141.0883352949698
 31
0.0
  0
LINE
  5
157
330
E3
100
AcDbEntity
  8
Des_ Roofs
  6
Continuous
 48
0.999999999999998
100
AcDbLine
 10
210.998689682967
 20
135.2875888315023
 30
0.0
 11
196.5229989834761
 21
136.7147444562164
 31
0.0
  0
LINE
  5
158
330
E3
100
AcDbEntity
  8
Des_ Roofs
  6
Continuous
 48
0.999999999999998
100
AcDbLine
 10
218.9133968626976
 20
138.8732854464902
 30
0.0
 11
214.7467041119908
 21
139.2534684872169
 31
0.0
  0
LINE
  5
159
330
E3
100
AcDbEntity
  8
Des_ Roofs
  6
Continuous
 48
0.999999999999998
100
AcDbLine
 10
220.8866785329747
 20
134.3127329880416
 30
0.0
 11
218.9133968626976
 21
138.8732854464902
 31
0.0
  0
LINE
  5
15A
330
E3
100
AcDbEntity
  8
Des_ Roofs
  6
Continuous
 48
0.999999999999998
100
AcDbLine
 10
235.5178570371978
 20
132.8702441797354
 30
0.0
 11
220.8866785329747
 21
134.3127329880416
 31
0.0
  0
LINE
  5
15B
330
E3
100
AcDbEntity
  8
Des_ Roofs
  6
Continuous
 48
0.999999999999998
100
AcDbLine
 10
235.5178570371978
 20
132.8702441797354
 30
0.0
 11
235.511301726623
 21
132.711106211591
 31
0.0
  0
LINE
  5
15C
330
E3
100
AcDbEntity
  8
Des_ Roofs
  6
Continuous
 48
0.999999999999998
100
AcDbLine
 10
113.528517600424
 20
94.04516658885007
 30
0.0
 11
114.8768346899585
 21
90.14377037868182
 31
0.0
  0
LINE
  5
15D
330
E3
100
AcDbEntity
  8
Des_ Roofs
  6
Continuous
 48
0.999999999999998
100
AcDbLine
 10
187.4347538614919
 20
74.90744722321271
 30
0.0
 11
187.4023102767742
 21
75.05650874253072
 31
0.0
  0
LINE
  5
15E
330
E3
100
AcDbEntity
  8
Des_ Roofs
  6
Continuous
 48
0.999999999999998
100
AcDbLine
 10
187.4023102767742
 20
75.05650874253072
 30
0.0
 11
170.7406877940617
 21
78.5510428384584
 31
0.0
  0
LINE
  5
15F
330
E3
100
AcDbEntity
  8
Des_ Roofs
  6
Continuous
 48
0.999999999999998
100
AcDbLine
 10
170.7406877940617
 20
78.5510428384584
 30
0.0
 11
167.3352809493396
 21
83.14453000965517
 31
0.0
  0
LINE
  5
160
330
E3
100
AcDbEntity
  8
Des_ Roofs
  6
Continuous
 48
0.999999999999998
100
AcDbLine
 10
167.3352809493396
 20
83.14453000965517
 30
0.0
 11
162.6224912877834
 21
84.09928706278846
 31
0.0
  0
LINE
  5
161
330
E3
100
AcDbEntity
  8
Des_ Roofs
  6
Continuous
 48
0.999999999999998
100
AcDbLine
 10
162.6224912877834
 20
84.09928706278846
 30
0.0
 11
161.3684374832636
 21
80.51673699687649
 31
0.0
  0
LINE
  5
162
330
E3
100
AcDbEntity
  8
Des_ Roofs
  6
Continuous
 48
0.999999999999998
100
AcDbLine
 10
161.3684374832636
 20
80.51673699687649
 30
0.0
 11
143.4202302071725
 21
84.28111681077657
 31
0.0
  0
LINE
  5
163
330
E3
100
AcDbEntity
  8
Des_ Roofs
  6
Continuous
 48
0.999999999999998
100
AcDbLine
 10
143.4202302071725
 20
84.28111681077657
 30
0.0
 11
140.0988562008664
 21
88.66232013400061
 31
0.0
  0
LINE
  5
164
330
E3
100
AcDbEntity
  8
Des_ Roofs
  6
Continuous
 48
0.999999999999998
100
AcDbLine
 10
140.0988562008664
 20
88.66232013400061
 30
0.0
 11
135.8453211929258
 21
89.52403756009322
 31
0.0
  0
LINE
  5
165
330
E3
100
AcDbEntity
  8
Des_ Roofs
  6
Continuous
 48
0.999999999999998
100
AcDbLine
 10
135.8453211929258
 20
89.52403756009322
 30
0.0
 11
134.9548811012606
 21
86.05660290997666
 31
0.0
  0
LINE
  5
166
330
E3
100
AcDbEntity
  8
Des_ Roofs
  6
Continuous
 48
0.999999999999998
100
AcDbLine
 10
134.9548811012606
 20
86.05660290997666
 30
0.0
 11
118.7027595054265
 21
89.46525203211958
 31
0.0
  0
LINE
  5
167
330
E3
100
AcDbEntity
  8
Des_ Roofs
  6
Continuous
 48
0.999999999999998
100
AcDbLine
 10
118.7027595054265
 20
89.46525203211958
 30
0.0
 11
115.4652685018661
 21
93.65280107570916
 31
0.0
  0
LINE
  5
168
330
E3
100
AcDbEntity
  8
Des_ Roofs
  6
Continuous
 48
0.999999999999998
100
AcDbLine
 10
114.8768346899585
 20
90.14377037868182
 30
0.0
 11
187.4347538614919
 21
74.90744722321271
 31
0.0
  0
LINE
  5
169
330
E3
100
AcDbEntity
  8
Des_ Roofs
  6
Continuous
 48
0.999999999999998
100
AcDbLine
 10
123.0126535359026
 20
93.31540444305169
 30
0.0
 11
118.7027595054265
 21
89.46525203211958
 31
0.0
  0
LINE
  5
16A
330
E3
100
AcDbEntity
  8
Des_ Roofs
  6
Continuous
 48
0.999999999999998
100
AcDbLine
 10
190.8029223800472
 20
141.4381974229742
 30
0.0
 11
135.8453211929258
 21
89.52403756009322
 31
0.0
  0
LINE
  5
16B
330
E3
100
AcDbEntity
  8
Des_ Roofs
  6
Continuous
 48
0.999999999999998
100
AcDbLine
 10
196.5229989834761
 20
136.7147444562164
 30
0.0
 11
143.4202302071725
 21
84.28111681077657
 31
0.0
  0
LINE
  5
16C
330
E3
100
AcDbEntity
  8
Des_ Roofs
  6
Continuous
 48
0.999999999999998
100
AcDbLine
 10
214.7467041119908
 20
139.2534684872169
 30
0.0
 11
162.6224912877834
 21
84.09928706278846
 31
0.0
  0
LINE
  5
16D
330
E3
100
AcDbEntity
  8
Des_ Roofs
  6
Continuous
 48
0.999999999999998
100
AcDbLine
 10
220.8866785329747
 20
134.3127329880416
 30
0.0
 11
170.7406877940617
 21
78.5510428384584
 31
0.0
  0
LINE
  5
16E
330
E3
100
AcDbEntity
  8
Des_ Roofs
  6
Continuous
 48
0.999999999999998
100
AcDbLine
 10
235.5178570371978
 20
132.8702441797354
 30
0.0
 11
187.4023102767742
 21
75.05650874253072
 31
0.0
  0
LINE
  5
16F
330
E3
100
AcDbEntity
  8
Des_ Roofs
  6
Continuous
 48
0.999999999999998
100
AcDbLine
 10
235.511301726623
 20
132.711106211591
 30
0.0
 11
198.453577487723
 21
88.15566330125083
 31
0.0
  0
LINE
  5
170
330
E3
100
AcDbEntity
  8
Des_ Roofs
  6
Continuous
 48
0.999999999999998
100
AcDbLine
 10
192.422666786296
 20
80.90454084627771
 30
0.0
 11
187.4347538614919
 21
74.90744722321271
 31
0.0
  0
LINE
  5
171
330
E3
100
AcDbEntity
  8
Des_ Roofs
  6
Continuous
 48
0.999999999999998
100
AcDbLine
 10
191.3151772399228
 20
54.86913223714676
 30
0.0
 11
191.3241340833241
 21
55.88318675679381
 31
0.0
  0
LINE
  5
172
330
E3
100
AcDbEntity
  8
Des_ Roofs
  6
Continuous
 48
0.999999999999998
100
AcDbLine
 10
191.3151772399228
 20
54.86913223714676
 30
0.0
 11
226.1340485692783
 21
77.40451277577307
 31
0.0
  0
LINE
  5
173
330
E3
100
AcDbEntity
  8
Des_ Roofs
  6
Continuous
 48
0.999999999999998
100
AcDbLine
 10
226.1340485692783
 20
77.40451277577307
 30
0.0
 11
226.1648522858269
 21
78.26823217290473
 31
0.0
  0
LINE
  5
174
330
E3
100
AcDbEntity
  8
Des_ Roofs
  6
Continuous
 48
0.999999999999998
100
AcDbLine
 10
191.3241340833241
 20
55.88318675679381
 30
0.0
 11
226.1648522858269
 21
78.26823217290473
 31
0.0
  0
LINE
  5
175
330
E3
100
AcDbEntity
  8
Des_ Roofs
  6
Continuous
 48
0.999999999999998
100
AcDbLine
 10
187.4347538614919
 20
74.90744722321271
 30
0.0
 11
187.4023102767742
 21
75.05650874253072
 31
0.0
  0
LINE
  5
176
330
E3
100
AcDbEntity
  8
Des_ Roofs
  6
Continuous
 48
0.999999999999998
100
AcDbLine
 10
187.4347538614919
 20
74.90744722321271
 30
0.0
 11
235.511301726623
 21
132.711106211591
 31
0.0
  0
LINE
  5
177
330
E3
100
AcDbEntity
  8
Des_ Roofs
  6
Continuous
 48
0.999999999999998
100
AcDbLine
 10
235.511301726623
 20
132.711106211591
 30
0.0
 11
235.5178570371978
 21
132.8702441797354
 31
0.0
  0
LINE
  5
178
330
E3
100
AcDbEntity
  8
Des_ Roofs
  6
Continuous
 48
0.999999999999998
100
AcDbLine
 10
187.4023102767742
 20
75.05650874253072
 30
0.0
 11
235.5178570371978
 21
132.8702441797354
 31
0.0
  0
LINE
  5
179
330
E3
100
AcDbEntity
  8
Des_ Roofs
  6
Continuous
 48
0.999999999999998
100
AcDbLine
 10
193.7734062191667
 20
74.34191329624637
 30
0.0
 11
192.422666786296
 21
80.90454084627771
 31
0.0
  0
LINE
  5
17A
330
E3
100
AcDbEntity
  8
Des_ Roofs
  6
Continuous
 48
0.999999999999998
100
AcDbLine
 10
193.7734062191667
 20
74.34191329624637
 30
0.0
 11
199.6983373185835
 21
81.66815336725375
 31
0.0
  0
LINE
  5
17B
330
E3
100
AcDbEntity
  8
Des_ Roofs
  6
Continuous
 48
0.999999999999998
100
AcDbLine
 10
199.6983373185835
 20
81.66815336725375
 30
0.0
 11
198.453577487723
 21
88.15566330125083
 31
0.0
  0
LINE
  5
17C
330
E3
100
AcDbEntity
  8
Des_ Roofs
  6
Continuous
 48
0.999999999999998
100
AcDbLine
 10
192.422666786296
 20
80.90454084627771
 30
0.0
 11
198.453577487723
 21
88.15566330125083
 31
0.0
  0
LINE
  5
17D
330
E3
100
AcDbEntity
  8
Des_ Roofs
  6
Continuous
 48
0.999999999999998
100
AcDbLine
 10
189.6169772118741
 20
50.9752860799199
 30
0.0
 11
189.7919270053351
 21
74.25185789630545
 31
0.0
  0
LINE
  5
17E
330
E3
100
AcDbEntity
  8
Des_ Roofs
  6
Continuous
 48
0.999999999999998
100
AcDbLine
 10
189.6169772118741
 20
50.9752860799199
 30
0.0
 11
191.2905417584674
 21
52.08017431257293
 31
0.0
  0
LINE
  5
17F
330
E3
100
AcDbEntity
  8
Des_ Roofs
  6
Continuous
 48
0.999999999999998
100
AcDbLine
 10
191.2905417584674
 20
52.08017431257293
 30
0.0
 11
191.4946886971235
 21
75.1926802321026
 31
0.0
  0
LINE
  5
180
330
E3
100
AcDbEntity
  8
Des_ Roofs
  6
Continuous
 48
0.999999999999998
100
AcDbLine
 10
189.7919270053351
 20
74.25185789630545
 30
0.0
 11
191.4946886971235
 21
75.1926802321026
 31
0.0
  0
LINE
  5
181
330
E3
100
AcDbEntity
  8
Des_ Roof Beams
  6
Continuous
 48
0.999999999999998
100
AcDbLine
 10
97.35401504389743
 20
75.58487093696151
 30
0.0
 11
93.73002292884688
 21
76.48566633828382
 31
0.0
  0
LINE
  5
182
330
E3
100
AcDbEntity
  8
Des_ Roof Beams
  6
Continuous
 48
0.999999999999998
100
AcDbLine
 10
93.73002292884688
 20
76.48566633828382
 30
0.0
 11
93.62176665706876
 21
78.10135269512911
 31
0.0
  0
LINE
  5
183
330
E3
100
AcDbEntity
  8
Des_ Roof Beams
  6
Continuous
 48
0.999999999999998
100
AcDbLine
 10
93.62176665706876
 20
78.10135269512911
 30
0.0
 11
97.24949217757049
 21
77.21191567003449
 31
0.0
  0
LINE
  5
184
330
E3
100
AcDbEntity
  8
Des_ Roof Beams
  6
Continuous
 48
0.999999999999998
100
AcDbLine
 10
97.24949217757049
 20
77.21191567003449
 30
0.0
 11
97.35401504389743
 21
75.58487093696151
 31
0.0
  0
LINE
  5
185
330
E3
100
AcDbEntity
  8
Des_ Roof Beams
  6
Continuous
 48
0.999999999999998
100
AcDbLine
 10
103.7414638848604
 20
78.02565238482154
 30
0.0
 11
97.35401504389743
 21
75.58487093696151
 31
0.0
  0
LINE
  5
186
330
E3
100
AcDbEntity
  8
Des_ Roof Beams
  6
Continuous
 48
0.999999999999998
100
AcDbLine
 10
103.5205936205601
 20
81.75852508694304
 30
0.0
 11
93.62176665706876
 21
78.10135269512911
 31
0.0
  0
LINE
  5
187
330
E3
100
AcDbEntity
  8
Des_ Roof Beams
  6
Continuous
 48
0.999999999999998
100
AcDbLine
 10
103.6470174673599
 20
79.62188091504002
 30
0.0
 11
97.24949217757049
 21
77.21191567003449
 31
0.0
  0
LINE
  5
189
330
E3
100
AcDbEntity
  8
Des_ Roofs
  6
Contour Line
 48
0.999999999999998
100
AcDbLine
 10
136.0949349333083
 20
119.8286348426072
 30
0.0
 11
112.2221961195878
 21
97.83843139029877
 31
0.0
  0
LINE
  5
18A
330
E3
100
AcDbEntity
  8
Des_ Roofs
  6
Contour Line
 48
0.999999999999998
100
AcDbLine
 10
112.2221961195878
 20
97.83843139029877
 30
0.0
 11
110.3181135563689
 21
98.39107944962095
 31
0.0
  0
LINE
  5
18B
330
E3
100
AcDbEntity
  8
Des_ Roofs
  6
Contour Line
 48
0.999999999999998
100
AcDbLine
 10
134.0008857127846
 20
120.0272669961766
 30
0.0
 11
110.3181135563689
 21
98.39107944962095
 31
0.0
  0
MTEXT
  5
18D
330
E3
100
AcDbEntity
  8
0
  6
Continuous
100
AcDbMText
 10
249.3953058099475
 20
148.9033677698428
 30
0.0
 40
2.499999999999994
 41
46.56436411831652
 71
     4
 72
     1
  1
\A1;{\fCentury Gothic|b0|i0|c0|p34;TRS 5\PMIN. ROOF PITCH 3\fArial|b0|i0|c0|p34;\H1.029412x;\U+00B0}
  7
GENERATED_STYLE_1
 73
     1
 44
1.056356172275314
  0
LINE
  5
18E
330
E3
100
AcDbEntity
  8
Des_ Roofs
  6
Continuous
 48
0.999999999999998
100
AcDbLine
 10
218.847456681468
 20
128.3663545772648
 30
0.0
 11
221.0959115602164
 21
131.5084335556718
 31
0.0
  0
LINE
  5
18F
330
E3
100
AcDbEntity
  8
Des_ Roofs
  6
Continuous
 48
0.999999999999998
100
AcDbLine
 10
218.847456681468
 20
128.3663545772648
 30
0.0
 11
222.3657147585236
 21
129.9632490437957
 31
0.0
  0
LINE
  5
190
330
E3
100
AcDbEntity
  8
Des_ Roofs
  6
Continuous
 48
0.999999999999998
100
AcDbLine
 10
221.0959115602164
 20
131.5084335556718
 30
0.0
 11
222.3657147585236
 21
129.9632490437957
 31
0.0
  0
LWPOLYLINE
  5
191
330
E3
100
AcDbEntity
  8
Des_ Roofs
  6
Continuous
 48
0.999999999999998
100
AcDbPolyline
 90
        8
 70
   128
 43
0.0
 10
221.7308120537561
 20
130.7358418358436
 10
232.4327512370918
 20
139.3059126949782
 10
236.5910253280227
 20
142.4572497740457
 10
240.0521645862837
 20
144.920961300086
 10
242.8896656377407
 20
146.7481772835789
 10
245.1770251082597
 20
147.9900277350038
 10
246.9877396237067
 20
148.6976426648404
 10
248.3953058099476
 20
148.9221520835682
  0
MTEXT
  5
192
330
E3
100
AcDbEntity
  8
0
  6
Continuous
100
AcDbMText
 10
249.3953058099475
 20
99.9450188381679
 30
0.0
 40
2.499999999999994
 41
0.0
 71
     4
 72
     1
  1
{PURLIN}
  7
GENERATED_STYLE_1
 73
     1
 44
1.0
  0
LINE
  5
193
330
E3
100
AcDbEntity
  8
Des_ Roofs
  6
Continuous
 48
0.999999999999998
100
AcDbLine
 10
198.0466612661571
 20
83.19902441051602
 30
0.0
 11
201.0923709359616
 21
85.57638374882762
 31
0.0
  0
LINE
  5
194
330
E3
100
AcDbEntity
  8
Des_ Roofs
  6
Continuous
 48
0.999999999999998
100
AcDbLine
 10
198.0466612661571
 20
83.19902441051602
 30
0.0
 11
201.8730022918203
 21
83.73502406202918
 31
0.0
  0
LINE
  5
195
330
E3
100
AcDbEntity
  8
Des_ Roofs
  6
Continuous
 48
0.999999999999998
100
AcDbLine
 10
201.0923709359616
 20
85.57638374882762
 30
0.0
 11
201.8730022918203
 21
83.73502406202918
 31
0.0
  0
LWPOLYLINE
  5
196
330
E3
100
AcDbEntity
  8
Des_ Roofs
  6
Continuous
 48
0.999999999999998
100
AcDbPolyline
 90
        9
 70
   128
 43
0.0
 10
201.4826867018723
 20
84.6557043269173
 10
210.9739252401023
 20
88.60700373176297
 10
219.1674835514222
 20
91.89002624465637
 10
226.1940358707554
 20
94.54836545264392
 10
232.1842564330257
 20
96.62561494277205
 10
237.2688194731565
 20
98.16536830208717
 10
241.5783992260714
 20
99.21121911763575
 10
245.2436699266939
 20
99.80676097646418
 10
248.3953058099476
 20
99.99558746561888
  0
HATCH
  5
197
330
E3
100
AcDbEntity
  8
Des_ Roofs
  6
Continuous
 62
   255
 48
0.999999999999998
370
    18
100
AcDbHatch
 10
0.0
 20
0.0
 30
0.0
210
0.0
220
0.0
230
1.0
  2
SOLID
 70
     1
 71
     0
 91
        1
 92
        3
 72
     0
 73
     1
 93
        5
 10
133.8610055414489
 20
88.85136855137155
 10
132.3942636476692
 20
89.99697371558845
 10
131.756312330988
 20
89.35902239890727
 10
132.3029609095331
 20
88.9227757814876
 10
133.4579352720757
 20
88.39624335150494
 97
        0
 75
     0
 76
     1
 98
        0
  0
LINE
  5
198
330
E3
100
AcDbEntity
  8
Des_ Roofs
  6
Continuous
 62
   255
 48
0.999999999999998
370
    18
100
AcDbLine
 10
133.8610057903733
 20
88.8513669667739
 30
0.0
 11
132.3942644139913
 21
89.99697304282583
 31
0.0
  0
LINE
  5
199
330
E3
100
AcDbEntity
  8
Des_ Roofs
  6
Continuous
 62
   255
 48
0.999999999999998
370
    18
100
AcDbLine
 10
132.3942644139913
 20
89.99697304282583
 30
0.0
 11
131.7563140751577
 21
89.35902270399222
 31
0.0
  0
LINE
  5
19A
330
E3
100
AcDbEntity
  8
Des_ Roofs
  6
Continuous
 62
   255
 48
0.999999999999998
370
    18
100
AcDbLine
 10
131.7563140751577
 20
89.35902270399222
 30
0.0
 11
132.3029603834647
 21
88.92277614996873
 31
0.0
  0
LINE
  5
19B
330
E3
100
AcDbEntity
  8
Des_ Roofs
  6
Continuous
 62
   255
 48
0.999999999999998
370
    18
100
AcDbLine
 10
132.3029603834647
 20
88.92277614996873
 30
0.0
 11
133.4579353510112
 21
88.39624528039694
 31
0.0
  0
LINE
  5
19C
330
E3
100
AcDbEntity
  8
Des_ Roofs
  6
Continuous
 62
   255
 48
0.999999999999998
370
    18
100
AcDbLine
 10
133.4579353510112
 20
88.39624528039694
 30
0.0
 11
133.8610057903733
 21
88.8513669667739
 31
0.0
  0
MTEXT
  5
19D
330
E3
100
AcDbEntity
  8
0
  6
Continuous
100
AcDbMText
 10
249.3953058099475
 20
64.43481263603366
 30
0.0
 40
2.499999999999994
 41
0.0
 71
     4
 72
     1
  1
{ROOF FRAME}
  7
GENERATED_STYLE_1
 73
     1
 44
1.0
  0
LINE
  5
19E
330
E3
100
AcDbEntity
  8
Des_ Roofs
  6
Continuous
 48
0.999999999999998
100
AcDbLine
 10
204.0681864276818
 20
78.71788901941837
 30
0.0
 11
207.8854374226813
 21
78.12058160614852
 31
0.0
  0
LINE
  5
19F
330
E3
100
AcDbEntity
  8
Des_ Roofs
  6
Continuous
 48
0.999999999999998
100
AcDbLine
 10
204.0681864276818
 20
78.71788901941837
 30
0.0
 11
207.0753675197142
 21
76.29197876183376
 31
0.0
  0
LINE
  5
1A0
330
E3
100
AcDbEntity
  8
Des_ Roofs
  6
Continuous
 48
0.999999999999998
100
AcDbLine
 10
207.8854374226813
 20
78.12058160614852
 30
0.0
 11
207.0753675197142
 21
76.29197876183376
 31
0.0
  0
LWPOLYLINE
  5
1A1
330
E3
100
AcDbEntity
  8
Des_ Roofs
  6
Continuous
 48
0.999999999999998
100
AcDbPolyline
 90
        9
 70
   128
 43
0.0
 10
207.4804036119061
 20
77.20628017655442
 10
215.0944455626081
 20
73.92353065593544
 10
221.7706676840996
 20
71.19521908990063
 10
227.6208828658505
 20
68.98536458233647
 10
232.756903997331
 20
67.25798623712944
 10
237.2905439680109
 20
65.97710315816603
 10
241.3336156673603
 20
65.10673444933272
 10
244.9979319848492
 20
64.61089921451597
 10
248.3953058099476
 20
64.45361655760229
  0
MTEXT
  5
1A2
330
E3
100
AcDbEntity
  8
0
  6
Continuous
100
AcDbMText
 10
249.3953058099475
 20
52.23895578102949
 30
0.0
 40
2.499999999999994
 41
0.0
 71
     4
 72
     1
  1
{SOFFIT BOARD}
  7
GENERATED_STYLE_1
 73
     1
 44
1.0
  0
LINE
  5
1A3
330
E3
100
AcDbEntity
  8
Des_ Roofs
  6
Continuous
 48
0.999999999999998
100
AcDbLine
 10
205.7486101182924
 20
69.47554623475399
 30
0.0
 11
209.4904355017132
 21
68.51276464905676
 31
0.0
  0
LINE
  5
1A4
330
E3
100
AcDbEntity
  8
Des_ Roofs
  6
Continuous
 48
0.999999999999998
100
AcDbLine
 10
205.7486101182924
 20
69.47554623475399
 30
0.0
 11
208.5077340960725
 21
66.77084173999961
 31
0.0
  0
LINE
  5
1A5
330
E3
100
AcDbEntity
  8
Des_ Roofs
  6
Continuous
 48
0.999999999999998
100
AcDbLine
 10
209.4904355017132
 20
68.51276464905676
 30
0.0
 11
208.5077340960725
 21
66.77084173999961
 31
0.0
  0
LWPOLYLINE
  5
1A6
330
E3
100
AcDbEntity
  8
Des_ Roofs
  6
Continuous
 48
0.999999999999998
100
AcDbPolyline
 90
        9
 70
   128
 43
0.0
 10
208.999084586405
 20
67.64180449796675
 10
216.222636190458
 20
63.68176470355458
 10
222.5743467309774
 20
60.39052756783315
 10
228.1617047467141
 20
57.72469664645584
 10
233.0921987764194
 20
55.64087549507599
 10
237.4733173588442
 20
54.09566766934694
 10
241.4125490327398
 20
53.04567672492205
 10
245.0173823368573
 20
52.44750621745466
 10
248.3953058099476
 20
52.25775970259811
  0
MTEXT
  5
1A7
330
E3
100
AcDbEntity
  8
0
  6
Continuous
100
AcDbMText
 10
249.3953058099475
 20
37.47809728588555
 30
0.0
 40
2.499999999999994
 41
0.0
 71
     4
 72
     1
  1
{FASCIA}
  7
GENERATED_STYLE_1
 73
     1
 44
1.0
  0
LINE
  5
1A8
330
E3
100
AcDbEntity
  8
Des_ Roofs
  6
Continuous
 48
0.999999999999998
100
AcDbLine
 10
190.4808839035936
 20
52.71974370906596
 30
0.0
 11
194.3377372986689
 21
52.48972098257272
 31
0.0
  0
LINE
  5
1A9
330
E3
100
AcDbEntity
  8
Des_ Roofs
  6
Continuous
 48
0.999999999999998
100
AcDbLine
 10
190.4808839035936
 20
52.71974370906596
 30
0.0
 11
193.7060051401519
 21
50.59211464999154
 31
0.0
  0
LINE
  5
1AA
330
E3
100
AcDbEntity
  8
Des_ Roofs
  6
Continuous
 48
0.999999999999998
100
AcDbLine
 10
194.3377372986689
 20
52.48972098257272
 30
0.0
 11
193.7060051401519
 21
50.59211464999154
 31
0.0
  0
LWPOLYLINE
  5
1AB
330
E3
100
AcDbEntity
  8
Des_ Roofs
  6
Continuous
 48
0.999999999999998
100
AcDbPolyline
 90
        9
 70
   128
 43
0.0
 10
194.0218691704534
 20
51.54091657738913
 10
205.080614550972
 20
47.92229621477891
 10
214.6169103889083
 20
44.91609032773069
 10
222.7831149126133
 20
42.48225145580179
 10
229.7315863504377
 20
40.58073213854956
 10
235.6146829307324
 20
39.17148491553134
 10
240.5847628818484
 20
38.21446232630448
 10
244.7941844321365
 20
37.66961691042631
 10
248.3953058099476
 20
37.49690120745418
  0
HATCH
  5
1AC
330
E3
100
AcDbEntity
  8
Des_ Roofs
  6
Continuous
 62
   255
 48
0.999999999999998
370
    18
100
AcDbHatch
 10
0.0
 20
0.0
 30
0.0
210
0.0
220
0.0
230
1.0
  2
SOLID
 70
     1
 71
     0
 91
        1
 92
        3
 72
     0
 73
     1
 93
        6
 10
111.1396628579163
 20
128.7327996854281
 10
111.1705473721722
 20
128.1281978954339
 10
112.2853295707402
 20
127.8986423549359
 10
112.5273957562445
 20
123.8871687987663
 10
112.8840682802822
 20
123.8531989645739
 10
112.6804271940206
 20
128.4829068953117
 97
        0
 75
     0
 76
     1
 98
        0
  0
LINE
  5
1AD
330
E3
100
AcDbEntity
  8
Des_ Roofs
  6
Continuous
 48
0.999999999999998
100
AcDbLine
 10
111.1396625365203
 20
128.7327985194471
 30
0.0
 11
111.170545333006
 21
128.1281991035569
 31
0.0
  0
LINE
  5
1AE
330
E3
100
AcDbEntity
  8
Des_ Roofs
  6
Continuous
 48
0.999999999999998
100
AcDbLine
 10
111.170545333006
 20
128.1281991035569
 30
0.0
 11
112.2853310441015
 21
127.8986425324823
 31
0.0
  0
LINE
  5
1AF
330
E3
100
AcDbEntity
  8
Des_ Roofs
  6
Continuous
 48
0.999999999999998
100
AcDbLine
 10
112.2853310441015
 20
127.8986425324823
 30
0.0
 11
112.5273947315426
 21
123.8871670498808
 31
0.0
  0
LINE
  5
1B0
330
E3
100
AcDbEntity
  8
Des_ Roofs
  6
Continuous
 48
0.999999999999998
100
AcDbLine
 10
112.5273947315426
 20
123.8871670498808
 30
0.0
 11
112.8840702204429
 21
123.8532001358485
 31
0.0
  0
LINE
  5
1B1
330
E3
100
AcDbEntity
  8
Des_ Roofs
  6
Continuous
 48
0.999999999999998
100
AcDbLine
 10
112.8840702204429
 20
123.8532001358485
 30
0.0
 11
112.6804268961231
 21
128.4829059182338
 31
0.0
  0
LINE
  5
1B2
330
E3
100
AcDbEntity
  8
Des_ Roofs
  6
Continuous
 48
0.999999999999998
100
AcDbLine
 10
112.6804268961231
 20
128.4829059182338
 30
0.0
 11
111.1396625365203
 21
128.7327985194471
 31
0.0
  0
HATCH
  5
1B3
330
E3
100
AcDbEntity
  8
Des_ Roofs
  6
Continuous
 62
   255
 48
0.999999999999998
370
    18
100
AcDbHatch
 10
0.0
 20
0.0
 30
0.0
210
0.0
220
0.0
230
1.0
  2
SOLID
 70
     1
 71
     0
 91
        1
 92
        3
 72
     0
 73
     1
 93
        4
 10
111.1396628579163
 20
128.7327996854281
 10
112.6804271940206
 20
128.4829068953117
 10
170.273889958977
 20
172.6416849287277
 10
169.1878510019645
 20
172.6598173789375
 97
        0
 75
     0
 76
     1
 98
        0
  0
LINE
  5
1B4
330
E3
100
AcDbEntity
  8
Des_ Roofs
  6
Continuous
 48
0.999999999999998
100
AcDbLine
 10
112.6804268961231
 20
128.4829059182338
 30
0.0
 11
111.1396625365203
 21
128.7327985194471
 31
0.0
  0
LINE
  5
1B5
330
E3
100
AcDbEntity
  8
Des_ Roofs
  6
Continuous
 48
0.999999999999998
100
AcDbLine
 10
170.2738914117087
 20
172.6416838641164
 30
0.0
 11
112.6804268961231
 21
128.4829059182338
 31
0.0
  0
LINE
  5
1B6
330
E3
100
AcDbEntity
  8
Des_ Roofs
  6
Continuous
 48
0.999999999999998
100
AcDbLine
 10
169.1878491766954
 20
172.6598181423224
 30
0.0
 11
170.2738914117087
 21
172.6416838641164
 31
0.0
  0
LINE
  5
1B7
330
E3
100
AcDbEntity
  8
Des_ Roofs
  6
Continuous
 48
0.999999999999998
100
AcDbLine
 10
111.1396625365203
 20
128.7327985194471
 30
0.0
 11
169.1878491766954
 21
172.6598181423224
 31
0.0
  0
HATCH
  5
1B8
330
E3
100
AcDbEntity
  8
Des_ Roofs
  6
Continuous
 62
   255
 48
0.999999999999998
370
    18
100
AcDbHatch
 10
0.0
 20
0.0
 30
0.0
210
0.0
220
0.0
230
1.0
  2
SOLID
 70
     1
 71
     0
 91
        1
 92
        3
 72
     0
 73
     1
 93
        4
 10
112.6804271940206
 20
128.4829068953117
 10
112.8840682802822
 20
123.8531989645739
 10
170.273889958977
 20
168.385875871033
 10
170.273889958977
 20
172.6416849287277
 97
        0
 75
     0
 76
     1
 98
        0
  0
LINE
  5
1B9
330
E3
100
AcDbEntity
  8
Des_ Roofs
  6
Continuous
 48
0.999999999999998
100
AcDbLine
 10
112.8840702204429
 20
123.8532001358485
 30
0.0
 11
112.6804268961231
 21
128.4829059182338
 31
0.0
  0
LINE
  5
1BA
330
E3
100
AcDbEntity
  8
Des_ Roofs
  6
Continuous
 48
0.999999999999998
100
AcDbLine
 10
170.2738914117087
 20
168.3858763485099
 30
0.0
 11
112.8840702204429
 21
123.8532001358485
 31
0.0
  0
LINE
  5
1BB
330
E3
100
AcDbEntity
  8
Des_ Roofs
  6
Continuous
 48
0.999999999999998
100
AcDbLine
 10
170.2738914117087
 20
172.6416838641164
 30
0.0
 11
170.2738914117087
 21
168.3858763485099
 31
0.0
  0
LINE
  5
1BC
330
E3
100
AcDbEntity
  8
Des_ Roofs
  6
Continuous
 48
0.999999999999998
100
AcDbLine
 10
112.6804268961231
 20
128.4829059182338
 30
0.0
 11
170.2738914117087
 21
172.6416838641164
 31
0.0
  0
HATCH
  5
1BD
330
E3
100
AcDbEntity
  8
Des_ Roofs
  6
Continuous
 62
   255
 48
0.999999999999998
370
    18
100
AcDbHatch
 10
0.0
 20
0.0
 30
0.0
210
0.0
220
0.0
230
1.0
  2
SOLID
 70
     1
 71
     0
 91
        1
 92
        3
 72
     0
 73
     1
 93
        6
 10
113.3715790972052
 20
93.85922576669702
 10
140.3826896729989
 20
87.91342187286382
 10
143.7800728177169
 20
84.40485164340957
 10
144.0360220821439
 20
84.70208304726029
 10
139.2576740413967
 20
89.78146372939666
 10
113.2853315380029
 20
98.81773019889556
 97
        0
 75
     0
 76
     1
 98
        0
  0
LINE
  5
1BE
330
E3
100
AcDbEntity
  8
Des_ Roofs
  6
Continuous
 48
0.999999999999998
100
AcDbLine
 10
140.3826907435003
 20
87.91342064342578
 30
0.0
 11
113.3715772221104
 21
93.85922468413314
 31
0.0
  0
LINE
  5
1BF
330
E3
100
AcDbEntity
  8
Des_ Roofs
  6
Continuous
 48
0.999999999999998
100
AcDbLine
 10
143.7800730556584
 20
84.4048519397151
 30
0.0
 11
140.3826907435003
 21
87.91342064342578
 31
0.0
  0
LINE
  5
1C0
330
E3
100
AcDbEntity
  8
Des_ Roofs
  6
Continuous
 48
0.999999999999998
100
AcDbLine
 10
144.0360215152123
 20
84.70208428853333
 30
0.0
 11
143.7800730556584
 21
84.4048519397151
 31
0.0
  0
LINE
  5
1C1
330
E3
100
AcDbEntity
  8
Des_ Roofs
  6
Continuous
 48
0.999999999999998
100
AcDbLine
 10
139.2576745858062
 20
89.78146356584008
 30
0.0
 11
144.0360215152123
 21
84.70208428853333
 31
0.0
  0
LINE
  5
1C2
330
E3
100
AcDbEntity
  8
Des_ Roofs
  6
Continuous
 48
0.999999999999998
100
AcDbLine
 10
113.2853301454558
 20
98.81772819654256
 30
0.0
 11
139.2576745858062
 21
89.78146356584008
 31
0.0
  0
LINE
  5
1C3
330
E3
100
AcDbEntity
  8
Des_ Roofs
  6
Continuous
 48
0.999999999999998
100
AcDbLine
 10
113.3715772221104
 20
93.85922468413314
 30
0.0
 11
113.2853301454558
 21
98.81772819654256
 31
0.0
  0
HATCH
  5
1C4
330
E3
100
AcDbEntity
  8
Des_ Roofs
  6
Continuous
 62
   255
 48
0.999999999999998
370
    18
100
AcDbHatch
 10
0.0
 20
0.0
 30
0.0
210
0.0
220
0.0
230
1.0
  2
SOLID
 70
     1
 71
     0
 91
        1
 92
        3
 72
     0
 73
     1
 93
        4
 10
140.6949140075142
 20
88.2536786335354
 10
144.0360220821439
 20
84.70208304726029
 10
197.0851921994578
 20
137.1062824448682
 10
195.144608508143
 20
142.3095303943727
 97
        0
 75
     0
 76
     1
 98
        0
  0
LINE
  5
1C5
330
E3
100
AcDbEntity
  8
Des_ Roofs
  6
Continuous
 48
0.999999999999998
100
AcDbLine
 10
144.0360215152123
 20
84.70208428853333
 30
0.0
 11
140.6949149835505
 21
88.25367664012444
 31
0.0
  0
LINE
  5
1C6
330
E3
100
AcDbEntity
  8
Des_ Roofs
  6
Continuous
 48
0.999999999999998
100
AcDbLine
 10
197.0851907425748
 20
137.1062817110688
 30
0.0
 11
144.0360215152123
 21
84.70208428853333
 31
0.0
  0
LINE
  5
1C7
330
E3
100
AcDbEntity
  8
Des_ Roofs
  6
Continuous
 48
0.999999999999998
100
AcDbLine
 10
195.1446065452346
 20
142.3095293045766
 30
0.0
 11
197.0851907425748
 21
137.1062817110688
 31
0.0
  0
LINE
  5
1C8
330
E3
100
AcDbEntity
  8
Des_ Roofs
  6
Continuous
 48
0.999999999999998
100
AcDbLine
 10
140.6949149835505
 20
88.25367664012444
 30
0.0
 11
195.1446065452346
 21
142.3095293045766
 31
0.0
  0
HATCH
  5
1C9
330
E3
100
AcDbEntity
  8
Des_ Roofs
  6
Continuous
 62
   255
 48
0.999999999999998
370
    18
100
AcDbHatch
 10
0.0
 20
0.0
 30
0.0
210
0.0
220
0.0
230
1.0
  2
SOLID
 70
     1
 71
     0
 91
        1
 92
        3
 72
     0
 73
     1
 93
       43
 10
93.94880683516905
 20
166.4343397919112
 10
78.85793940383206
 20
138.4674393735322
 10
79.30956754661123
 20
100.609885032236
 10
93.23566038299747
 20
74.51928808765265
 10
113.4216500309343
 20
62.14722991633653
 10
131.3285763315234
 20
62.14722991633653
 10
137.8912111580057
 20
63.985917978191
 10
118.7052598978566
 20
68.81177971495397
 10
118.5326761309695
 20
72.41335109095832
 10
103.8614445283279
 20
75.99794153880408
 10
103.2436398316206
 20
86.43921132961707
 10
101.7118160154561
 20
86.78054868886015
 10
101.5931871929255
 20
88.74679374112867
 10
103.0768955772213
 20
89.25728920363134
 10
114.5440786972439
 20
91.10660485060038
 10
114.2632666107387
 20
92.02729192391692
 10
115.7167639336278
 20
93.38307346965013
 10
113.3715790972052
 20
93.85922576669702
 10
113.3021291195028
 20
95.21879323426612
 10
109.8950304128623
 20
98.24725369511056
 10
105.498689079244
 20
100.9164609333788
 10
103.1435062219485
 20
104.6847535050516
 10
103.1435062219485
 20
120.3859725536882
 10
104.8706403172985
 20
128.2365820780065
 10
106.2837500316758
 20
133.4179843640567
 10
111.1511279367532
 20
140.012496364484
 10
117.1960972704783
 20
146.0574656982091
 10
122.4560056517716
 20
148.0201180792887
 10
129.5215542236581
 20
146.7640205553978
 10
130.856104939049
 20
145.412036642068
 10
136.2487578689311
 20
139.9489396407405
 10
136.8136044271927
 20
138.5980215731113
 10
136.9581339927914
 20
138.2523567219795
 10
139.5703344147855
 20
132.0048746496794
 10
137.3721637479764
 20
124.7823138873065
 10
136.094936563771
 20
119.8286361249347
 10
173.9796189747448
 20
152.4820667237217
 10
173.9796189747448
 20
168.5676522909292
 10
169.5763096115626
 20
178.3267877564024
 10
159.6280172223464
 20
182.6226412881094
 10
146.514359072925
 20
187.3706899284172
 10
129.3309449460971
 20
187.3706899284172
 10
110.1636835021585
 20
178.2364921352687
 97
        0
 75
     0
 76
     1
 98
        0
  0
LINE
  5
1CA
330
E3
100
AcDbEntity
  8
Des_ Roofs
  6
Continuous
 48
0.999999999999998
100
AcDbLine
 10
93.94880798006905
 20
166.4343416609333
 30
0.0
 11
78.85793780152535
 21
138.467438885126
 31
0.0
  0
LINE
  5
1CB
330
E3
100
AcDbEntity
  8
Des_ Roofs
  6
Continuous
 48
0.999999999999998
100
AcDbLine
 10
78.85793780152535
 20
138.467438885126
 30
0.0
 11
79.30956748436438
 21
100.6098835140614
 31
0.0
  0
LINE
  5
1CC
330
E3
100
AcDbEntity
  8
Des_ Roofs
  6
Continuous
 48
0.999999999999998
100
AcDbLine
 10
79.30956748436438
 20
100.6098835140614
 30
0.0
 11
93.23566094526407
 21
74.51928959514557
 31
0.0
  0
LINE
  5
1CD
330
E3
100
AcDbEntity
  8
Des_ Roofs
  6
Continuous
 48
0.999999999999998
100
AcDbLine
 10
93.23566094526407
 20
74.51928959514557
 30
0.0
 11
113.4216514706979
 21
62.14722927487244
 31
0.0
  0
LINE
  5
1CE
330
E3
100
AcDbEntity
  8
Des_ Roofs
  6
Continuous
 48
0.999999999999998
100
AcDbLine
 10
113.4216514706979
 20
62.14722927487244
 30
0.0
 11
131.3285748575246
 21
62.14722927487244
 31
0.0
  0
LINE
  5
1CF
330
E3
100
AcDbEntity
  8
Des_ Roofs
  6
Continuous
 48
0.999999999999998
100
AcDbLine
 10
131.3285748575246
 20
62.14722927487244
 30
0.0
 11
137.8912107317599
 21
63.98591689221751
 31
0.0
  0
LINE
  5
1D0
330
E3
100
AcDbEntity
  8
Des_ Roofs
  6
Continuous
 48
0.999999999999998
100
AcDbLine
 10
137.8912107317599
 20
63.98591689221751
 30
0.0
 11
118.7052609286998
 21
68.81177837751055
 31
0.0
  0
LINE
  5
1D1
330
E3
100
AcDbEntity
  8
Des_ Roofs
  6
Continuous
 48
0.999999999999998
100
AcDbLine
 10
118.7052609286998
 20
68.81177837751055
 30
0.0
 11
118.5326752091477
 21
72.41334924934434
 31
0.0
  0
LINE
  5
1D2
330
E3
100
AcDbEntity
  8
Des_ Roofs
  6
Continuous
 48
0.999999999999998
100
AcDbLine
 10
118.5326752091477
 20
72.41334924934434
 30
0.0
 11
103.861444797838
 21
75.99794290731485
 31
0.0
  0
LINE
  5
1D3
330
E3
100
AcDbEntity
  8
Des_ Roofs
  6
Continuous
 48
0.999999999999998
100
AcDbLine
 10
103.861444797838
 20
75.99794290731485
 30
0.0
 11
103.2436390324533
 21
86.43921245614148
 31
0.0
  0
LINE
  5
1D4
330
E3
100
AcDbEntity
  8
Des_ Roofs
  6
Continuous
 48
0.999999999999998
100
AcDbLine
 10
103.2436390324533
 20
86.43921245614148
 30
0.0
 11
101.711814867844
 21
86.78055059934775
 31
0.0
  0
LINE
  5
1D5
330
E3
100
AcDbEntity
  8
Des_ Roofs
  6
Continuous
 48
0.999999999999998
100
AcDbLine
 10
101.711814867844
 20
86.78055059934775
 30
0.0
 11
101.5931866380008
 21
88.74679415522354
 31
0.0
  0
LINE
  5
1D6
330
E3
100
AcDbEntity
  8
Des_ Roofs
  6
Continuous
 48
0.999999999999998
100
AcDbLine
 10
101.5931866380008
 20
88.74679415522354
 30
0.0
 11
103.0768969040421
 21
89.25728844597329
 31
0.0
  0
LINE
  5
1D7
330
E3
100
AcDbEntity
  8
Des_ Roofs
  6
Continuous
 48
0.999999999999998
100
AcDbLine
 10
103.0768969040421
 20
89.25728844597329
 30
0.0
 11
114.5440788009778
 21
91.10660607170443
 31
0.0
  0
LINE
  5
1D8
330
E3
100
AcDbEntity
  8
Des_ Roofs
  6
Continuous
 48
0.999999999999998
100
AcDbLine
 10
114.5440788009778
 20
91.10660607170443
 30
0.0
 11
114.2632659443612
 21
92.02729215825656
 31
0.0
  0
LINE
  5
1D9
330
E3
100
AcDbEntity
  8
Des_ Roofs
  6
Continuous
 48
0.999999999999998
100
AcDbLine
 10
114.2632659443612
 20
92.02729215825656
 30
0.0
 11
115.716763512331
 21
93.38307189659143
 31
0.0
  0
LINE
  5
1DA
330
E3
100
AcDbEntity
  8
Des_ Roofs
  6
Continuous
 48
0.999999999999998
100
AcDbLine
 10
115.716763512331
 20
93.38307189659143
 30
0.0
 11
113.3715772221104
 21
93.85922468413314
 31
0.0
  0
LINE
  5
1DB
330
E3
100
AcDbEntity
  8
Des_ Roofs
  6
Continuous
 48
0.999999999999998
100
AcDbLine
 10
113.3715772221104
 20
93.85922468413314
 30
0.0
 11
113.3021283889351
 21
95.21879193524455
 31
0.0
  0
LINE
  5
1DC
330
E3
100
AcDbEntity
  8
Des_ Roofs
  6
Continuous
 48
0.999999999999998
100
AcDbLine
 10
113.3021283889351
 20
95.21879193524455
 30
0.0
 11
109.8950317308203
 21
98.24725385455888
 31
0.0
  0
LINE
  5
1DD
330
E3
100
AcDbEntity
  8
Des_ Roofs
  6
Continuous
 48
0.999999999999998
100
AcDbLine
 10
109.8950317308203
 20
98.24725385455888
 30
0.0
 11
105.498690842796
 21
100.9164597817625
 31
0.0
  0
LINE
  5
1DE
330
E3
100
AcDbEntity
  8
Des_ Roofs
  6
Continuous
 48
0.999999999999998
100
AcDbLine
 10
105.498690842796
 20
100.9164597817625
 30
0.0
 11
103.143507183686
 21
104.6847519714977
 31
0.0
  0
LINE
  5
1DF
330
E3
100
AcDbEntity
  8
Des_ Roofs
  6
Continuous
 48
0.999999999999998
100
AcDbLine
 10
103.143507183686
 20
104.6847519714977
 30
0.0
 11
103.143507183686
 21
120.3859735908296
 31
0.0
  0
LINE
  5
1E0
330
E3
100
AcDbEntity
  8
Des_ Roofs
  6
Continuous
 48
0.999999999999998
100
AcDbLine
 10
103.143507183686
 20
120.3859735908296
 30
0.0
 11
104.8706421445068
 21
128.2365802383936
 31
0.0
  0
LINE
  5
1E1
330
E3
100
AcDbEntity
  8
Des_ Roofs
  6
Continuous
 48
0.999999999999998
100
AcDbLine
 10
104.8706421445068
 20
128.2365802383936
 30
0.0
 11
106.283750675132
 21
133.4179851208559
 31
0.0
  0
LINE
  5
1E2
330
E3
100
AcDbEntity
  8
Des_ Roofs
  6
Continuous
 48
0.999999999999998
100
AcDbLine
 10
106.283750675132
 20
133.4179851208559
 30
0.0
 11
111.1511291273987
 21
140.0124943718415
 31
0.0
  0
LINE
  5
1E3
330
E3
100
AcDbEntity
  8
Des_ Roofs
  6
Continuous
 48
0.999999999999998
100
AcDbLine
 10
111.1511291273987
 20
140.0124943718415
 30
0.0
 11
117.1960952471185
 21
146.0574646536633
 31
0.0
  0
LINE
  5
1E4
330
E3
100
AcDbEntity
  8
Des_ Roofs
  6
Continuous
 48
0.999999999999998
100
AcDbLine
 10
117.1960952471185
 20
146.0574646536633
 30
0.0
 11
122.4560056966043
 21
148.0201163155543
 31
0.0
  0
LINE
  5
1E5
330
E3
100
AcDbEntity
  8
Des_ Roofs
  6
Continuous
 48
0.999999999999998
100
AcDbLine
 10
122.4560056966043
 20
148.0201163155543
 30
0.0
 11
129.5215525118323
 21
146.7640189189759
 31
0.0
  0
LINE
  5
1E6
330
E3
100
AcDbEntity
  8
Des_ Roofs
  6
Continuous
 48
0.999999999999998
100
AcDbLine
 10
129.5215525118323
 20
146.7640189189759
 30
0.0
 11
130.8561055302106
 21
145.4120350176215
 31
0.0
  0
LINE
  5
1E7
330
E3
100
AcDbEntity
  8
Des_ Roofs
  6
Continuous
 48
0.999999999999998
100
AcDbLine
 10
130.8561055302106
 20
145.4120350176215
 30
0.0
 11
136.2487578972597
 21
139.9489390750306
 31
0.0
  0
LINE
  5
1E8
330
E3
100
AcDbEntity
  8
Des_ Roofs
  6
Continuous
 48
0.999999999999998
100
AcDbLine
 10
136.2487578972597
 20
139.9489390750306
 30
0.0
 11
136.8136050774039
 21
138.598020671776
 31
0.0
  0
LINE
  5
1E9
330
E3
100
AcDbEntity
  8
Des_ Roofs
  6
Continuous
 48
0.999999999999998
100
AcDbLine
 10
136.8136050774039
 20
138.598020671776
 30
0.0
 11
136.9581340676959
 21
138.2523581046413
 31
0.0
  0
LINE
  5
1EA
330
E3
100
AcDbEntity
  8
Des_ Roofs
  6
Continuous
 48
0.999999999999998
100
AcDbLine
 10
136.9581340676959
 20
138.2523581046413
 30
0.0
 11
139.5703358465614
 21
132.0048765902307
 31
0.0
  0
LINE
  5
1EB
330
E3
100
AcDbEntity
  8
Des_ Roofs
  6
Continuous
 48
0.999999999999998
100
AcDbLine
 10
139.5703358465614
 20
132.0048765902307
 30
0.0
 11
137.3721633214982
 21
124.7823144788539
 31
0.0
  0
LINE
  5
1EC
330
E3
100
AcDbEntity
  8
Des_ Roofs
  6
Continuous
 48
0.999999999999998
100
AcDbLine
 10
137.3721633214982
 20
124.7823144788539
 30
0.0
 11
136.0949349333083
 21
119.8286348426072
 31
0.0
  0
LINE
  5
1ED
330
E3
100
AcDbEntity
  8
Des_ Roofs
  6
Continuous
 48
0.999999999999998
100
AcDbLine
 10
136.0949349333083
 20
119.8286348426072
 30
0.0
 11
173.9796188848976
 21
152.482068578754
 31
0.0
  0
LINE
  5
1EE
330
E3
100
AcDbEntity
  8
Des_ Roofs
  6
Continuous
 48
0.999999999999998
100
AcDbLine
 10
173.9796188848976
 20
152.482068578754
 30
0.0
 11
173.9796188848976
 21
168.5676519891726
 31
0.0
  0
LINE
  5
1EF
330
E3
100
AcDbEntity
  8
Des_ Roofs
  6
Continuous
 48
0.999999999999998
100
AcDbLine
 10
173.9796188848976
 20
168.5676519891726
 30
0.0
 11
169.5763106382051
 21
178.3267863248405
 31
0.0
  0
LINE
  5
1F0
330
E3
100
AcDbEntity
  8
Des_ Roofs
  6
Continuous
 48
0.999999999999998
100
AcDbLine
 10
169.5763106382051
 20
178.3267863248405
 30
0.0
 11
159.6280170930112
 21
182.6226415854316
 31
0.0
  0
LINE
  5
1F1
330
E3
100
AcDbEntity
  8
Des_ Roofs
  6
Continuous
 48
0.999999999999998
100
AcDbLine
 10
159.6280170930112
 20
182.6226415854316
 30
0.0
 11
146.5143576089875
 21
187.3706884126253
 31
0.0
  0
LINE
  5
1F2
330
E3
100
AcDbEntity
  8
Des_ Roofs
  6
Continuous
 48
0.999999999999998
100
AcDbLine
 10
146.5143576089875
 20
187.3706884126253
 30
0.0
 11
129.3309448908269
 21
187.3706884126253
 31
0.0
  0
LINE
  5
1F3
330
E3
100
AcDbEntity
  8
Des_ Roofs
  6
Continuous
 48
0.999999999999998
100
AcDbLine
 10
129.3309448908269
 20
187.3706884126253
 30
0.0
 11
110.1636829255325
 21
178.2364936850883
 31
0.0
  0
LINE
  5
1F4
330
E3
100
AcDbEntity
  8
Des_ Roofs
  6
Continuous
 48
0.999999999999998
100
AcDbLine
 10
110.1636829255325
 20
178.2364936850883
 30
0.0
 11
93.94880798006905
 21
166.4343416609333
 31
0.0
  0
HATCH
  5
1F5
330
E3
100
AcDbEntity
  8
Des_ Roofs
  6
Continuous
 62
   255
 48
0.999999999999998
370
    18
100
AcDbHatch
 10
0.0
 20
0.0
 30
0.0
210
0.0
220
0.0
230
1.0
  2
SOLID
 70
     1
 71
     0
 91
        1
 92
        3
 72
     0
 73
     1
 93
        9
 10
136.094936563771
 20
119.8286361249347
 10
139.5703344147855
 20
132.0048746496794
 10
136.2487578689311
 20
139.9489396407405
 10
129.5215542236581
 20
146.7640205553978
 10
122.4560056517716
 20
148.0201180792887
 10
129.0855618480383
 20
145.907959816722
 10
134.7411469565746
 20
138.7790815074202
 10
137.6121464972605
 20
131.86417333565
 10
134.0008871164135
 20
120.0272675873179
 97
        0
 75
     0
 76
     1
 98
        0
  0
LINE
  5
1F6
330
E3
100
AcDbEntity
  8
Des_ Roofs
  6
Continuous
 48
0.999999999999998
100
AcDbLine
 10
139.5703358465614
 20
132.0048765902307
 30
0.0
 11
136.0949349333083
 21
119.8286348426072
 31
0.0
  0
LINE
  5
1F7
330
E3
100
AcDbEntity
  8
Des_ Roofs
  6
Continuous
 48
0.999999999999998
100
AcDbLine
 10
136.2487578972597
 20
139.9489390750306
 30
0.0
 11
139.5703358465614
 21
132.0048765902307
 31
0.0
  0
LINE
  5
1F8
330
E3
100
AcDbEntity
  8
Des_ Roofs
  6
Continuous
 48
0.999999999999998
100
AcDbLine
 10
129.5215525118323
 20
146.7640189189759
 30
0.0
 11
136.2487578972597
 21
139.9489390750306
 31
0.0
  0
LINE
  5
1F9
330
E3
100
AcDbEntity
  8
Des_ Roofs
  6
Continuous
 48
0.999999999999998
100
AcDbLine
 10
122.4560056966043
 20
148.0201163155543
 30
0.0
 11
129.5215525118323
 21
146.7640189189759
 31
0.0
  0
LINE
  5
1FA
330
E3
100
AcDbEntity
  8
Des_ Roofs
  6
Continuous
 48
0.999999999999998
100
AcDbLine
 10
129.0855598460279
 20
145.9079577894364
 30
0.0
 11
122.4560056966043
 21
148.0201163155543
 31
0.0
  0
LINE
  5
1FB
330
E3
100
AcDbEntity
  8
Des_ Roofs
  6
Continuous
 48
0.999999999999998
100
AcDbLine
 10
134.7411488418085
 20
138.7790804309029
 30
0.0
 11
129.0855598460279
 21
145.9079577894364
 31
0.0
  0
LINE
  5
1FC
330
E3
100
AcDbEntity
  8
Des_ Roofs
  6
Continuous
 48
0.999999999999998
100
AcDbLine
 10
137.6121459579632
 20
131.8641725716328
 30
0.0
 11
134.7411488418085
 21
138.7790804309029
 31
0.0
  0
LINE
  5
1FD
330
E3
100
AcDbEntity
  8
Des_ Roofs
  6
Continuous
 48
0.999999999999998
100
AcDbLine
 10
134.0008857127846
 20
120.0272669961766
 30
0.0
 11
137.6121459579632
 21
131.8641725716328
 31
0.0
  0
LINE
  5
1FE
330
E3
100
AcDbEntity
  8
Des_ Roofs
  6
Continuous
 48
0.999999999999998
100
AcDbLine
 10
136.0949349333083
 20
119.8286348426072
 30
0.0
 11
134.0008857127846
 21
120.0272669961766
 31
0.0
  0
HATCH
  5
1FF
330
E3
100
AcDbEntity
  8
Des_ Roofs
  6
Continuous
 62
   255
 48
0.999999999999998
370
    18
100
AcDbHatch
 10
0.0
 20
0.0
 30
0.0
210
0.0
220
0.0
230
1.0
  2
SOLID
 70
     1
 71
     0
 91
        1
 92
        3
 72
     0
 73
     1
 93
        5
 10
195.144608508143
 20
142.3095303943727
 10
170.4783240049851
 20
145.0187865798276
 10
115.6627127292365
 20
97.9905945664144
 10
139.2576740413967
 20
89.78146372939666
 10
140.6949140075142
 20
88.2536786335354
 97
        0
 75
     0
 76
     1
 98
        0
  0
LINE
  5
200
330
E3
100
AcDbEntity
  8
Des_ Roofs
  6
Continuous
 48
0.999999999999998
100
AcDbLine
 10
195.1446065452346
 20
142.3095293045766
 30
0.0
 11
170.4783255353994
 21
145.0187871388667
 31
0.0
  0
LINE
  5
201
330
E3
100
AcDbEntity
  8
Des_ Roofs
  6
Continuous
 48
0.999999999999998
100
AcDbLine
 10
170.4783255353994
 20
145.0187871388667
 30
0.0
 11
115.6627144563791
 21
97.9905936755712
 31
0.0
  0
LINE
  5
202
330
E3
100
AcDbEntity
  8
Des_ Roofs
  6
Continuous
 48
0.999999999999998
100
AcDbLine
 10
115.6627144563791
 20
97.9905936755712
 30
0.0
 11
139.2576745858062
 21
89.78146356584008
 31
0.0
  0
LINE
  5
203
330
E3
100
AcDbEntity
  8
Des_ Roofs
  6
Continuous
 48
0.999999999999998
100
AcDbLine
 10
139.2576745858062
 20
89.78146356584008
 30
0.0
 11
140.6949149835505
 21
88.25367664012444
 31
0.0
  0
LINE
  5
204
330
E3
100
AcDbEntity
  8
Des_ Roofs
  6
Continuous
 48
0.999999999999998
100
AcDbLine
 10
140.6949149835505
 20
88.25367664012444
 30
0.0
 11
195.1446065452346
 21
142.3095293045766
 31
0.0
  0
HATCH
  5
205
330
E3
100
AcDbEntity
  8
Des_ Roofs
  6
Continuous
 62
   255
 48
0.999999999999998
370
    18
100
AcDbHatch
 10
0.0
 20
0.0
 30
0.0
210
0.0
220
0.0
230
1.0
  2
SOLID
 70
     1
 71
     0
 91
        1
 92
        3
 72
     0
 73
     1
 93
        5
 10
191.0758113102873
 20
142.8693564215544
 10
195.0251439506338
 20
144.309673669757
 10
188.4106738440135
 20
148.2015236233371
 10
175.2664817782732
 20
145.5900010389274
 10
172.9363682621363
 20
144.8886833095615
 97
        0
 75
     0
 76
     1
 98
        0
  0
LINE
  5
206
330
E3
100
AcDbEntity
  8
Des_ Roofs
  6
Continuous
 62
   255
 48
0.999999999999998
370
    18
100
AcDbLine
 10
195.0251458950011
 20
144.3096731808535
 30
0.0
 11
191.0758105945468
 21
142.8693569897664
 31
0.0
  0
LINE
  5
207
330
E3
100
AcDbEntity
  8
Des_ Roofs
  6
Continuous
 62
   255
 48
0.999999999999998
370
    18
100
AcDbLine
 10
188.4106752030525
 20
148.2015256912452
 30
0.0
 11
195.0251458950011
 21
144.3096731808535
 31
0.0
  0
LINE
  5
208
330
E3
100
AcDbEntity
  8
Des_ Roofs
  6
Continuous
 62
   255
 48
0.999999999999998
370
    18
100
AcDbLine
 10
175.266482539107
 20
145.5900023349978
 30
0.0
 11
188.4106752030525
 21
148.2015256912452
 31
0.0
  0
LINE
  5
209
330
E3
100
AcDbEntity
  8
Des_ Roofs
  6
Continuous
 62
   255
 48
0.999999999999998
370
    18
100
AcDbLine
 10
172.9363672200555
 20
144.8886839939412
 30
0.0
 11
175.266482539107
 21
145.5900023349978
 31
0.0
  0
LINE
  5
20A
330
E3
100
AcDbEntity
  8
Des_ Roofs
  6
Continuous
 62
   255
 48
0.999999999999998
370
    18
100
AcDbLine
 10
191.0758105945468
 20
142.8693569897664
 30
0.0
 11
172.9363672200555
 21
144.8886839939412
 31
0.0
  0
LINE
  5
20B
330
E3
100
AcDbEntity
  8
Des_ Roofs
  6
Continuous
 48
0.999999999999998
100
AcDbLine
 10
103.0768969040421
 20
89.25728844597329
 30
0.0
 11
114.5440788009778
 21
91.10660607170443
 31
0.0
  0
LINE
  5
20C
330
E3
100
AcDbEntity
  8
Des_ Roofs
  6
Contour Line
 48
0.999999999999998
100
AcDbLine
 10
110.3181135563689
 20
98.39107944962095
 30
0.0
 11
110.3181135563689
 21
90.42508268753268
 31
0.0
  0
LINE
  5
20D
330
E3
100
AcDbEntity
  8
Des_ Roofs
  6
Contour Line
 48
0.999999999999998
100
AcDbLine
 10
124.8289823415602
 20
67.9431601863811
 30
0.0
 11
117.8070876516074
 21
69.74878822791943
 31
0.0
  0
LINE
  5
20E
330
E3
100
AcDbEntity
  8
Des_ Roofs
  6
Contour Line
 48
0.999999999999998
100
AcDbLine
 10
117.8070876516074
 20
69.74878822791943
 30
0.0
 11
111.9889477640815
 21
65.8365913631851
 31
0.0
  0
LINE
  5
20F
330
E3
100
AcDbEntity
  8
Des_ Roofs
  6
Contour Line
 48
0.999999999999998
100
AcDbLine
 10
124.8289823415602
 20
90.25350835875493
 30
0.0
 11
117.8070876516074
 21
92.0591405623952
 31
0.0
  0
LINE
  5
210
330
E3
100
AcDbEntity
  8
Des_ Roofs
  6
Contour Line
 48
0.999999999999998
100
AcDbLine
 10
117.8070876516074
 20
92.0591405623952
 30
0.0
 11
111.9889477640815
 21
88.14693953555891
 31
0.0
  0
LINE
  5
211
330
E3
100
AcDbEntity
  8
Des_ Roofs
  6
Contour Line
 48
0.999999999999998
100
AcDbLine
 10
117.8070876516074
 20
69.74878822791943
 30
0.0
 11
117.8070876516074
 21
92.0591405623952
 31
0.0
  0
LINE
  5
212
330
E3
100
AcDbEntity
  8
Des_ Roofs
  6
Contour Line
 48
0.999999999999998
100
AcDbLine
 10
111.9889477640815
 20
65.8365913631851
 30
0.0
 11
111.9889477640815
 21
88.14693953555891
 31
0.0
  0
LINE
  5
213
330
E3
100
AcDbEntity
  8
Des_ Roofs
  6
Contour Line
 48
0.999999999999998
100
AcDbLine
 10
124.8289823415602
 20
90.25350835875493
 30
0.0
 11
124.8289823415602
 21
67.9431601863811
 31
0.0
  0
LINE
  5
214
330
E3
100
AcDbEntity
  8
Des_ Roofs
  6
Continuous
 48
0.999999999999998
100
AcDbLine
 10
97.11431959246715
 20
84.15620380698552
 30
0.0
 11
100.7019723953726
 21
83.32906512391223
 31
0.0
  0
LINE
  5
215
330
E3
100
AcDbEntity
  8
Des_ Roofs
  6
Continuous
 48
0.999999999999998
100
AcDbLine
 10
100.7019723953726
 20
83.32906512391223
 30
0.0
 11
101.937234309578
 21
83.04427329782929
 31
0.0
  0
LINE
  5
216
330
E3
100
AcDbEntity
  8
Des_ Roofs
  6
Continuous
 48
0.999999999999998
100
AcDbLine
 10
98.8812692205632
 20
78.98837570109143
 30
0.0
 11
102.552921565069
 21
87.74186712515777
 31
0.0
  0
LINE
  5
217
330
E3
100
AcDbEntity
  8
Des_ Roofs
  6
Continuous
 48
0.999999999999998
100
AcDbLine
 10
103.8033168819728
 20
87.46624440967565
 30
0.0
 11
100.1017307002264
 21
78.69474773256385
 31
0.0
  0
LINE
  5
218
330
E3
100
AcDbEntity
  8
Des_ Roofs
  6
Continuous
 48
0.999999999999998
100
AcDbLine
 10
101.937234309578
 20
83.04427329782929
 30
0.0
 11
105.5987769084418
 21
82.20009496936348
 31
0.0
  0
LINE
  5
219
330
E3
100
AcDbEntity
  8
Des_ Roofs
  6
Continuous
 48
0.999999999999998
100
AcDbLine
 10
101.1469177424763
 20
76.06730849845111
 30
0.0
 11
100.2519825807028
 21
90.67311482917331
 31
0.0
  0
LINE
  5
21A
330
E3
100
AcDbEntity
  8
Des_ Roofs
  6
Continuous
 48
0.999999999999998
100
AcDbLine
 10
102.3763901728661
 20
75.76538129863074
 30
0.0
 11
101.4930922481511
 21
90.40586210071716
 31
0.0
  0
MTEXT
  5
21B
330
E3
100
AcDbEntity
  8
0
  6
Continuous
100
AcDbMText
 10
98.59213118308456
 20
91.27240362947154
 30
0.0
 40
2.5
 41
0.0
 71
     7
 72
     1
  1
{10}
  7
GENERATED_STYLE_3
 73
     1
 44
1.0
  0
MTEXT
  5
21C
330
E3
100
AcDbEntity
  8
0
  6
Continuous
100
AcDbMText
 10
203.0376565583614
 20
183.4178218957862
 30
0.0
 40
2.499999999999994
 41
0.0
 71
     4
 72
     1
  1
{HEM TO FLASHING EDGE}
  7
GENERATED_STYLE_1
 73
     1
 44
1.0
  0
LINE
  5
21D
330
E3
100
AcDbEntity
  8
Des_ Roofs
  6
Continuous
 48
0.999999999999998
100
AcDbLine
 10
168.2465981443972
 20
166.4731074785166
 30
0.0
 11
170.5200214727571
 21
169.5971645554703
 31
0.0
  0
LINE
  5
21E
330
E3
100
AcDbEntity
  8
Des_ Roofs
  6
Continuous
 48
0.999999999999998
100
AcDbLine
 10
168.2465981443972
 20
166.4731074785166
 30
0.0
 11
171.77747155247
 21
168.0419077568698
 31
0.0
  0
LINE
  5
21F
330
E3
100
AcDbEntity
  8
Des_ Roofs
  6
Continuous
 48
0.999999999999998
100
AcDbLine
 10
170.5200214727571
 20
169.5971645554703
 30
0.0
 11
171.77747155247
 21
168.0419077568698
 31
0.0
  0
LWPOLYLINE
  5
220
330
E3
100
AcDbEntity
  8
Des_ Roofs
  6
Continuous
 48
0.999999999999998
100
AcDbPolyline
 90
       11
 70
   128
 43
0.0
 10
171.1487473116148
 20
168.8195376986458
 10
176.0319084624546
 20
172.5780305461289
 10
180.4607965982227
 20
175.7032509549803
 10
184.5165414414554
 20
178.2359270255667
 10
188.280272714689
 20
180.2167868582547
 10
191.83312014046
 20
181.6865585534109
 10
193.5558154488397
 20
182.2425138807792
 10
195.2562134413049
 20
182.685970211402
 10
196.9444553331726
 20
183.0220185578251
 10
198.6306823397599
 20
183.2557499325944
 10
202.0376565583614
 20
183.4366258173548
  0
MTEXT
  5
221
330
E3
100
AcDbEntity
  8
0
  6
Continuous
100
AcDbMText
 10
66.27371153339308
 20
162.1239166320267
 30
0.0
 40
2.499999999999995
 41
56.71228972547941
 71
     6
 72
     1
  1
{CLADDING ON CAVITY BATTENS WITH BUILDING WRAP OVER METAL HIDDEN GUTTER}
  7
GENERATED_STYLE_1
 73
     1
 44
1.065340909090909
  0
LINE
  5
222
330
E3
100
AcDbEntity
  8
Des_ Roofs
  6
Continuous
 48
0.999999999999998
100
AcDbLine
 10
105.8033442193951
 20
152.3379599607592
 30
0.0
 11
101.9608958591766
 21
152.7426744303924
 31
0.0
  0
LINE
  5
223
330
E3
100
AcDbEntity
  8
Des_ Roofs
  6
Continuous
 48
0.999999999999998
100
AcDbLine
 10
105.8033442193951
 20
152.3379599607592
 30
0.0
 11
102.6780468360596
 21
154.6096768273186
 31
0.0
  0
LINE
  5
224
330
E3
100
AcDbEntity
  8
Des_ Roofs
  6
Continuous
 48
0.999999999999998
100
AcDbLine
 10
101.9608958591766
 20
152.7426744303924
 30
0.0
 11
102.6780468360596
 21
154.6096768273186
 31
0.0
  0
LWPOLYLINE
  5
225
330
E3
100
AcDbEntity
  8
Des_ Roofs
  6
Continuous
 48
0.999999999999998
100
AcDbPolyline
 90
        9
 70
   128
 43
0.0
 10
102.3194725252008
 20
153.6761767694403
 10
96.41464544525685
 20
155.8533092889137
 10
91.13081924236555
 20
157.6635638815979
 10
86.37522304313886
 20
159.130548161114
 10
82.05508597418876
 20
160.277869741083
 10
78.07763716212715
 20
161.129136235126
 10
74.35010573356605
 20
161.707955256864
 10
70.77972081511739
 20
162.037934419918
 10
67.27371153339308
 20
162.1426813379091
  0
MTEXT
  5
226
330
E3
100
AcDbEntity
  8
0
  6
Continuous
100
AcDbMText
 10
107.2513939797411
 20
37.83378404406685
 30
0.0
 40
2.499999999999995
 41
0.0
 71
     6
 72
     1
  1
{GUTTER}
  7
GENERATED_STYLE_1
 73
     1
 44
1.0
  0
LINE
  5
227
330
E3
100
AcDbEntity
  8
Des_ Roofs
  6
Continuous
 48
0.999999999999998
100
AcDbLine
 10
160.8684941209628
 20
65.93373898485264
 30
0.0
 11
158.4221354564867
 21
62.94316467960969
 31
0.0
  0
LINE
  5
228
330
E3
100
AcDbEntity
  8
Des_ Roofs
  6
Continuous
 48
0.999999999999998
100
AcDbLine
 10
160.8684941209628
 20
65.93373898485264
 30
0.0
 11
157.2545992652484
 21
64.56700459417944
 31
0.0
  0
LINE
  5
229
330
E3
100
AcDbEntity
  8
Des_ Roofs
  6
Continuous
 48
0.999999999999998
100
AcDbLine
 10
158.4221354564867
 20
62.94316467960969
 30
0.0
 11
157.2545992652484
 21
64.56700459417944
 31
0.0
  0
LWPOLYLINE
  5
22A
330
E3
100
AcDbEntity
  8
Des_ Roofs
  6
Continuous
 48
0.999999999999998
100
AcDbPolyline
 90
       13
 70
   128
 43
0.0
 10
157.8383676664313
 20
63.75508565125952
 10
148.3454361038879
 20
57.08100773450603
 10
140.0705933299502
 20
51.53643757581235
 10
132.8754463577022
 20
47.04751639701293
 10
126.6216022002276
 20
43.54038541994224
 10
123.8044208686191
 20
42.13191038887842
 10
121.1706678706104
 20
40.94118586643471
 10
118.703044082837
 20
39.95897950534039
 10
116.3842503819343
 20
39.17605895832477
 10
114.196987644538
 20
38.58319187811716
 10
112.1239567472833
 20
38.17114591744689
 10
110.1478585668059
 20
37.93068872904322
 10
108.2513939797411
 20
37.85258796563548
  0
MTEXT
  5
22B
330
E3
100
AcDbEntity
  8
0
  6
Continuous
100
AcDbMText
 10
66.27371153339307
 20
119.1651625314388
 30
0.0
 40
2.499999999999995
 41
45.30613427755453
 71
     6
 72
     1
  1
{TAPERED STOP END TO DIVERT APRON FLASHING WATER INTO GUTTER}
  7
GENERATED_STYLE_1
 73
     1
 44
1.065340909090909
  0
LINE
  5
22C
330
E3
100
AcDbEntity
  8
Des_ Roofs
  6
Continuous
 48
0.999999999999998
100
AcDbLine
 10
120.3387152987793
 20
94.38608435975915
 30
0.0
 11
116.64609844674
 21
95.52308320897382
 31
0.0
  0
LINE
  5
22D
330
E3
100
AcDbEntity
  8
Des_ Roofs
  6
Continuous
 48
0.999999999999998
100
AcDbLine
 10
120.3387152987793
 20
94.38608435975915
 30
0.0
 11
117.709315714647
 21
97.21706702774489
 31
0.0
  0
LINE
  5
22E
330
E3
100
AcDbEntity
  8
Des_ Roofs
  6
Continuous
 48
0.999999999999998
100
AcDbLine
 10
116.64609844674
 20
95.52308320897382
 30
0.0
 11
117.709315714647
 21
97.21706702774489
 31
0.0
  0
LWPOLYLINE
  5
22F
330
E3
100
AcDbEntity
  8
Des_ Roofs
  6
Continuous
 48
0.999999999999998
100
AcDbPolyline
 90
       13
 70
   128
 43
0.0
 10
117.1777056331011
 20
96.37007501051951
 10
107.6010345249143
 20
102.2478566557559
 10
99.25643187929641
 20
107.1310643828012
 10
92.0048165857805
 20
111.08469227691
 10
85.7071075338998
 20
114.1737344233371
 10
82.87250500155179
 20
115.4143464928121
 10
80.22422361318752
 20
116.4631849073371
 10
77.74487822999865
 20
117.328373927569
 10
75.41708371317685
 20
118.0180378141647
 10
73.22345492391372
 20
118.5403008277809
 10
71.14660672340095
 20
118.9032872290745
 10
69.16915397283019
 20
119.1151212787023
 10
67.27371153339307
 20
119.1839272373211
  0
MTEXT
  5
230
330
E3
100
AcDbEntity
  8
0
  6
Continuous
100
AcDbMText
 10
66.27371153339307
 20
82.26444747569191
 30
0.0
 40
2.499999999999995
 41
45.30613427755453
 71
     6
 72
     1
  1
{STOP GUTTER MIN. 10MM CLEAR OF FINISHED WALL CALDDING}
  7
GENERATED_STYLE_1
 73
     1
 44
1.065340909090909
  0
LINE
  5
231
330
E3
100
AcDbEntity
  8
Des_ Roofs
  6
Continuous
 48
0.999999999999998
100
AcDbLine
 10
100.7019723953726
 20
83.32906512391223
 30
0.0
 11
97.02681556102299
 21
82.13682685758727
 31
0.0
  0
LINE
  5
232
330
E3
100
AcDbEntity
  8
Des_ Roofs
  6
Continuous
 48
0.999999999999998
100
AcDbLine
 10
100.7019723953726
 20
83.32906512391223
 30
0.0
 11
96.92307516986307
 21
84.13413634243469
 31
0.0
  0
LINE
  5
233
330
E3
100
AcDbEntity
  8
Des_ Roofs
  6
Continuous
 48
0.999999999999998
100
AcDbLine
 10
97.02681556102299
 20
82.13682685758727
 30
0.0
 11
96.92307516986307
 21
84.13413634243469
 31
0.0
  0
LWPOLYLINE
  5
234
330
E3
100
AcDbEntity
  8
Des_ Roofs
  6
Continuous
 48
0.999999999999998
100
AcDbPolyline
 90
        4
 70
   128
 43
0.0
 10
96.97494495117789
 20
83.13548181191227
 10
80.95310878231376
 20
82.4714282286554
 10
74.11847391823645
 20
82.32715977328164
 10
67.27371153339307
 20
82.28321218157427
  0
MTEXT
  5
235
330
E3
100
AcDbEntity
  8
0
  6
Continuous
100
AcDbMText
 10
66.27371153339307
 20
45.87961320782335
 30
0.0
 40
2.499999999999995
 41
45.30613427755453
 71
     6
 72
     1
  1
{TRANSITION TRAY FLASHING BEHIND FASCIA EXTENDED TO UNDERSIDE OF ROOFING}
  7
GENERATED_STYLE_1
 73
     1
 44
1.063743213550809
  0
LINE
  5
236
330
E3
100
AcDbEntity
  8
Des_ Roofs
  6
Continuous
 48
0.999999999999998
100
AcDbLine
 10
114.5093918433077
 20
70.38282619091792
 30
0.0
 11
112.0777878302524
 21
67.38024005944077
 31
0.0
  0
LINE
  5
237
330
E3
100
AcDbEntity
  8
Des_ Roofs
  6
Continuous
 48
0.999999999999998
100
AcDbLine
 10
114.5093918433077
 20
70.38282619091792
 30
0.0
 11
110.9022687274696
 21
68.9983113007047
 31
0.0
  0
LINE
  5
238
330
E3
100
AcDbEntity
  8
Des_ Roofs
  6
Continuous
 48
0.999999999999998
100
AcDbLine
 10
112.0777878302524
 20
67.38024005944077
 30
0.0
 11
110.9022687274696
 21
68.9983113007047
 31
0.0
  0
LWPOLYLINE
  5
239
330
E3
100
AcDbEntity
  8
Des_ Roofs
  6
Continuous
 48
0.999999999999998
100
AcDbPolyline
 90
       13
 70
   128
 43
0.0
 10
111.4900294147844
 20
68.18927706406126
 10
103.3700801887121
 20
62.44805499635679
 10
96.23512370307718
 20
57.67763817204078
 10
89.96307922921781
 20
53.81474642983753
 10
84.43186603847228
 20
50.7960996084713
 10
81.90592094656039
 20
49.58359299270342
 10
79.51940340217881
 20
48.55841754666641
 10
77.25705331424477
 20
47.7126632502008
 10
75.10361059167562
 20
47.03842008314712
 10
73.04381514338857
 20
46.52777802534593
 10
71.06240687830095
 20
46.17282705663775
 10
69.14412570533001
 20
45.96565715686311
 10
67.27371153339307
 20
45.89835830586256
  0
MTEXT
  5
23A
330
E3
100
AcDbEntity
  8
0
  6
Continuous
100
AcDbMText
 10
156.503053690061
 20
120.7086043941708
 30
0.0
 40
2.499999999999995
 41
0.0
 71
     6
 72
     1
  1
{FALL}
  7
GENERATED_STYLE_1
 11
0.9558702914966308
 21
-0.2937890158500585
 31
0.0
 73
     1
 44
1.0
  0
LINE
  5
23B
330
E3
100
AcDbEntity
  8
Des_ Roofs
  6
Continuous
 48
0.999999999999998
100
AcDbLine
 10
167.0198185939705
 20
117.4959223719374
 30
0.0
 11
157.4644482835791
 21
120.4327889135885
 31
0.0
  0
LINE
  5
23C
330
E3
100
AcDbEntity
  8
Des_ Roofs
  6
Continuous
 48
0.999999999999998
100
AcDbLine
 10
170.5871728256548
 20
116.3994873683494
 30
0.0
 11
166.7260283034668
 21
116.5400540375829
 31
0.0
  0
LINE
  5
23D
330
E3
100
AcDbEntity
  8
Des_ Roofs
  6
Continuous
 48
0.999999999999998
100
AcDbLine
 10
170.5871728256548
 20
116.3994873683494
 30
0.0
 11
167.3136088844742
 21
118.4517948683939
 31
0.0
  0
LINE
  5
23E
330
E3
100
AcDbEntity
  8
Des_ Roofs
  6
Continuous
 48
0.999999999999998
100
AcDbLine
 10
166.7260283034668
 20
116.5400540375829
 30
0.0
 11
167.3136088844742
 21
118.4517948683939
 31
0.0
  0
ENDBLK
  5
E5
330
E3
100
AcDbEntity
  8
0
100
AcDbBlockEnd
  0
BLOCK
  5
247
330
246
100
AcDbEntity
  8
0
100
AcDbBlockBegin
  2
R-TRS5-10 APRON DETAIL - KICKOU_STORY_MARKER
 70
     0
 10
0.0
 20
0.0
 30
0.0
  3
R-TRS5-10 APRON DETAIL - KICKOU_STORY_MARKER
  1

  0
ENDBLK
  5
248
330
246
100
AcDbEntity
  8
0
100
AcDbBlockEnd
  0
ENDSEC
  0
SECTION
  2
ENTITIES
  0
HATCH
  5
3F
330
1F
100
AcDbEntity
  8
Doc_ Finishes
  6
Continuous
100
AcDbHatch
 10
0.0
 20
0.0
 30
0.0
210
0.0
220
0.0
230
1.0
  2
SOLID
 70
     1
 71
     0
 91
        1
 92
        3
 72
     0
 73
     1
 93
       54
 10
27.4117749414874
 20
16.87044408857867
 10
26.89356552397386
 20
16.5825499677378
 10
26.5480925789648
 20
16.29465584689693
 10
26.12584786839819
 20
16.02595466744544
 10
25.76118198199976
 20
15.60370995687884
 10
25.39651609560134
 20
15.33500877742737
 10
25.07023609198168
 20
14.89357112547136
 10
24.49444785029994
 20
14.45213347351537
 10
23.93785255000758
 20
14.02988876294876
 10
23.43883607388344
 20
13.81876640766546
 10
22.74789018386533
 20
13.39652169709885
 10
22.09533017662603
 20
12.99346992792163
 10
21.63469958328064
 20
12.55203227596564
 10
20.90536781048376
 20
12.12978756539902
 10
20.59828074825351
 20
11.7459287376112
 10
20.04168544796116
 20
11.28529814426581
 10
19.36993249933246
 20
10.8630534336992
 10
18.73656543348255
 20
10.42161578174319
 10
18.04561954346447
 20
10.15291460229172
 10
17.1051654153843
 20
9.692284008946325
 10
16.39502658397681
 20
9.020531060317637
 10
15.83843128368446
 20
8.598286349751023
 10
15.12829245227699
 20
8.137655756405634
 10
14.84039833143612
 20
7.98411222529051
 10
14.37976773809073
 20
7.81137575278599
 10
14.07268067586046
 20
7.523481631945121
 10
14.0151018516923
 20
7.216394569714853
 10
14.14945244141803
 20
6.890114566095209
 10
14.4373465622589
 20
6.563834562475543
 10
14.8787842142149
 20
6.659799269422514
 10
15.51215128006482
 20
7.06285103859973
 10
16.01116775618899
 20
7.389131042219374
 10
16.33744775980864
 20
7.696218104449641
 10
16.51018423231316
 20
7.907340459732938
 10
17.01303929671522
 20
8.421711288968723
 10
17.33548071205699
 20
8.652026585641417
 10
17.75004824606785
 20
8.99749953065046
 10
18.14158425041142
 20
9.204783297655894
 10
19.24709767444037
 20
9.75754000967037
 10
20.23745345013295
 20
10.47151742935572
 10
21.4120614631637
 20
11.1624633193738
 10
21.84966052684182
 20
11.64612544238645
 10
22.49454335752537
 20
12.06069297639732
 10
23.78430901889248
 20
12.9819541630881
 10
24.3600972605742
 20
13.25833251909534
 10
25.6498629219413
 20
14.24868829478776
 10
25.85714668894673
 20
14.64022429913134
 10
26.68628175696843
 20
15.23904407048036
 10
27.28510152831745
 20
15.72270619349301
 10
27.81482671066464
 20
16.1142421978366
 10
28.27545730401003
 20
16.52880973184745
 10
28.22939424467549
 20
16.7821565581874
 10
28.09120506667188
 20
16.89731420652375
 10
27.56147988432467
 20
16.89731420652375
 97
        0
 75
     0
 76
     1
 98
        0
  0
LINE
  5
41
330
1F
100
AcDbEntity
  8
Doc_ Finishes
  6
Continuous
100
AcDbLine
 10
27.41177566876475
 20
16.87044600708104
 30
0.0
 11
26.89356756490952
 21
16.58254868214004
 31
0.0
  0
LINE
  5
42
330
1F
100
AcDbEntity
  8
Doc_ Finishes
  6
Continuous
100
AcDbLine
 10
26.89356756490952
 20
16.58254868214004
 30
0.0
 11
26.54809254523997
 21
16.29465578284815
 31
0.0
  0
LINE
  5
43
330
1F
100
AcDbEntity
  8
Doc_ Finishes
  6
Continuous
100
AcDbLine
 10
26.54809254523997
 20
16.29465578284815
 30
0.0
 11
26.12584579071597
 21
16.02595249803305
 31
0.0
  0
LINE
  5
44
330
1F
100
AcDbEntity
  8
Doc_ Finishes
  6
Continuous
100
AcDbLine
 10
26.12584579071597
 20
16.02595249803305
 30
0.0
 11
25.76118115656963
 21
15.60371016915814
 31
0.0
  0
LINE
  5
45
330
1F
100
AcDbEntity
  8
Doc_ Finishes
  6
Continuous
100
AcDbLine
 10
25.76118115656963
 20
15.60371016915814
 30
0.0
 11
25.39651652242329
 21
15.33500688434304
 31
0.0
  0
LINE
  5
46
330
1F
100
AcDbEntity
  8
Doc_ Finishes
  6
Continuous
100
AcDbLine
 10
25.39651652242329
 20
15.33500688434304
 30
0.0
 11
25.07023554287962
 21
14.89357051534225
 31
0.0
  0
LINE
  5
47
330
1F
100
AcDbEntity
  8
Doc_ Finishes
  6
Continuous
100
AcDbLine
 10
25.07023554287962
 20
14.89357051534225
 30
0.0
 11
24.49444974429583
 21
14.45213414634146
 31
0.0
  0
LINE
  5
48
330
1F
100
AcDbEntity
  8
Doc_ Finishes
  6
Continuous
100
AcDbLine
 10
24.49444974429583
 20
14.45213414634146
 30
0.0
 11
23.93785356018882
 21
14.02988739181747
 31
0.0
  0
LINE
  5
49
330
1F
100
AcDbEntity
  8
Doc_ Finishes
  6
Continuous
100
AcDbLine
 10
23.93785356018882
 20
14.02988739181747
 30
0.0
 11
23.43883507081038
 21
13.81876622738001
 31
0.0
  0
LINE
  5
4A
330
1F
100
AcDbEntity
  8
Doc_ Finishes
  6
Continuous
100
AcDbLine
 10
23.43883507081038
 20
13.81876622738001
 30
0.0
 11
22.74788945712038
 21
13.39652389850511
 31
0.0
  0
LINE
  5
4B
330
1F
100
AcDbEntity
  8
Doc_ Finishes
  6
Continuous
100
AcDbLine
 10
22.74788945712038
 20
13.39652389850511
 30
0.0
 11
22.09533192368214
 21
12.993471184107
 31
0.0
  0
LINE
  5
4C
330
1F
100
AcDbEntity
  8
Doc_ Finishes
  6
Continuous
100
AcDbLine
 10
22.09533192368214
 20
12.993471184107
 30
0.0
 11
21.63470151455547
 21
12.55203038945712
 31
0.0
  0
LINE
  5
4D
330
1F
100
AcDbEntity
  8
Doc_ Finishes
  6
Continuous
100
AcDbLine
 10
21.63470151455547
 20
12.55203038945712
 30
0.0
 11
20.90536782061369
 21
12.12978806058222
 31
0.0
  0
LINE
  5
4E
330
1F
100
AcDbEntity
  8
Doc_ Finishes
  6
Continuous
100
AcDbLine
 10
20.90536782061369
 20
12.12978806058222
 30
0.0
 11
20.59828088119591
 21
11.74592938630999
 31
0.0
  0
LINE
  5
4F
330
1F
100
AcDbEntity
  8
Doc_ Finishes
  6
Continuous
100
AcDbLine
 10
20.59828088119591
 20
11.74592938630999
 30
0.0
 11
20.0416846970889
 21
11.28529897718332
 31
0.0
  0
LINE
  5
50
330
1F
100
AcDbEntity
  8
Doc_ Finishes
  6
Continuous
100
AcDbLine
 10
20.0416846970889
 20
11.28529897718332
 30
0.0
 11
19.36993312352478
 21
10.86305222265932
 31
0.0
  0
LINE
  5
51
330
1F
100
AcDbEntity
  8
Doc_ Finishes
  6
Continuous
100
AcDbLine
 10
19.36993312352478
 20
10.86305222265932
 30
0.0
 11
18.73656520456333
 21
10.42161585365854
 31
0.0
  0
LINE
  5
52
330
1F
100
AcDbEntity
  8
Doc_ Finishes
  6
Continuous
100
AcDbLine
 10
18.73656520456333
 20
10.42161585365854
 30
0.0
 11
18.04561959087333
 21
10.15291256884343
 31
0.0
  0
LINE
  5
53
330
1F
100
AcDbEntity
  8
Doc_ Finishes
  6
Continuous
100
AcDbLine
 10
18.04561959087333
 20
10.15291256884343
 30
0.0
 11
17.1051647324941
 21
9.692282159716758
 31
0.0
  0
LINE
  5
54
330
1F
100
AcDbEntity
  8
Doc_ Finishes
  6
Continuous
100
AcDbLine
 10
17.1051647324941
 20
9.692282159716758
 30
0.0
 11
16.3950250786782
 21
9.020530586152635
 31
0.0
  0
LINE
  5
55
330
1F
100
AcDbEntity
  8
Doc_ Finishes
  6
Continuous
100
AcDbLine
 10
16.3950250786782
 20
9.020530586152635
 30
0.0
 11
15.8384333202203
 21
8.598288257277733
 31
0.0
  0
LINE
  5
56
330
1F
100
AcDbEntity
  8
Doc_ Finishes
  6
Continuous
100
AcDbLine
 10
15.8384333202203
 20
8.598288257277733
 30
0.0
 11
15.1282936664044
 21
8.137657848151063
 31
0.0
  0
LINE
  5
57
330
1F
100
AcDbEntity
  8
Doc_ Finishes
  6
Continuous
100
AcDbLine
 10
15.1282936664044
 20
8.137657848151063
 30
0.0
 11
14.84039634146341
 21
7.984114378442171
 31
0.0
  0
LINE
  5
58
330
1F
100
AcDbEntity
  8
Doc_ Finishes
  6
Continuous
100
AcDbLine
 10
14.84039634146341
 20
7.984114378442171
 30
0.0
 11
14.37976593233674
 21
7.811376868607396
 31
0.0
  0
LINE
  5
59
330
1F
100
AcDbEntity
  8
Doc_ Finishes
  6
Continuous
100
AcDbLine
 10
14.37976593233674
 20
7.811376868607396
 30
0.0
 11
14.07267899291896
 21
7.523479543666405
 31
0.0
  0
LINE
  5
5A
330
1F
100
AcDbEntity
  8
Doc_ Finishes
  6
Continuous
100
AcDbLine
 10
14.07267899291896
 20
7.523479543666405
 30
0.0
 11
14.0151012981904
 21
7.216392604248622
 31
0.0
  0
LINE
  5
5B
330
1F
100
AcDbEntity
  8
Doc_ Finishes
  6
Continuous
100
AcDbLine
 10
14.0151012981904
 20
7.216392604248622
 30
0.0
 11
14.14945072777341
 21
6.890116050354051
 31
0.0
  0
LINE
  5
5C
330
1F
100
AcDbEntity
  8
Doc_ Finishes
  6
Continuous
100
AcDbLine
 10
14.14945072777341
 20
6.890116050354051
 30
0.0
 11
14.4373480527144
 21
6.563835070810386
 31
0.0
  0
LINE
  5
5D
330
1F
100
AcDbEntity
  8
Doc_ Finishes
  6
Continuous
100
AcDbLine
 10
14.4373480527144
 20
6.563835070810386
 30
0.0
 11
14.87878442171519
 21
6.659800845790715
 31
0.0
  0
LINE
  5
5E
330
1F
100
AcDbEntity
  8
Doc_ Finishes
  6
Continuous
100
AcDbLine
 10
14.87878442171519
 20
6.659800845790715
 30
0.0
 11
15.51215234067663
 21
7.062849134539732
 31
0.0
  0
LINE
  5
5F
330
1F
100
AcDbEntity
  8
Doc_ Finishes
  6
Continuous
100
AcDbLine
 10
15.51215234067663
 20
7.062849134539732
 30
0.0
 11
16.01116640440598
 21
7.389130114083398
 31
0.0
  0
LINE
  5
60
330
1F
100
AcDbEntity
  8
Doc_ Finishes
  6
Continuous
100
AcDbLine
 10
16.01116640440598
 20
7.389130114083398
 30
0.0
 11
16.33744738394964
 21
7.69621705350118
 31
0.0
  0
LINE
  5
61
330
1F
100
AcDbEntity
  8
Doc_ Finishes
  6
Continuous
100
AcDbLine
 10
16.33744738394964
 20
7.69621705350118
 30
0.0
 11
16.51018489378442
 21
7.907342643587726
 31
0.0
  0
LINE
  5
62
330
1F
100
AcDbEntity
  8
Doc_ Finishes
  6
Continuous
100
AcDbLine
 10
16.51018489378442
 20
7.907342643587726
 30
0.0
 11
17.0130404209284
 21
8.421709284028323
 31
0.0
  0
LINE
  5
63
330
1F
100
AcDbEntity
  8
Doc_ Finishes
  6
Continuous
100
AcDbLine
 10
17.0130404209284
 20
8.421709284028323
 30
0.0
 11
17.33547993705743
 21
8.65202448859166
 31
0.0
  0
LINE
  5
64
330
1F
100
AcDbEntity
  8
Doc_ Finishes
  6
Continuous
100
AcDbLine
 10
17.33547993705743
 20
8.65202448859166
 30
0.0
 11
17.75004819040126
 21
8.997499508261212
 31
0.0
  0
LINE
  5
65
330
1F
100
AcDbEntity
  8
Doc_ Finishes
  6
Continuous
100
AcDbLine
 10
17.75004819040126
 20
8.997499508261212
 30
0.0
 11
18.14158536585366
 21
9.204783634933122
 31
0.0
  0
LINE
  5
66
330
1F
100
AcDbEntity
  8
Doc_ Finishes
  6
Continuous
100
AcDbLine
 10
18.14158536585366
 20
9.204783634933122
 30
0.0
 11
19.24709923288749
 21
9.75753835562549
 31
0.0
  0
LINE
  5
67
330
1F
100
AcDbEntity
  8
Doc_ Finishes
  6
Continuous
100
AcDbLine
 10
19.24709923288749
 20
9.75753835562549
 30
0.0
 11
20.23745328481511
 21
10.47151947285602
 31
0.0
  0
LINE
  5
68
330
1F
100
AcDbEntity
  8
Doc_ Finishes
  6
Continuous
100
AcDbLine
 10
20.23745328481511
 20
10.47151947285602
 30
0.0
 11
21.41206038552321
 21
11.16246508654602
 31
0.0
  0
LINE
  5
69
330
1F
100
AcDbEntity
  8
Doc_ Finishes
  6
Continuous
100
AcDbLine
 10
21.41206038552321
 20
11.16246508654602
 30
0.0
 11
21.84965971675846
 21
11.64612657356412
 31
0.0
  0
LINE
  5
6A
330
1F
100
AcDbEntity
  8
Doc_ Finishes
  6
Continuous
100
AcDbLine
 10
21.84965971675846
 20
11.64612657356412
 30
0.0
 11
22.49454317466562
 21
12.06069482690795
 31
0.0
  0
LINE
  5
6B
330
1F
100
AcDbEntity
  8
Doc_ Finishes
  6
Continuous
100
AcDbLine
 10
22.49454317466562
 20
12.06069482690795
 30
0.0
 11
23.78431009047993
 21
12.98195564516129
 31
0.0
  0
LINE
  5
6C
330
1F
100
AcDbEntity
  8
Doc_ Finishes
  6
Continuous
100
AcDbLine
 10
23.78431009047993
 20
12.98195564516129
 30
0.0
 11
24.36009588906373
 21
13.25833300550747
 31
0.0
  0
LINE
  5
6D
330
1F
100
AcDbEntity
  8
Doc_ Finishes
  6
Continuous
100
AcDbLine
 10
24.36009588906373
 20
13.25833300550747
 30
0.0
 11
25.64986280487805
 21
14.24868705743509
 31
0.0
  0
LINE
  5
6E
330
1F
100
AcDbEntity
  8
Doc_ Finishes
  6
Continuous
100
AcDbLine
 10
25.64986280487805
 20
14.24868705743509
 30
0.0
 11
25.85714693154996
 21
14.64022423288749
 31
0.0
  0
LINE
  5
6F
330
1F
100
AcDbEntity
  8
Doc_ Finishes
  6
Continuous
100
AcDbLine
 10
25.85714693154996
 20
14.64022423288749
 30
0.0
 11
26.68628343823761
 21
15.2390455350118
 31
0.0
  0
LINE
  5
70
330
1F
100
AcDbEntity
  8
Doc_ Finishes
  6
Continuous
100
AcDbLine
 10
26.68628343823761
 20
15.2390455350118
 30
0.0
 11
27.28510031471282
 21
15.7227070220299
 31
0.0
  0
LINE
  5
71
330
1F
100
AcDbEntity
  8
Doc_ Finishes
  6
Continuous
100
AcDbLine
 10
27.28510031471282
 20
15.7227070220299
 30
0.0
 11
27.81482838316287
 21
16.1142441974823
 31
0.0
  0
LINE
  5
72
330
1F
100
AcDbEntity
  8
Doc_ Finishes
  6
Continuous
100
AcDbLine
 10
27.81482838316287
 20
16.1142441974823
 30
0.0
 11
28.27545879228953
 21
16.52880802517702
 31
0.0
  0
LINE
  5
73
330
1F
100
AcDbEntity
  8
Doc_ Finishes
  6
Continuous
100
AcDbLine
 10
28.27545879228953
 20
16.52880802517702
 30
0.0
 11
28.22939221085759
 21
16.78215873328088
 31
0.0
  0
LINE
  5
74
330
1F
100
AcDbEntity
  8
Doc_ Finishes
  6
Continuous
100
AcDbLine
 10
28.22939221085759
 20
16.78215873328088
 30
0.0
 11
28.09120574350905
 21
16.897314122738
 31
0.0
  0
LINE
  5
75
330
1F
100
AcDbEntity
  8
Doc_ Finishes
  6
Continuous
100
AcDbLine
 10
28.09120574350905
 20
16.897314122738
 30
0.0
 11
27.56147767505901
 21
16.897314122738
 31
0.0
  0
LINE
  5
76
330
1F
100
AcDbEntity
  8
Doc_ Finishes
  6
Continuous
100
AcDbLine
 10
27.56147767505901
 20
16.897314122738
 30
0.0
 11
27.41177566876475
 21
16.87044600708104
 31
0.0
  0
HATCH
  5
77
330
1F
100
AcDbEntity
  8
Doc_ Finishes
  6
Continuous
100
AcDbHatch
 10
0.0
 20
0.0
 30
0.0
210
0.0
220
0.0
230
1.0
  2
SOLID
 70
     1
 71
     0
 91
        1
 92
        3
 72
     0
 73
     1
 93
       39
 10
27.65360600299377
 20
13.12014334109181
 10
27.21600693931564
 20
12.77467039608275
 10
26.54809257896482
 20
12.24494521373555
 10
25.92624127794851
 20
11.85340920939199
 10
25.32742150659951
 20
11.32368402704478
 10
24.72860173525052
 20
11.04730567103754
 10
24.08371890456698
 20
10.56364354802488
 10
23.62308831122158
 20
10.33332825135219
 10
23.231552306878
 20
10.03391836567767
 10
22.81698477286715
 20
9.619350831666825
 10
22.40241723885631
 20
9.38903553499415
 10
21.91875511584363
 20
9.043562589985086
 10
21.66540828950367
 20
8.859310352646935
 10
21.25084075549282
 20
8.582931996639696
 10
20.09926427212933
 20
7.753796928618002
 10
19.75379132712029
 20
7.477418572610764
 10
19.2931607337749
 20
7.316197864939873
 10
19.22406614477309
 20
6.993756449598113
 10
19.3622553227767
 20
6.717378093590874
 10
19.63863367878394
 20
6.602220445254527
 10
20.00713815346026
 20
6.8325357419272
 10
20.26048497980021
 20
7.131945627601722
 10
20.55989486547472
 20
7.362260924274415
 10
21.31993534449462
 20
7.707733869283458
 10
21.84966052684182
 20
8.122301403294307
 10
22.88607936186895
 20
8.882341882314256
 10
23.20852077721072
 20
9.342972475659646
 10
24.01462431556515
 20
9.734508480003234
 10
24.5673810275796
 20
10.05694989534501
 10
25.46561068460312
 20
10.60970660735953
 10
25.88017821861399
 20
11.07033720070492
 10
26.31777728229212
 20
11.34671555671216
 10
26.70931328663569
 20
11.30065249737762
 10
27.21600693931562
 20
11.55399932371759
 10
28.0681735370046
 20
12.17585062473387
 10
28.41364648201364
 20
12.49829204007566
 10
28.39061495234636
 20
12.77467039608289
 10
28.22939424467547
 20
13.00498569275559
 10
28.04514200733732
 20
13.05104875209013
 97
        0
 75
     0
 76
     1
 98
        0
  0
LINE
  5
78
330
1F
100
AcDbEntity
  8
Doc_ Finishes
  6
Continuous
100
AcDbLine
 10
27.6536064122738
 20
13.12014211250983
 30
0.0
 11
27.21600708103855
 21
12.77467151848938
 31
0.0
  0
LINE
  5
79
330
1F
100
AcDbEntity
  8
Doc_ Finishes
  6
Continuous
100
AcDbLine
 10
27.21600708103855
 20
12.77467151848938
 30
0.0
 11
26.54809254523997
 21
12.24494345003934
 31
0.0
  0
LINE
  5
7A
330
1F
100
AcDbEntity
  8
Doc_ Finishes
  6
Continuous
100
AcDbLine
 10
26.54809254523997
 20
12.24494345003934
 30
0.0
 11
25.92624016522423
 21
11.85341070023603
 31
0.0
  0
LINE
  5
7B
330
1F
100
AcDbEntity
  8
Doc_ Finishes
  6
Continuous
100
AcDbLine
 10
25.92624016522423
 20
11.85341070023603
 30
0.0
 11
25.32742328874902
 21
11.32368263178599
 31
0.0
  0
LINE
  5
7C
330
1F
100
AcDbEntity
  8
Doc_ Finishes
  6
Continuous
100
AcDbLine
 10
25.32742328874902
 20
11.32368263178599
 30
0.0
 11
24.72860198662471
 21
11.04730527143981
 31
0.0
  0
LINE
  5
7D
330
1F
100
AcDbEntity
  8
Doc_ Finishes
  6
Continuous
100
AcDbLine
 10
24.72860198662471
 20
11.04730527143981
 30
0.0
 11
24.08371852871754
 21
10.56364378442171
 31
0.0
  0
LINE
  5
7E
330
1F
100
AcDbEntity
  8
Doc_ Finishes
  6
Continuous
100
AcDbLine
 10
24.08371852871754
 20
10.56364378442171
 30
0.0
 11
23.62308811959087
 21
10.33332857985838
 31
0.0
  0
LINE
  5
7F
330
1F
100
AcDbEntity
  8
Doc_ Finishes
  6
Continuous
100
AcDbLine
 10
23.62308811959087
 20
10.33332857985838
 30
0.0
 11
23.23155094413847
 21
10.03392014162077
 31
0.0
  0
LINE
  5
80
330
1F
100
AcDbEntity
  8
Doc_ Finishes
  6
Continuous
100
AcDbLine
 10
23.23155094413847
 20
10.03392014162077
 30
0.0
 11
22.81698269079465
 21
9.619351888276947
 31
0.0
  0
LINE
  5
81
330
1F
100
AcDbEntity
  8
Doc_ Finishes
  6
Continuous
100
AcDbLine
 10
22.81698269079465
 20
9.619351888276947
 30
0.0
 11
22.40241886309992
 21
9.389036683713611
 31
0.0
  0
LINE
  5
82
330
1F
100
AcDbEntity
  8
Doc_ Finishes
  6
Continuous
100
AcDbLine
 10
22.40241886309992
 20
9.389036683713611
 30
0.0
 11
21.91875295043273
 21
9.04356166404406
 31
0.0
  0
LINE
  5
83
330
1F
100
AcDbEntity
  8
Doc_ Finishes
  6
Continuous
100
AcDbLine
 10
21.91875295043273
 20
9.04356166404406
 30
0.0
 11
21.66540666797797
 21
8.859308615263572
 31
0.0
  0
LINE
  5
84
330
1F
100
AcDbEntity
  8
Doc_ Finishes
  6
Continuous
100
AcDbLine
 10
21.66540666797797
 20
8.859308615263572
 30
0.0
 11
21.25084284028324
 21
8.582931254917387
 31
0.0
  0
LINE
  5
85
330
1F
100
AcDbEntity
  8
Doc_ Finishes
  6
Continuous
100
AcDbLine
 10
21.25084284028324
 20
8.582931254917387
 30
0.0
 11
20.09926239181747
 21
7.75379474822974
 31
0.0
  0
LINE
  5
86
330
1F
100
AcDbEntity
  8
Doc_ Finishes
  6
Continuous
100
AcDbLine
 10
20.09926239181747
 20
7.75379474822974
 30
0.0
 11
19.75379179779701
 21
7.477417387883556
 31
0.0
  0
LINE
  5
87
330
1F
100
AcDbEntity
  8
Doc_ Finishes
  6
Continuous
100
AcDbLine
 10
19.75379179779701
 20
7.477417387883556
 30
0.0
 11
19.29316138867033
 21
7.316199842643588
 31
0.0
  0
LINE
  5
88
330
1F
100
AcDbEntity
  8
Doc_ Finishes
  6
Continuous
100
AcDbLine
 10
19.29316138867033
 20
7.316199842643588
 30
0.0
 11
19.22406815499606
 21
6.993755900865461
 31
0.0
  0
LINE
  5
89
330
1F
100
AcDbEntity
  8
Doc_ Finishes
  6
Continuous
100
AcDbLine
 10
19.22406815499606
 20
6.993755900865461
 30
0.0
 11
19.36225462234461
 21
6.717378540519276
 31
0.0
  0
LINE
  5
8A
330
1F
100
AcDbEntity
  8
Doc_ Finishes
  6
Continuous
100
AcDbLine
 10
19.36225462234461
 20
6.717378540519276
 30
0.0
 11
19.63863198269079
 21
6.602218725413059
 31
0.0
  0
LINE
  5
8B
330
1F
100
AcDbEntity
  8
Doc_ Finishes
  6
Continuous
100
AcDbLine
 10
19.63863198269079
 20
6.602218725413059
 30
0.0
 11
20.00713808025177
 21
6.832533929976396
 31
0.0
  0
LINE
  5
8C
330
1F
100
AcDbEntity
  8
Doc_ Finishes
  6
Continuous
100
AcDbLine
 10
20.00713808025177
 20
6.832533929976396
 30
0.0
 11
20.26048436270653
 21
7.1319467938631
 31
0.0
  0
LINE
  5
8D
330
1F
100
AcDbEntity
  8
Doc_ Finishes
  6
Continuous
100
AcDbLine
 10
20.26048436270653
 20
7.1319467938631
 30
0.0
 11
20.55989280094414
 21
7.362261998426435
 31
0.0
  0
LINE
  5
8E
330
1F
100
AcDbEntity
  8
Doc_ Finishes
  6
Continuous
100
AcDbLine
 10
20.55989280094414
 20
7.362261998426435
 30
0.0
 11
21.31993607395751
 21
7.707732592446892
 31
0.0
  0
LINE
  5
8F
330
1F
100
AcDbEntity
  8
Doc_ Finishes
  6
Continuous
100
AcDbLine
 10
21.31993607395751
 20
7.707732592446892
 30
0.0
 11
21.84965971675846
 21
8.122300845790717
 31
0.0
  0
LINE
  5
90
330
1F
100
AcDbEntity
  8
Doc_ Finishes
  6
Continuous
100
AcDbLine
 10
21.84965971675846
 20
8.122300845790717
 30
0.0
 11
22.88608035011802
 21
8.882339693154996
 31
0.0
  0
LINE
  5
91
330
1F
100
AcDbEntity
  8
Doc_ Finishes
  6
Continuous
100
AcDbLine
 10
22.88608035011802
 20
8.882339693154996
 30
0.0
 11
23.20851986624705
 21
9.342974527930762
 31
0.0
  0
LINE
  5
92
330
1F
100
AcDbEntity
  8
Doc_ Finishes
  6
Continuous
100
AcDbLine
 10
23.20851986624705
 20
9.342974527930762
 30
0.0
 11
24.01462529504327
 21
9.734507277734066
 31
0.0
  0
LINE
  5
93
330
1F
100
AcDbEntity
  8
Doc_ Finishes
  6
Continuous
100
AcDbLine
 10
24.01462529504327
 20
9.734507277734066
 30
0.0
 11
24.56738001573564
 21
10.05695121951219
 31
0.0
  0
LINE
  5
94
330
1F
100
AcDbEntity
  8
Doc_ Finishes
  6
Continuous
100
AcDbLine
 10
24.56738001573564
 20
10.05695121951219
 30
0.0
 11
25.46560975609756
 21
10.60970594020456
 31
0.0
  0
LINE
  5
95
330
1F
100
AcDbEntity
  8
Doc_ Finishes
  6
Continuous
100
AcDbLine
 10
25.46560975609756
 20
10.60970594020456
 30
0.0
 11
25.88017800944139
 21
11.07033634933124
 31
0.0
  0
LINE
  5
96
330
1F
100
AcDbEntity
  8
Doc_ Finishes
  6
Continuous
100
AcDbLine
 10
25.88017800944139
 20
11.07033634933124
 30
0.0
 11
26.31777734067663
 21
11.34671370967742
 31
0.0
  0
LINE
  5
97
330
1F
100
AcDbEntity
  8
Doc_ Finishes
  6
Continuous
100
AcDbLine
 10
26.31777734067663
 20
11.34671370967742
 30
0.0
 11
26.70931451612903
 21
11.30065155389457
 31
0.0
  0
LINE
  5
98
330
1F
100
AcDbEntity
  8
Doc_ Finishes
  6
Continuous
100
AcDbLine
 10
26.70931451612903
 20
11.30065155389457
 30
0.0
 11
27.21600708103855
 21
11.55399783634933
 31
0.0
  0
LINE
  5
99
330
1F
100
AcDbEntity
  8
Doc_ Finishes
  6
Continuous
100
AcDbLine
 10
27.21600708103855
 20
11.55399783634933
 30
0.0
 11
28.06817466561763
 21
12.17585021636507
 31
0.0
  0
LINE
  5
9A
330
1F
100
AcDbEntity
  8
Doc_ Finishes
  6
Continuous
100
AcDbLine
 10
28.06817466561763
 20
12.17585021636507
 30
0.0
 11
28.41364525963808
 21
12.49829415814319
 31
0.0
  0
LINE
  5
9B
330
1F
100
AcDbEntity
  8
Doc_ Finishes
  6
Continuous
100
AcDbLine
 10
28.41364525963808
 20
12.49829415814319
 30
0.0
 11
28.39061418174666
 21
12.77467151848938
 31
0.0
  0
LINE
  5
9C
330
1F
100
AcDbEntity
  8
Doc_ Finishes
  6
Continuous
100
AcDbLine
 10
28.39061418174666
 20
12.77467151848938
 30
0.0
 11
28.22939221085759
 21
13.00498672305271
 31
0.0
  0
LINE
  5
9D
330
1F
100
AcDbEntity
  8
Doc_ Finishes
  6
Continuous
100
AcDbLine
 10
28.22939221085759
 20
13.00498672305271
 30
0.0
 11
28.04514358772619
 21
13.05104887883556
 31
0.0
  0
LINE
  5
9E
330
1F
100
AcDbEntity
  8
Doc_ Finishes
  6
Continuous
100
AcDbLine
 10
28.04514358772619
 20
13.05104887883556
 30
0.0
 11
27.6536064122738
 21
13.12014211250983
 31
0.0
  0
HATCH
  5
9F
330
1F
100
AcDbEntity
  8
Doc_ Finishes
  6
Continuous
100
AcDbHatch
 10
0.0
 20
0.0
 30
0.0
210
0.0
220
0.0
230
1.0
  2
SOLID
 70
     1
 71
     0
 91
        1
 92
        3
 72
     0
 73
     1
 93
       47
 10
28.06817353700456
 20
15.74573772316067
 10
28.30309513961077
 20
15.62136746295728
 10
28.4412843176144
 20
15.4002647781515
 10
28.93876535842742
 20
15.17916209334572
 10
29.82317609765057
 20
14.40530269652538
 10
30.92868952167951
 20
13.74199464210799
 10
31.59199757609689
 20
13.3827027792986
 10
32.20002995931279
 20
13.07868658769064
 10
33.55428390374828
 20
12.08372450606458
 10
34.07940278016201
 20
11.69679480765445
 10
34.88090001258301
 20
11.08876242443854
 10
35.59948373820179
 20
10.50836787682334
 10
36.5668079842271
 20
9.817421986805197
 10
37.06428902504012
 20
9.458130123995785
 10
37.81051058625966
 20
8.933011247582023
 10
38.61200781868061
 20
8.407892371168286
 10
38.77783483228498
 20
8.186789686362482
 10
39.38586721550092
 20
7.744584316750918
 10
40.18736444792187
 20
6.915449248729224
 10
40.7953968311378
 20
6.44560604351692
 10
41.56925622795804
 20
6.169227687509681
 10
42.23256428237543
 20
6.086314180707507
 10
42.48130480278193
 20
6.30741686551329
 10
42.14965077557326
 20
6.611433057121246
 10
41.48634272115586
 20
6.998362755531397
 10
40.76775899553709
 20
7.357654618340788
 10
40.18736444792187
 20
8.048600508358874
 10
38.99893751709079
 20
8.822459905179112
 10
38.47381864067705
 20
9.319940945992132
 10
38.22507812027052
 20
9.734508480003
 10
37.17484036744301
 20
10.31490302761817
 10
36.73263499783144
 20
10.78474623283046
 10
36.2351539570184
 20
11.17167593124059
 10
35.48893239579888
 20
11.61388130085215
 10
34.85326217698223
 20
12.16663801286669
 10
34.35578113616919
 20
12.58120554687754
 10
33.69247308175183
 20
12.99577308088841
 10
33.22262987653953
 20
13.32742710809708
 10
32.7251488357265
 20
13.5761676285036
 10
31.93747052110588
 20
14.06443605744977
 10
31.43077686842594
 20
14.38687747279155
 10
30.92408321574601
 20
14.70931888813342
 10
30.62467333007151
 20
15.100854892477
 10
29.95675896972068
 20
15.67664313415887
 10
29.47309684670803
 20
15.9530214901661
 10
28.82821401602447
 20
16.36758902417695
 10
28.50577260068269
 20
16.22939984617334
 97
        0
 75
     0
 76
     1
 98
        0
  0
LINE
  5
A0
330
1F
100
AcDbEntity
  8
Doc_ Finishes
  6
Continuous
100
AcDbLine
 10
28.30309697088906
 20
15.62136850904799
 30
0.0
 11
28.06817466561763
 21
15.74573809992132
 31
0.0
  0
LINE
  5
A1
330
1F
100
AcDbEntity
  8
Doc_ Finishes
  6
Continuous
100
AcDbLine
 10
28.44128343823761
 20
15.40026308025177
 30
0.0
 11
28.30309697088906
 21
15.62136850904799
 31
0.0
  0
LINE
  5
A2
330
1F
100
AcDbEntity
  8
Doc_ Finishes
  6
Continuous
100
AcDbLine
 10
28.93876622738001
 20
15.17916207710464
 30
0.0
 11
28.44128343823761
 21
15.40026308025177
 31
0.0
  0
LINE
  5
A3
330
1F
100
AcDbEntity
  8
Doc_ Finishes
  6
Continuous
100
AcDbLine
 10
29.82317466561762
 20
14.40530192761605
 30
0.0
 11
28.93876622738001
 21
15.17916207710464
 31
0.0
  0
LINE
  5
A4
330
1F
100
AcDbEntity
  8
Doc_ Finishes
  6
Continuous
100
AcDbLine
 10
30.92868853265146
 20
13.74199449252557
 30
0.0
 11
29.82317466561762
 21
14.40530192761605
 31
0.0
  0
LINE
  5
A5
330
1F
100
AcDbEntity
  8
Doc_ Finishes
  6
Continuous
100
AcDbLine
 10
31.59199596774193
 20
13.3827025963808
 30
0.0
 11
30.92868853265146
 21
13.74199449252557
 31
0.0
  0
LINE
  5
A6
330
1F
100
AcDbEntity
  8
Doc_ Finishes
  6
Continuous
100
AcDbLine
 10
32.20003147128246
 20
13.07868705743509
 30
0.0
 11
31.59199596774193
 21
13.3827025963808
 31
0.0
  0
LINE
  5
A7
330
1F
100
AcDbEntity
  8
Doc_ Finishes
  6
Continuous
100
AcDbLine
 10
33.55428452006294
 20
12.08372590479937
 30
0.0
 11
32.20003147128246
 21
13.07868705743509
 31
0.0
  0
LINE
  5
A8
330
1F
100
AcDbEntity
  8
Doc_ Finishes
  6
Continuous
100
AcDbLine
 10
34.07940106215578
 20
11.69679583005508
 30
0.0
 11
33.55428452006294
 21
12.08372590479937
 31
0.0
  0
LINE
  5
A9
330
1F
100
AcDbEntity
  8
Doc_ Finishes
  6
Continuous
100
AcDbLine
 10
34.8808993902439
 20
11.08876032651456
 30
0.0
 11
34.07940106215578
 21
11.69679583005508
 31
0.0
  0
LINE
  5
AA
330
1F
100
AcDbEntity
  8
Doc_ Finishes
  6
Continuous
100
AcDbLine
 10
35.59948318253343
 20
10.50836742722266
 30
0.0
 11
34.8808993902439
 21
11.08876032651456
 31
0.0
  0
LINE
  5
AB
330
1F
100
AcDbEntity
  8
Doc_ Finishes
  6
Continuous
100
AcDbLine
 10
36.56680615656963
 20
9.817421813532652
 30
0.0
 11
35.59948318253343
 21
10.50836742722266
 31
0.0
  0
LINE
  5
AC
330
1F
100
AcDbEntity
  8
Doc_ Finishes
  6
Continuous
100
AcDbLine
 10
37.06428894571204
 20
9.458129917387884
 30
0.0
 11
36.56680615656963
 21
9.817421813532652
 31
0.0
  0
LINE
  5
AD
330
1F
100
AcDbEntity
  8
Doc_ Finishes
  6
Continuous
100
AcDbLine
 10
37.8105109166011
 20
8.933013375295044
 30
0.0
 11
37.06428894571204
 21
9.458129917387884
 31
0.0
  0
LINE
  5
AE
330
1F
100
AcDbEntity
  8
Doc_ Finishes
  6
Continuous
100
AcDbLine
 10
38.61200924468922
 20
8.407892407553108
 30
0.0
 11
37.8105109166011
 21
8.933013375295044
 31
0.0
  0
LINE
  5
AF
330
1F
100
AcDbEntity
  8
Doc_ Finishes
  6
Continuous
100
AcDbLine
 10
38.77783389063729
 20
8.18679140440598
 30
0.0
 11
38.61200924468922
 21
8.407892407553108
 31
0.0
  0
LINE
  5
B0
330
1F
100
AcDbEntity
  8
Doc_ Finishes
  6
Continuous
100
AcDbLine
 10
39.3858693941778
 20
7.744584972462627
 30
0.0
 11
38.77783389063729
 21
8.18679140440598
 31
0.0
  0
LINE
  5
B1
330
1F
100
AcDbEntity
  8
Doc_ Finishes
  6
Continuous
100
AcDbLine
 10
40.18736329661684
 20
6.915448465774981
 30
0.0
 11
39.3858693941778
 21
7.744584972462627
 31
0.0
  0
LINE
  5
B2
330
1F
100
AcDbEntity
  8
Doc_ Finishes
  6
Continuous
100
AcDbLine
 10
40.79539880015735
 20
6.4456038552321
 30
0.0
 11
40.18736329661684
 21
6.915448465774981
 31
0.0
  0
LINE
  5
B3
330
1F
100
AcDbEntity
  8
Doc_ Finishes
  6
Continuous
100
AcDbLine
 10
41.56925452399685
 20
6.169226494885916
 30
0.0
 11
40.79539880015735
 21
6.4456038552321
 31
0.0
  0
LINE
  5
B4
330
1F
100
AcDbEntity
  8
Doc_ Finishes
  6
Continuous
100
AcDbLine
 10
42.23256638473643
 20
6.086316384736428
 30
0.0
 11
41.56925452399685
 21
6.169226494885916
 31
0.0
  0
LINE
  5
B5
330
1F
100
AcDbEntity
  8
Doc_ Finishes
  6
Continuous
100
AcDbLine
 10
42.48130556648308
 20
6.307417387883556
 30
0.0
 11
42.23256638473643
 21
6.086316384736428
 31
0.0
  0
LINE
  5
B6
330
1F
100
AcDbEntity
  8
Doc_ Finishes
  6
Continuous
100
AcDbLine
 10
42.14965184893784
 20
6.611432926829268
 30
0.0
 11
42.48130556648308
 21
6.307417387883556
 31
0.0
  0
LINE
  5
B7
330
1F
100
AcDbEntity
  8
Doc_ Finishes
  6
Continuous
100
AcDbLine
 10
41.48634441384736
 20
6.998363001573564
 30
0.0
 11
42.14965184893784
 21
6.611432926829268
 31
0.0
  0
LINE
  5
B8
330
1F
100
AcDbEntity
  8
Doc_ Finishes
  6
Continuous
100
AcDbLine
 10
40.76776062155783
 20
7.357654897718332
 30
0.0
 11
41.48634441384736
 21
6.998363001573564
 31
0.0
  0
LINE
  5
B9
330
1F
100
AcDbEntity
  8
Doc_ Finishes
  6
Continuous
100
AcDbLine
 10
40.18736329661684
 20
8.048600511408338
 30
0.0
 11
40.76776062155783
 21
7.357654897718332
 31
0.0
  0
LINE
  5
BA
330
1F
100
AcDbEntity
  8
Doc_ Finishes
  6
Continuous
100
AcDbLine
 10
38.99893931943352
 20
8.822460660896931
 30
0.0
 11
40.18736329661684
 21
8.048600511408338
 31
0.0
  0
LINE
  5
BB
330
1F
100
AcDbEntity
  8
Doc_ Finishes
  6
Continuous
100
AcDbLine
 10
38.47381835169158
 20
9.319939024390242
 30
0.0
 11
38.99893931943352
 21
8.822460660896931
 31
0.0
  0
LINE
  5
BC
330
1F
100
AcDbEntity
  8
Doc_ Finishes
  6
Continuous
100
AcDbLine
 10
38.22507916994492
 20
9.734507277734066
 30
0.0
 11
38.47381835169158
 21
9.319939024390242
 31
0.0
  0
LINE
  5
BD
330
1F
100
AcDbEntity
  8
Doc_ Finishes
  6
Continuous
100
AcDbLine
 10
37.17484166011014
 20
10.31490460267506
 30
0.0
 11
38.22507916994492
 21
9.734507277734066
 31
0.0
  0
LINE
  5
BE
330
1F
100
AcDbEntity
  8
Doc_ Finishes
  6
Continuous
100
AcDbLine
 10
36.7326352281668
 20
10.78474478756884
 30
0.0
 11
37.17484166011014
 21
10.31490460267506
 31
0.0
  0
LINE
  5
BF
330
1F
100
AcDbEntity
  8
Doc_ Finishes
  6
Continuous
100
AcDbLine
 10
36.23515243902439
 20
11.17167486231314
 30
0.0
 11
36.7326352281668
 21
10.78474478756884
 31
0.0
  0
LINE
  5
C0
330
1F
100
AcDbEntity
  8
Doc_ Finishes
  6
Continuous
100
AcDbLine
 10
35.48893046813532
 20
11.61388129425649
 30
0.0
 11
36.23515243902439
 21
11.17167486231314
 31
0.0
  0
LINE
  5
C1
330
1F
100
AcDbEntity
  8
Doc_ Finishes
  6
Continuous
100
AcDbLine
 10
34.85326121164437
 20
12.16663601494886
 30
0.0
 11
35.48893046813532
 21
11.61388129425649
 31
0.0
  0
LINE
  5
C2
330
1F
100
AcDbEntity
  8
Doc_ Finishes
  6
Continuous
100
AcDbLine
 10
34.35578284815106
 20
12.58120426829268
 30
0.0
 11
34.85326121164437
 21
12.16663601494886
 31
0.0
  0
LINE
  5
C3
330
1F
100
AcDbEntity
  8
Doc_ Finishes
  6
Continuous
100
AcDbLine
 10
33.69247098741149
 20
12.99577252163651
 30
0.0
 11
34.35578284815106
 21
12.58120426829268
 31
0.0
  0
LINE
  5
C4
330
1F
100
AcDbEntity
  8
Doc_ Finishes
  6
Continuous
100
AcDbLine
 10
33.2226308025177
 20
13.32742623918175
 30
0.0
 11
33.69247098741149
 21
12.99577252163651
 31
0.0
  0
LINE
  5
C5
330
1F
100
AcDbEntity
  8
Doc_ Finishes
  6
Continuous
100
AcDbLine
 10
32.7251480133753
 20
13.5761654209284
 30
0.0
 11
33.2226308025177
 21
13.32742623918175
 31
0.0
  0
LINE
  5
C6
330
1F
100
AcDbEntity
  8
Doc_ Finishes
  6
Continuous
100
AcDbLine
 10
31.93747098741148
 20
14.0644340086546
 30
0.0
 11
32.7251480133753
 21
13.5761654209284
 31
0.0
  0
LINE
  5
C7
330
1F
100
AcDbEntity
  8
Doc_ Finishes
  6
Continuous
100
AcDbLine
 10
31.43077842250197
 20
14.38687795043273
 30
0.0
 11
31.93747098741148
 21
14.0644340086546
 31
0.0
  0
LINE
  5
C8
330
1F
100
AcDbEntity
  8
Doc_ Finishes
  6
Continuous
100
AcDbLine
 10
30.92408143194335
 20
14.70931746656176
 30
0.0
 11
31.43077842250197
 21
14.38687795043273
 31
0.0
  0
LINE
  5
C9
330
1F
100
AcDbEntity
  8
Doc_ Finishes
  6
Continuous
100
AcDbLine
 10
30.62467299370574
 20
15.10085464201416
 30
0.0
 11
30.92408143194335
 21
14.70931746656176
 31
0.0
  0
LINE
  5
CA
330
1F
100
AcDbEntity
  8
Doc_ Finishes
  6
Continuous
100
AcDbLine
 10
29.95675845790716
 20
15.67664486624705
 30
0.0
 11
30.62467299370574
 21
15.10085464201416
 31
0.0
  0
LINE
  5
CB
330
1F
100
AcDbEntity
  8
Doc_ Finishes
  6
Continuous
100
AcDbLine
 10
29.47309697088906
 20
15.95302222659323
 30
0.0
 11
29.95675845790716
 21
15.67664486624705
 31
0.0
  0
LINE
  5
CC
330
1F
100
AcDbEntity
  8
Doc_ Finishes
  6
Continuous
100
AcDbLine
 10
28.8282135129819
 20
16.36759047993706
 30
0.0
 11
29.47309697088906
 21
15.95302222659323
 31
0.0
  0
LINE
  5
CD
330
1F
100
AcDbEntity
  8
Doc_ Finishes
  6
Continuous
100
AcDbLine
 10
28.50577399685287
 20
16.22939958693942
 30
0.0
 11
28.8282135129819
 21
16.36759047993706
 31
0.0
  0
LINE
  5
CE
330
1F
100
AcDbEntity
  8
Doc_ Finishes
  6
Continuous
100
AcDbLine
 10
28.06817466561763
 20
15.74573809992132
 30
0.0
 11
28.50577399685287
 21
16.22939958693942
 31
0.0
  0
LINE
  5
CF
330
1F
100
AcDbEntity
  8
Doc_ Finishes
  6
Continuous
 62
   254
370
    18
100
AcDbLine
 10
97.43333792289535
 20
5.093360051140834
 30
0.0
 11
97.43333792289535
 21
20.69901750590086
 31
0.0
  0
LINE
  5
D0
330
1F
100
AcDbEntity
  8
Doc_ Finishes
  6
Continuous
 62
   254
370
    18
100
AcDbLine
 10
7.000000491738787
 20
20.69901750590086
 30
0.0
 11
290.2406840086546
 21
20.69901750590086
 31
0.0
  0
LINE
  5
D1
330
1F
100
AcDbEntity
  8
Doc_ Finishes
  6
Continuous
 62
   254
370
    18
100
AcDbLine
 10
290.2406840086546
 20
20.69901750590086
 30
0.0
 11
290.2406840086546
 21
5.000000983477577
 31
0.0
  0
LINE
  5
D2
330
1F
100
AcDbEntity
  8
Doc_ Finishes
  6
Continuous
 62
   254
370
    18
100
AcDbLine
 10
290.2406840086546
 20
5.000000983477577
 30
0.0
 11
7.000000491738787
 21
5.000000983477577
 31
0.0
  0
LINE
  5
D3
330
1F
100
AcDbEntity
  8
Doc_ Finishes
  6
Continuous
 62
   254
370
    18
100
AcDbLine
 10
7.000000491738787
 20
20.69901750590086
 30
0.0
 11
7.000000491738787
 21
5.000000983477577
 31
0.0
  0
LINE
  5
D4
330
1F
100
AcDbEntity
  8
Doc_ Finishes
  6
Continuous
 62
   254
370
    18
100
AcDbLine
 10
190.2919443351691
 20
5.093360051140834
 30
0.0
 11
190.2919443351691
 21
20.69901750590086
 31
0.0
  0
LINE
  5
D5
330
1F
100
AcDbEntity
  8
Doc_ Finishes
  6
Continuous
 62
   254
370
    18
100
AcDbLine
 10
190.2919443351691
 20
12.8961909913454
 30
0.0
 11
290.2406840086546
 21
12.8961909913454
 31
0.0
  0
MTEXT
  5
D7
330
1F
100
AcDbEntity
  8
0
  6
Continuous
100
AcDbMText
 10
210.3494767103412
 20
15.00228927053286
 30
0.0
 40
2.25
 41
0.0
 71
     7
 72
     1
  1
{R-TRS5-10}
  7
GENERATED_STYLE_1
 73
     1
 44
1.0
  0
MTEXT
  5
D8
330
1F
100
AcDbEntity
  8
0
  6
Continuous
100
AcDbMText
 10
210.3494767103412
 20
11.03300550383743
 30
0.0
 40
3.0
 41
0.0
 71
     1
 72
     1
  1
{APRON DETAIL - KICKOUT - 3D VIEW}
  7
GENERATED_STYLE_1
 73
     1
 44
1.0
  0
MTEXT
  5
DA
330
1F
100
AcDbEntity
  8
Doc_ Floor
  6
Continuous
100
AcDbMText
 10
29.78353726544612
 20
13.33283672870609
 30
0.0
 40
5.603347280334726
 41
0.0
 71
     1
 72
     1
  1
{The Roofing Store}
  7
GENERATED_STYLE_2
 73
     1
 44
1.0
  0
MTEXT
  5
DC
102
{ACAD_XDICTIONARY
360
274
102
}
330
1F
100
AcDbEntity
  8
0
  6
Continuous
100
AcDbMText
 10
102.7389238446655
 20
6.378784417288156
 30
0.0
 40
1.5
 41
0.0
 71
     7
 72
     1
  1
{P: HEAD OFFICE              09 277 2717\P    ALBANY             09 972 0060\P    KATIKAIT            07 549 5190\P    WELLINGTON              04 974 5792\P    CHRISTCHURCH          03 348 6528}
  7
GENERATED_STYLE_1
 73
     1
 44
1.062946161486498
  0
MTEXT
  5
DD
330
1F
100
AcDbEntity
  8
0
  6
Continuous
100
AcDbMText
 10
149.4184566143587
 20
9.199084231526156
 30
0.0
 40
1.5
 41
0.0
 71
     7
 72
     1
  1
{WEB: www.theroofingstore.co.nz}
  7
GENERATED_STYLE_1
 73
     1
 44
1.0
  0
MTEXT
  5
DE
330
1F
100
AcDbEntity
  8
0
  6
Continuous
100
AcDbMText
 10
149.4184566143587
 20
6.620946023411263
 30
0.0
 40
1.5
 41
0.0
 71
     7
 72
     1
  1
{Copyright \U+00A9 The Roofing Store 2013}
  7
GENERATED_STYLE_1
 73
     1
 44
1.0
  0
MTEXT
  5
DF
330
1F
100
AcDbEntity
  8
0
  6
Continuous
100
AcDbMText
 10
273.9546684065315
 20
15.01595760437819
 30
0.0
 40
2.25
 41
0.0
 71
     7
 72
     1
  1
{1:30}
  7
GENERATED_STYLE_1
 73
     1
 44
1.0
  0
MTEXT
  5
E0
330
1F
100
AcDbEntity
  8
0
  6
Continuous
100
AcDbMText
 10
264.8396605309016
 20
15.51746459162148
 30
0.0
 40
1.5
 41
0.0
 71
     7
 72
     1
  1
{SCALE:}
  7
GENERATED_STYLE_1
 73
     1
 44
1.0
  0
MTEXT
  5
E1
330
1F
100
AcDbEntity
  8
0
  6
Continuous
100
AcDbMText
 10
191.5066235617487
 20
15.48695559872207
 30
0.0
 40
1.5
 41
0.0
 71
     7
 72
     1
  1
{DETAIL NUMBER:}
  7
GENERATED_STYLE_1
 73
     1
 44
1.0
  0
MTEXT
  5
E2
330
1F
100
AcDbEntity
  8
0
  6
Continuous
100
AcDbMText
 10
191.5066235617487
 20
9.005462392315325
 30
0.0
 40
1.5
 41
0.0
 71
     7
 72
     1
  1
{TITLE:}
  7
GENERATED_STYLE_1
 73
     1
 44
1.0
  0
INSERT
  5
23F
102
{ACAD_XDICTIONARY
360
240
102
}
330
1F
100
AcDbEntity
  8
0
  6
Continuous
100
AcDbBlockReference
  2
Drawing_1_2
 10
180.1182711515631
 20
104.2792165591143
 30
0.0
  0
HATCH
  5
243
330
1F
100
AcDbEntity
  8
0
  6
Continuous
 62
   255
370
    18
100
AcDbHatch
 10
0.0
 20
0.0
 30
0.0
210
0.0
220
0.0
230
1.0
  2
SOLID
 70
     1
 71
     1
 91
        1
 92
        3
 72
     0
 73
     1
 93
        4
 10
273.3048340926641
 20
18.76127115967694
 10
281.1157441007591
 20
18.76127115967694
 10
281.1157441007591
 20
13.60607055433428
 10
273.3048340926641
 20
13.60607055433428
 97
        1
330
244
 75
     0
 76
     1
 98
        0
  0
LWPOLYLINE
  5
244
102
{ACAD_REACTORS
330
243
102
}
330
1F
100
AcDbEntity
  8
0
  6
Continuous
 62
   255
370
    18
100
AcDbPolyline
 90
        4
 70
   129
 43
0.0
 10
273.3048340926641
 20
18.76127115967694
 10
281.1157441007591
 20
18.76127115967694
 10
281.1157441007591
 20
13.60607055433428
 10
273.3048340926641
 20
13.60607055433428
  0
MTEXT
  5
245
330
1F
100
AcDbEntity
  8
0
  6
Continuous
100
AcDbMText
 10
273.3048340926641
 20
15.04971009924697
 30
0.0
 40
2.0
 41
0.0
 71
     7
 72
     1
  1
{NTS}
  7
GENERATED_STYLE_1
 73
     1
 44
1.0
  0
ENDSEC
  0
SECTION
  2
OBJECTS
  0
DICTIONARY
  5
C
330
0
100
AcDbDictionary
281
     1
  3
ACAD_GROUP
350
D
  3
ACAD_LAYOUT
350
1A
  3
ACAD_MATERIAL
350
3B
  3
ACAD_MLEADERSTYLE
350
26F
  3
ACAD_MLINESTYLE
350
17
  3
ACAD_PLOTSETTINGS
350
19
  3
ACAD_PLOTSTYLENAME
350
E
  3
ACAD_SCALELIST
350
249
  3
ACAD_VISUALSTYLE
350
2A
  3
AcDbVariableDictionary
350
26D
  3
WATERMARKS
350
26B
  0
DICTIONARY
  5
274
330
DC
100
AcDbDictionary
280
     1
281
     1
  3
ACAD_MTEXT_RT
360
275
  0
DICTIONARY
  5
240
330
23F
100
AcDbDictionary
280
     1
281
     1
  3
ACAD_FILTER
360
241
  0
DICTIONARY
  5
D
102
{ACAD_REACTORS
330
C
102
}
330
C
100
AcDbDictionary
281
     1
  0
DICTIONARY
  5
1A
102
{ACAD_REACTORS
330
C
102
}
330
C
100
AcDbDictionary
281
     1
  3
Layout1
350
1E
  3
Model
350
22
  0
DICTIONARY
  5
3B
102
{ACAD_REACTORS
330
C
102
}
330
C
100
AcDbDictionary
281
     1
  3
ByBlock
350
3D
  3
ByLayer
350
3C
  3
Global
350
3E
  0
DICTIONARY
  5
26F
102
{ACAD_REACTORS
330
C
102
}
330
C
100
AcDbDictionary
281
     1
  0
DICTIONARY
  5
17
102
{ACAD_REACTORS
330
C
102
}
330
C
100
AcDbDictionary
281
     1
  3
Standard
350
18
  0
DICTIONARY
  5
19
102
{ACAD_REACTORS
330
C
102
}
330
C
100
AcDbDictionary
281
     1
  0
ACDBDICTIONARYWDFLT
  5
E
102
{ACAD_REACTORS
330
C
102
}
330
C
100
AcDbDictionary
281
     1
  3
Normal
350
F
100
AcDbDictionaryWithDefault
340
F
  0
DICTIONARY
  5
249
102
{ACAD_REACTORS
330
C
102
}
330
C
100
AcDbDictionary
281
     1
  3
A0
350
24A
  3
A1
350
24B
  3
A2
350
24C
  3
A3
350
24D
  3
A4
350
24E
  3
A5
350
24F
  3
A6
350
250
  3
A7
350
251
  3
A8
350
252
  3
A9
350
253
  3
B0
350
254
  3
B1
350
255
  3
B2
350
256
  3
B3
350
257
  3
B4
350
258
  3
B5
350
259
  3
B6
350
25A
  3
B7
350
25B
  3
B8
350
25C
  3
B9
350
25D
  3
C0
350
25E
  3
C1
350
25F
  3
C2
350
260
  3
C3
350
261
  3
C4
350
262
  3
C5
350
263
  3
C6
350
264
  3
C7
350
265
  3
C8
350
266
  3
C9
350
267
  3
D0
350
268
  3
D1
350
269
  3
D2
350
26A
  0
DICTIONARY
  5
2A
102
{ACAD_REACTORS
330
C
102
}
330
C
100
AcDbDictionary
281
     1
  3
2dWireframe
350
2F
  3
3D Hidden
350
31
  3
3dWireframe
350
30
  3
Basic
350
32
  3
Brighten
350
36
  3
ColorChange
350
3A
  3
Conceptual
350
34
  3
Dim
350
35
  3
Facepattern
350
39
  3
Flat
350
2B
  3
FlatWithEdges
350
2C
  3
Gouraud
350
2D
  3
GouraudWithEdges
350
2E
  3
Linepattern
350
38
  3
Realistic
350
33
  3
Thicken
350
37
  0
DICTIONARY
  5
26D
102
{ACAD_REACTORS
330
C
102
}
330
C
100
AcDbDictionary
281
     1
  3
CANNOSCALE
350
271
  3
DIMASSOC
350
272
  3
HIDETEXT
350
273
  3
XCLIPFRAME
350
270
  0
DICTIONARY
  5
26B
102
{ACAD_REACTORS
330
C
102
}
330
C
100
AcDbDictionary
281
     1
  3
AC_WATERMARK
350
26C
  0
XRECORD
  5
275
102
{ACAD_REACTORS
330
274
102
}
330
274
100
AcDbXrecord
280
     1
 40
956118.0
  1
{P: HEAD OFFICE ^I^I09 277 2717\P    ALBANY ^I^I09 972 0060\P    KATIKAIT^I^I07 549 5190\P    WELLINGTON^I^I04 974 5792\P    CHRISTCHURCH^I^I03 348 6528}
  0
DICTIONARY
  5
241
102
{ACAD_REACTORS
330
240
102
}
330
240
100
AcDbDictionary
280
     1
281
     1
  3
SPATIAL
360
242
  0
LAYOUT
  5
1E
102
{ACAD_REACTORS
330
1A
102
}
330
1A
100
AcDbPlotSettings
  1

  2
none_device
  4

  6

 40
0.0
 41
0.0
 42
0.0
 43
0.0
 44
0.0
 45
0.0
 46
0.0
 47
0.0
 48
0.0
 49
0.0
140
0.0
141
0.0
142
1.0
143
1.0
 70
   688
 72
     0
 73
     0
 74
     5
  7

 75
    16
147
1.0
148
0.0
149
0.0
100
AcDbLayout
  1
Layout1
 70
     1
 71
     1
 10
0.0
 20
0.0
 11
12.0
 21
9.0
 12
0.0
 22
0.0
 32
0.0
 14
1.000000000000000E+20
 24
1.000000000000000E+20
 34
1.000000000000000E+20
 15
-1.000000000000000E+20
 25
-1.000000000000000E+20
 35
-1.000000000000000E+20
146
0.0
 13
0.0
 23
0.0
 33
0.0
 16
1.0
 26
0.0
 36
0.0
 17
0.0
 27
1.0
 37
0.0
 76
     0
330
1B
  0
LAYOUT
  5
22
102
{ACAD_REACTORS
330
1A
102
}
330
1A
100
AcDbPlotSettings
  1

  2
none_device
  4

  6

 40
0.0
 41
0.0
 42
0.0
 43
0.0
 44
0.0
 45
0.0
 46
0.0
 47
0.0
 48
0.0
 49
0.0
140
0.0
141
0.0
142
1.0
143
1.0
 70
  1712
 72
     0
 73
     0
 74
     0
  7

 75
     0
147
1.0
148
0.0
149
0.0
100
AcDbLayout
  1
Model
 70
     1
 71
     0
 10
0.0
 20
0.0
 11
12.0
 21
9.0
 12
0.0
 22
0.0
 32
0.0
 14
1.000000000000000E+20
 24
1.000000000000000E+20
 34
1.000000000000000E+20
 15
-1.000000000000000E+20
 25
-1.000000000000000E+20
 35
-1.000000000000000E+20
146
0.0
 13
0.0
 23
0.0
 33
0.0
 16
1.0
 26
0.0
 36
0.0
 17
0.0
 27
1.0
 37
0.0
 76
     0
330
1F
331
29
  0
MATERIAL
  5
3D
102
{ACAD_REACTORS
330
3B
102
}
102
{ACAD_XDICTIONARY
360
298
102
}
330
3B
100
AcDbMaterial
  1
ByBlock
  0
MATERIAL
  5
3C
102
{ACAD_REACTORS
330
3B
102
}
102
{ACAD_XDICTIONARY
360
296
102
}
330
3B
100
AcDbMaterial
  1
ByLayer
  0
MATERIAL
  5
3E
102
{ACAD_REACTORS
330
3B
102
}
102
{ACAD_XDICTIONARY
360
29A
102
}
330
3B
100
AcDbMaterial
  1
Global
  0
MLINESTYLE
  5
18
102
{ACAD_REACTORS
330
17
102
}
330
17
100
AcDbMlineStyle
  2
Standard
 70
     0
  3

 62
   256
 51
90.0
 52
90.0
 71
     2
 49
0.5
 62
   256
  6
BYLAYER
 49
-0.5
 62
   256
  6
BYLAYER
  0
ACDBPLACEHOLDER
  5
F
102
{ACAD_REACTORS
330
E
102
}
330
E
  0
SCALE
  5
24A
102
{ACAD_REACTORS
330
249
102
}
330
249
100
AcDbScale
 70
     0
300
1:1
140
1.0
141
1.0
290
     1
  0
SCALE
  5
24B
102
{ACAD_REACTORS
330
249
102
}
330
249
100
AcDbScale
 70
     0
300
1:2
140
1.0
141
2.0
290
     0
  0
SCALE
  5
24C
102
{ACAD_REACTORS
330
249
102
}
330
249
100
AcDbScale
 70
     0
300
1:4
140
1.0
141
4.0
290
     0
  0
SCALE
  5
24D
102
{ACAD_REACTORS
330
249
102
}
330
249
100
AcDbScale
 70
     0
300
1:5
140
1.0
141
5.0
290
     0
  0
SCALE
  5
24E
102
{ACAD_REACTORS
330
249
102
}
330
249
100
AcDbScale
 70
     0
300
1:8
140
1.0
141
8.0
290
     0
  0
SCALE
  5
24F
102
{ACAD_REACTORS
330
249
102
}
330
249
100
AcDbScale
 70
     0
300
1:10
140
1.0
141
10.0
290
     0
  0
SCALE
  5
250
102
{ACAD_REACTORS
330
249
102
}
330
249
100
AcDbScale
 70
     0
300
1:16
140
1.0
141
16.0
290
     0
  0
SCALE
  5
251
102
{ACAD_REACTORS
330
249
102
}
330
249
100
AcDbScale
 70
     0
300
1:20
140
1.0
141
20.0
290
     0
  0
SCALE
  5
252
102
{ACAD_REACTORS
330
249
102
}
330
249
100
AcDbScale
 70
     0
300
1:30
140
1.0
141
30.0
290
     0
  0
SCALE
  5
253
102
{ACAD_REACTORS
330
249
102
}
330
249
100
AcDbScale
 70
     0
300
1:40
140
1.0
141
40.0
290
     0
  0
SCALE
  5
254
102
{ACAD_REACTORS
330
249
102
}
330
249
100
AcDbScale
 70
     0
300
1:50
140
1.0
141
50.0
290
     0
  0
SCALE
  5
255
102
{ACAD_REACTORS
330
249
102
}
330
249
100
AcDbScale
 70
     0
300
1:100
140
1.0
141
100.0
290
     0
  0
SCALE
  5
256
102
{ACAD_REACTORS
330
249
102
}
330
249
100
AcDbScale
 70
     0
300
2:1
140
2.0
141
1.0
290
     0
  0
SCALE
  5
257
102
{ACAD_REACTORS
330
249
102
}
330
249
100
AcDbScale
 70
     0
300
4:1
140
4.0
141
1.0
290
     0
  0
SCALE
  5
258
102
{ACAD_REACTORS
330
249
102
}
330
249
100
AcDbScale
 70
     0
300
8:1
140
8.0
141
1.0
290
     0
  0
SCALE
  5
259
102
{ACAD_REACTORS
330
249
102
}
330
249
100
AcDbScale
 70
     0
300
10:1
140
10.0
141
1.0
290
     0
  0
SCALE
  5
25A
102
{ACAD_REACTORS
330
249
102
}
330
249
100
AcDbScale
 70
     0
300
100:1
140
100.0
141
1.0
290
     0
  0
SCALE
  5
25B
102
{ACAD_REACTORS
330
249
102
}
330
249
100
AcDbScale
 70
     0
300
1/128" = 1'-0"
140
0.0078125
141
12.0
290
     0
  0
SCALE
  5
25C
102
{ACAD_REACTORS
330
249
102
}
330
249
100
AcDbScale
 70
     0
300
1/64" = 1'-0"
140
0.015625
141
12.0
290
     0
  0
SCALE
  5
25D
102
{ACAD_REACTORS
330
249
102
}
330
249
100
AcDbScale
 70
     0
300
1/32" = 1'-0"
140
0.03125
141
12.0
290
     0
  0
SCALE
  5
25E
102
{ACAD_REACTORS
330
249
102
}
330
249
100
AcDbScale
 70
     0
300
1/16" = 1'-0"
140
0.0625
141
12.0
290
     0
  0
SCALE
  5
25F
102
{ACAD_REACTORS
330
249
102
}
330
249
100
AcDbScale
 70
     0
300
3/32" = 1'-0"
140
0.09375
141
12.0
290
     0
  0
SCALE
  5
260
102
{ACAD_REACTORS
330
249
102
}
330
249
100
AcDbScale
 70
     0
300
1/8" = 1'-0"
140
0.125
141
12.0
290
     0
  0
SCALE
  5
261
102
{ACAD_REACTORS
330
249
102
}
330
249
100
AcDbScale
 70
     0
300
3/16" = 1'-0"
140
0.1875
141
12.0
290
     0
  0
SCALE
  5
262
102
{ACAD_REACTORS
330
249
102
}
330
249
100
AcDbScale
 70
     0
300
1/4" = 1'-0"
140
0.25
141
12.0
290
     0
  0
SCALE
  5
263
102
{ACAD_REACTORS
330
249
102
}
330
249
100
AcDbScale
 70
     0
300
3/8" = 1'-0"
140
0.375
141
12.0
290
     0
  0
SCALE
  5
264
102
{ACAD_REACTORS
330
249
102
}
330
249
100
AcDbScale
 70
     0
300
1/2" = 1'-0"
140
0.5
141
12.0
290
     0
  0
SCALE
  5
265
102
{ACAD_REACTORS
330
249
102
}
330
249
100
AcDbScale
 70
     0
300
3/4" = 1'-0"
140
0.75
141
12.0
290
     0
  0
SCALE
  5
266
102
{ACAD_REACTORS
330
249
102
}
330
249
100
AcDbScale
 70
     0
300
1" = 1'-0"
140
1.0
141
12.0
290
     0
  0
SCALE
  5
267
102
{ACAD_REACTORS
330
249
102
}
330
249
100
AcDbScale
 70
     0
300
1-1/2" = 1'-0"
140
1.5
141
12.0
290
     0
  0
SCALE
  5
268
102
{ACAD_REACTORS
330
249
102
}
330
249
100
AcDbScale
 70
     0
300
3" = 1'-0"
140
3.0
141
12.0
290
     0
  0
SCALE
  5
269
102
{ACAD_REACTORS
330
249
102
}
330
249
100
AcDbScale
 70
     0
300
6" = 1'-0"
140
6.0
141
12.0
290
     0
  0
SCALE
  5
26A
102
{ACAD_REACTORS
330
249
102
}
330
249
100
AcDbScale
 70
     0
300
1'-0" = 1'-0"
140
12.0
141
12.0
290
     0
  0
VISUALSTYLE
  5
2F
102
{ACAD_REACTORS
330
2A
102
}
102
{ACAD_XDICTIONARY
360
27E
102
}
330
2A
100
AcDbVisualStyle
  2
2dWireframe
 70
     4
 71
     0
 72
     2
 73
     0
 90
        0
 40
-0.6
 41
-30.0
 62
     5
 63
     7
 74
     1
 91
        4
 64
     7
 65
   257
 75
     1
175
     1
 42
1.0
 92
        0
 66
   257
 43
1.0
 76
     1
 77
     6
 78
     2
 67
     7
 79
     5
170
     0
171
     0
290
     0
174
     0
 93
        1
 44
0.0
173
     0
291
     0
 45
0.0
1001
ACAD
1000
AcDbSavedByObjectVersion
1070
     0
  0
VISUALSTYLE
  5
31
102
{ACAD_REACTORS
330
2A
102
}
102
{ACAD_XDICTIONARY
360
282
102
}
330
2A
100
AcDbVisualStyle
  2
3D Hidden
 70
     6
 71
     1
 72
     2
 73
     2
 90
        0
 40
-0.6
 41
-30.0
 62
     5
 63
     7
 74
     2
 91
        2
 64
     7
 65
   257
 75
     2
175
     1
 42
40.0
 92
        0
 66
   257
 43
1.0
 76
     1
 77
     6
 78
     2
 67
     7
 79
     3
170
     0
171
     0
290
     0
174
     0
 93
        1
 44
0.0
173
     0
291
     0
 45
0.0
1001
ACAD
1000
AcDbSavedByObjectVersion
1070
     0
  0
VISUALSTYLE
  5
30
102
{ACAD_REACTORS
330
2A
102
}
102
{ACAD_XDICTIONARY
360
280
102
}
330
2A
100
AcDbVisualStyle
  2
3dWireframe
 70
     5
 71
     0
 72
     2
 73
     0
 90
        0
 40
-0.6
 41
-30.0
 62
     5
 63
     7
 74
     1
 91
        4
 64
     7
 65
   257
 75
     1
175
     1
 42
1.0
 92
        0
 66
   257
 43
1.0
 76
     1
 77
     6
 78
     2
 67
     7
 79
     5
170
     0
171
     0
290
     0
174
     0
 93
        1
 44
0.0
173
     0
291
     0
 45
0.0
1001
ACAD
1000
AcDbSavedByObjectVersion
1070
     0
  0
VISUALSTYLE
  5
32
102
{ACAD_REACTORS
330
2A
102
}
102
{ACAD_XDICTIONARY
360
284
102
}
330
2A
100
AcDbVisualStyle
  2
Basic
 70
     7
 71
     1
 72
     0
 73
     1
 90
        0
 40
-0.6
 41
-30.0
 62
     5
 63
     7
 74
     0
 91
        4
 64
     7
 65
   257
 75
     1
175
     1
 42
1.0
 92
        8
 66
     7
 43
1.0
 76
     1
 77
     6
 78
     2
 67
     7
 79
     5
170
     0
171
     0
290
     0
174
     0
 93
        1
 44
0.0
173
     0
291
     1
 45
0.0
1001
ACAD
1000
AcDbSavedByObjectVersion
1070
     0
  0
VISUALSTYLE
  5
36
102
{ACAD_REACTORS
330
2A
102
}
102
{ACAD_XDICTIONARY
360
28C
102
}
330
2A
100
AcDbVisualStyle
  2
Brighten
 70
    12
 71
     2
 72
     2
 73
     0
 90
        0
 40
-0.6
 41
-30.0
 62
     5
 63
     7
 74
     1
 91
        4
 64
     7
 65
   257
 75
     1
175
     1
 42
1.0
 92
        8
 66
     7
 43
1.0
 76
     1
 77
     6
 78
     2
 67
     7
 79
     5
170
     0
171
     0
290
     0
174
     0
 93
        1
 44
50.0
173
     0
291
     1
 45
0.0
1001
ACAD
1000
AcDbSavedByObjectVersion
1070
     0
  0
VISUALSTYLE
  5
3A
102
{ACAD_REACTORS
330
2A
102
}
102
{ACAD_XDICTIONARY
360
294
102
}
330
2A
100
AcDbVisualStyle
  2
ColorChange
 70
    16
 71
     2
 72
     2
 73
     3
 90
        0
 40
-0.6
 41
-30.0
 62
     5
 63
     8
 74
     1
 91
        4
 64
     7
 65
   257
 75
     1
175
     1
 42
1.0
 92
        8
 66
     8
 43
1.0
 76
     1
 77
     6
 78
     2
 67
     7
 79
     5
170
     0
171
     0
290
     0
174
     0
 93
        1
 44
0.0
173
     0
291
     1
 45
0.0
1001
ACAD
1000
AcDbSavedByObjectVersion
1070
     0
  0
VISUALSTYLE
  5
34
102
{ACAD_REACTORS
330
2A
102
}
102
{ACAD_XDICTIONARY
360
288
102
}
330
2A
100
AcDbVisualStyle
  2
Conceptual
 70
     9
 71
     3
 72
     2
 73
     0
 90
        0
 40
-0.6
 41
-30.0
 62
     5
 63
     7
 74
     2
 91
        2
 64
     7
 65
   257
 75
     1
175
     1
 42
40.0
 92
        8
 66
     7
 43
1.0
 76
     1
 77
     6
 78
     2
 67
     7
 79
     3
170
     0
171
     0
290
     0
174
     0
 93
        1
 44
0.0
173
     0
291
     0
 45
0.0
1001
ACAD
1000
AcDbSavedByObjectVersion
1070
     0
  0
VISUALSTYLE
  5
35
102
{ACAD_REACTORS
330
2A
102
}
102
{ACAD_XDICTIONARY
360
28A
102
}
330
2A
100
AcDbVisualStyle
  2
Dim
 70
    11
 71
     2
 72
     2
 73
     0
 90
        0
 40
-0.6
 41
-30.0
 62
     5
 63
     7
 74
     1
 91
        4
 64
     7
 65
   257
 75
     1
175
     1
 42
1.0
 92
        8
 66
     7
 43
1.0
 76
     1
 77
     6
 78
     2
 67
     7
 79
     5
170
     0
171
     0
290
     0
174
     0
 93
        1
 44
-50.0
173
     0
291
     1
 45
0.0
1001
ACAD
1000
AcDbSavedByObjectVersion
1070
     0
  0
VISUALSTYLE
  5
39
102
{ACAD_REACTORS
330
2A
102
}
102
{ACAD_XDICTIONARY
360
292
102
}
330
2A
100
AcDbVisualStyle
  2
Facepattern
 70
    15
 71
     2
 72
     2
 73
     0
 90
        0
 40
-0.6
 41
-30.0
 62
     5
 63
     7
 74
     1
 91
        4
 64
     7
 65
   257
 75
     1
175
     1
 42
1.0
 92
        8
 66
     7
 43
1.0
 76
     1
 77
     6
 78
     2
 67
     7
 79
     5
170
     0
171
     0
290
     0
174
     0
 93
        1
 44
0.0
173
     0
291
     1
 45
0.0
1001
ACAD
1000
AcDbSavedByObjectVersion
1070
     0
  0
VISUALSTYLE
  5
2B
102
{ACAD_REACTORS
330
2A
102
}
102
{ACAD_XDICTIONARY
360
276
102
}
330
2A
100
AcDbVisualStyle
  2
Flat
 70
     0
 71
     2
 72
     1
 73
     1
 90
        2
 40
-0.6
 41
30.0
 62
     5
 63
     7
 74
     0
 91
        4
 64
     7
 65
   257
 75
     1
175
     1
 42
1.0
 92
        8
 66
     7
 43
1.0
 76
     1
 77
     6
 78
     2
 67
     7
 79
     5
170
     0
171
     0
290
     0
174
     0
 93
       13
 44
0.0
173
     0
291
     1
 45
0.0
1001
ACAD
1000
AcDbSavedByObjectVersion
1070
     0
  0
VISUALSTYLE
  5
2C
102
{ACAD_REACTORS
330
2A
102
}
102
{ACAD_XDICTIONARY
360
278
102
}
330
2A
100
AcDbVisualStyle
  2
FlatWithEdges
 70
     1
 71
     2
 72
     1
 73
     1
 90
        2
 40
-0.6
 41
30.0
 62
     5
 63
     7
 74
     1
 91
        4
 64
     7
 65
   257
 75
     1
175
     1
 42
1.0
 92
        0
 66
   257
 43
1.0
 76
     1
 77
     6
 78
     2
 67
     7
 79
     5
170
     0
171
     0
290
     0
174
     0
 93
       13
 44
0.0
173
     0
291
     1
 45
0.0
1001
ACAD
1000
AcDbSavedByObjectVersion
1070
     0
  0
VISUALSTYLE
  5
2D
102
{ACAD_REACTORS
330
2A
102
}
102
{ACAD_XDICTIONARY
360
27A
102
}
330
2A
100
AcDbVisualStyle
  2
Gouraud
 70
     2
 71
     2
 72
     2
 73
     1
 90
        2
 40
-0.6
 41
30.0
 62
     5
 63
     7
 74
     0
 91
        4
 64
     7
 65
   257
 75
     1
175
     1
 42
1.0
 92
        0
 66
     7
 43
1.0
 76
     1
 77
     6
 78
     2
 67
     7
 79
     5
170
     0
171
     0
290
     0
174
     0
 93
       13
 44
0.0
173
     0
291
     1
 45
0.0
1001
ACAD
1000
AcDbSavedByObjectVersion
1070
     0
  0
VISUALSTYLE
  5
2E
102
{ACAD_REACTORS
330
2A
102
}
102
{ACAD_XDICTIONARY
360
27C
102
}
330
2A
100
AcDbVisualStyle
  2
GouraudWithEdges
 70
     3
 71
     2
 72
     2
 73
     1
 90
        2
 40
-0.6
 41
30.0
 62
     5
 63
     7
 74
     1
 91
        4
 64
     7
 65
   257
 75
     1
175
     1
 42
1.0
 92
        0
 66
   257
 43
1.0
 76
     1
 77
     6
 78
     2
 67
     7
 79
     5
170
     0
171
     0
290
     0
174
     0
 93
       13
 44
0.0
173
     0
291
     1
 45
0.0
1001
ACAD
1000
AcDbSavedByObjectVersion
1070
     0
  0
VISUALSTYLE
  5
38
102
{ACAD_REACTORS
330
2A
102
}
102
{ACAD_XDICTIONARY
360
290
102
}
330
2A
100
AcDbVisualStyle
  2
Linepattern
 70
    14
 71
     2
 72
     2
 73
     0
 90
        0
 40
-0.6
 41
-30.0
 62
     5
 63
     7
 74
     1
 91
        4
 64
     7
 65
   257
 75
     7
175
     7
 42
1.0
 92
        8
 66
     7
 43
1.0
 76
     1
 77
     6
 78
     2
 67
     7
 79
     5
170
     0
171
     0
290
     0
174
     0
 93
        1
 44
0.0
173
     0
291
     1
 45
0.0
1001
ACAD
1000
AcDbSavedByObjectVersion
1070
     0
  0
VISUALSTYLE
  5
33
102
{ACAD_REACTORS
330
2A
102
}
102
{ACAD_XDICTIONARY
360
286
102
}
330
2A
100
AcDbVisualStyle
  2
Realistic
 70
     8
 71
     2
 72
     2
 73
     0
 90
        0
 40
-0.6
 41
-30.0
 62
     5
 63
     7
 74
     1
 91
        0
 64
     7
 65
   257
 75
     1
175
     1
 42
1.0
 92
        8
 66
     8
 43
1.0
 76
     1
 77
     6
 78
     2
 67
     7
 79
     5
170
     0
171
     0
290
     0
174
     0
 93
       13
 44
0.0
173
     0
291
     0
 45
0.0
1001
ACAD
1000
AcDbSavedByObjectVersion
1070
     0
  0
VISUALSTYLE
  5
37
102
{ACAD_REACTORS
330
2A
102
}
102
{ACAD_XDICTIONARY
360
28E
102
}
330
2A
100
AcDbVisualStyle
  2
Thicken
 70
    13
 71
     2
 72
     2
 73
     0
 90
        0
 40
-0.6
 41
-30.0
 62
     5
 63
     7
 74
     1
 91
        4
 64
     7
 65
   257
 75
     1
175
     1
 42
1.0
 92
       12
 66
     7
 43
1.0
 76
     1
 77
     6
 78
     2
 67
     7
 79
     5
170
     0
171
     0
290
     0
174
     0
 93
        1
 44
0.0
173
     0
291
     1
 45
0.0
1001
ACAD
1000
AcDbSavedByObjectVersion
1070
     0
  0
DICTIONARYVAR
  5
271
102
{ACAD_REACTORS
330
26D
102
}
330
26D
100
DictionaryVariables
280
     0
  1
1:1
  0
DICTIONARYVAR
  5
272
102
{ACAD_REACTORS
330
26D
102
}
330
26D
100
DictionaryVariables
280
     0
  1
2
  0
DICTIONARYVAR
  5
273
102
{ACAD_REACTORS
330
26D
102
}
330
26D
100
DictionaryVariables
280
     0
  1
1
  0
DICTIONARYVAR
  5
270
102
{ACAD_REACTORS
330
26D
102
}
330
26D
100
DictionaryVariables
280
     0
  1
0
  0
XRECORD
  5
26C
102
{ACAD_REACTORS
330
26B
102
}
330
26B
100
AcDbXrecord
280
     1
1000
This DWG file was created in ArchiCAD(TM)®
  0
SPATIAL_FILTER
  5
242
102
{ACAD_REACTORS
330
241
102
}
330
241
100
AcDbFilter
100
AcDbSpatialFilter
 70
     4
 10
8.561421807913666
 20
34.25424126763513
 10
287.8750893013041
 20
34.25424126763513
 10
287.8750893013041
 20
193.567009796245
 10
8.561421807913666
 20
193.567009796245
210
0.0
220
0.0
230
1.0
 11
0.0
 21
0.0
 31
0.0
 71
     1
 72
     0
 73
     0
 40
1.0
 40
0.0
 40
0.0
 40
0.0
 40
0.0
 40
1.0
 40
0.0
 40
0.0
 40
0.0
 40
0.0
 40
1.0
 40
0.0
 40
1.0
 40
0.0
 40
0.0
 40
0.0
 40
0.0
 40
1.0
 40
0.0
 40
0.0
 40
0.0
 40
0.0
 40
1.0
 40
0.0
  0
DICTIONARY
  5
298
330
3D
100
AcDbDictionary
280
     1
281
     1
  3
ACAD_XREC_ROUNDTRIP
360
299
  0
DICTIONARY
  5
296
330
3C
100
AcDbDictionary
280
     1
281
     1
  3
ACAD_XREC_ROUNDTRIP
360
297
  0
DICTIONARY
  5
29A
330
3E
100
AcDbDictionary
280
     1
281
     1
  3
ACAD_XREC_ROUNDTRIP
360
29B
  0
DICTIONARY
  5
27E
330
2F
100
AcDbDictionary
280
     1
281
     1
  3
ACAD_XREC_ROUNDTRIP
360
27F
  0
DICTIONARY
  5
282
330
31
100
AcDbDictionary
280
     1
281
     1
  3
ACAD_XREC_ROUNDTRIP
360
283
  0
DICTIONARY
  5
280
330
30
100
AcDbDictionary
280
     1
281
     1
  3
ACAD_XREC_ROUNDTRIP
360
281
  0
DICTIONARY
  5
284
330
32
100
AcDbDictionary
280
     1
281
     1
  3
ACAD_XREC_ROUNDTRIP
360
285
  0
DICTIONARY
  5
28C
330
36
100
AcDbDictionary
280
     1
281
     1
  3
ACAD_XREC_ROUNDTRIP
360
28D
  0
DICTIONARY
  5
294
330
3A
100
AcDbDictionary
280
     1
281
     1
  3
ACAD_XREC_ROUNDTRIP
360
295
  0
DICTIONARY
  5
288
330
34
100
AcDbDictionary
280
     1
281
     1
  3
ACAD_XREC_ROUNDTRIP
360
289
  0
DICTIONARY
  5
28A
330
35
100
AcDbDictionary
280
     1
281
     1
  3
ACAD_XREC_ROUNDTRIP
360
28B
  0
DICTIONARY
  5
292
330
39
100
AcDbDictionary
280
     1
281
     1
  3
ACAD_XREC_ROUNDTRIP
360
293
  0
DICTIONARY
  5
276
330
2B
100
AcDbDictionary
280
     1
281
     1
  3
ACAD_XREC_ROUNDTRIP
360
277
  0
DICTIONARY
  5
278
330
2C
100
AcDbDictionary
280
     1
281
     1
  3
ACAD_XREC_ROUNDTRIP
360
279
  0
DICTIONARY
  5
27A
330
2D
100
AcDbDictionary
280
     1
281
     1
  3
ACAD_XREC_ROUNDTRIP
360
27B
  0
DICTIONARY
  5
27C
330
2E
100
AcDbDictionary
280
     1
281
     1
  3
ACAD_XREC_ROUNDTRIP
360
27D
  0
DICTIONARY
  5
290
330
38
100
AcDbDictionary
280
     1
281
     1
  3
ACAD_XREC_ROUNDTRIP
360
291
  0
DICTIONARY
  5
286
330
33
100
AcDbDictionary
280
     1
281
     1
  3
ACAD_XREC_ROUNDTRIP
360
287
  0
DICTIONARY
  5
28E
330
37
100
AcDbDictionary
280
     1
281
     1
  3
ACAD_XREC_ROUNDTRIP
360
28F
  0
XRECORD
  5
299
102
{ACAD_REACTORS
330
298
102
}
330
298
100
AcDbXrecord
280
     1
102
MATERIAL
148
0.0
149
0.0
149
0.0
 93
        0
 94
      127
282
     0
 72
     1
 77
     1
171
     1
175
     1
179
     1
273
     0
  0
XRECORD
  5
297
102
{ACAD_REACTORS
330
296
102
}
330
296
100
AcDbXrecord
280
     1
102
MATERIAL
148
0.0
149
0.0
149
0.0
 93
        0
 94
      127
282
     0
 72
     1
 77
     1
171
     1
175
     1
179
     1
273
     0
  0
XRECORD
  5
29B
102
{ACAD_REACTORS
330
29A
102
}
330
29A
100
AcDbXrecord
280
     1
102
MATERIAL
148
0.0
149
0.0
149
0.0
 93
        0
 94
      127
282
     0
 72
     1
 77
     1
171
     1
175
     1
179
     1
273
     0
  0
XRECORD
  5
27F
102
{ACAD_REACTORS
330
27E
102
}
330
27E
100
AcDbXrecord
280
     1
102
RTVSPropertyOp0
 70
     1
102
RTVSPropertyOp1
 70
     1
102
RTVSPropertyOp2
 70
     1
102
RTVSPropertyOp3
 70
     1
102
RTVSPropertyOp4
 70
     1
102
RTVSPropertyOp5
 70
     1
102
RTVSPropertyOp6
 70
     1
102
RTVSPropertyOp7
 70
     1
102
RTVSPropertyOp8
 70
     1
102
RTVSPropertyOp9
 70
     1
102
RTVSPropertyOp10
 70
     1
102
RTVSPropertyOp11
 70
     1
102
RTVSPropertyOp12
 70
     1
102
RTVSPropertyOp13
 70
     1
102
RTVSPropertyOp14
 70
     1
102
RTVSPropertyOp15
 70
     1
102
RTVSPropertyOp16
 70
     1
102
RTVSPropertyOp17
 70
     1
102
RTVSPropertyOp18
 70
     1
102
RTVSPropertyOp19
 70
     1
102
RTVSPropertyOp20
 70
     1
102
RTVSPropertyOp21
 70
     1
102
RTVSPropertyOp22
 70
     1
102
RTVSPropertyOp23
 70
     1
102
RTVSPropertyOp24
 70
     1
102
RTVSPropertyOp25
 70
     1
102
RTVSPropertyOp26
 70
     1
102
RTVSPropertyOp27
 70
     1
102
RTVSPropertyOp28
 70
     1
102
RTVSPropertyOp29
 70
     1
102
RTVSPropertyOp30
 70
     1
102
RTVSPropertyOp31
 70
     1
102
RTVSPropertyOp32
 70
     1
  0
XRECORD
  5
283
102
{ACAD_REACTORS
330
282
102
}
330
282
100
AcDbXrecord
280
     1
102
RTVSPropertyOp0
 70
     1
102
RTVSPropertyOp1
 70
     1
102
RTVSPropertyOp2
 70
     1
102
RTVSPropertyOp3
 70
     1
102
RTVSPropertyOp4
 70
     1
102
RTVSPropertyOp5
 70
     1
102
RTVSPropertyOp6
 70
     1
102
RTVSPropertyOp7
 70
     1
102
RTVSPropertyOp8
 70
     1
102
RTVSPropertyOp9
 70
     1
102
RTVSPropertyOp10
 70
     1
102
RTVSPropertyOp11
 70
     1
102
RTVSPropertyOp12
 70
     1
102
RTVSPropertyOp13
 70
     1
102
RTVSPropertyOp14
 70
     1
102
RTVSPropertyOp15
 70
     1
102
RTVSPropertyOp16
 70
     1
102
RTVSPropertyOp17
 70
     1
102
RTVSPropertyOp18
 70
     1
102
RTVSPropertyOp19
 70
     1
102
RTVSPropertyOp20
 70
     1
102
RTVSPropertyOp21
 70
     1
102
RTVSPropertyOp22
 70
     1
102
RTVSPropertyOp23
 70
     1
102
RTVSPropertyOp24
 70
     1
102
RTVSPropertyOp25
 70
     1
102
RTVSPropertyOp26
 70
     1
102
RTVSPropertyOp27
 70
     1
102
RTVSPropertyOp28
 70
     1
102
RTVSPropertyOp29
 70
     1
102
RTVSPropertyOp30
 70
     1
102
RTVSPropertyOp31
 70
     1
102
RTVSPropertyOp32
 70
     1
  0
XRECORD
  5
281
102
{ACAD_REACTORS
330
280
102
}
330
280
100
AcDbXrecord
280
     1
102
RTVSPropertyOp0
 70
     1
102
RTVSPropertyOp1
 70
     1
102
RTVSPropertyOp2
 70
     1
102
RTVSPropertyOp3
 70
     1
102
RTVSPropertyOp4
 70
     1
102
RTVSPropertyOp5
 70
     1
102
RTVSPropertyOp6
 70
     1
102
RTVSPropertyOp7
 70
     1
102
RTVSPropertyOp8
 70
     1
102
RTVSPropertyOp9
 70
     1
102
RTVSPropertyOp10
 70
     1
102
RTVSPropertyOp11
 70
     1
102
RTVSPropertyOp12
 70
     1
102
RTVSPropertyOp13
 70
     1
102
RTVSPropertyOp14
 70
     1
102
RTVSPropertyOp15
 70
     1
102
RTVSPropertyOp16
 70
     1
102
RTVSPropertyOp17
 70
     1
102
RTVSPropertyOp18
 70
     1
102
RTVSPropertyOp19
 70
     1
102
RTVSPropertyOp20
 70
     1
102
RTVSPropertyOp21
 70
     1
102
RTVSPropertyOp22
 70
     1
102
RTVSPropertyOp23
 70
     1
102
RTVSPropertyOp24
 70
     1
102
RTVSPropertyOp25
 70
     1
102
RTVSPropertyOp26
 70
     1
102
RTVSPropertyOp27
 70
     1
102
RTVSPropertyOp28
 70
     1
102
RTVSPropertyOp29
 70
     1
102
RTVSPropertyOp30
 70
     1
102
RTVSPropertyOp31
 70
     1
102
RTVSPropertyOp32
 70
     1
  0
XRECORD
  5
285
102
{ACAD_REACTORS
330
284
102
}
330
284
100
AcDbXrecord
280
     1
102
RTVSPropertyOp0
 70
     1
102
RTVSPropertyOp1
 70
     1
102
RTVSPropertyOp2
 70
     1
102
RTVSPropertyOp3
 70
     1
102
RTVSPropertyOp4
 70
     1
102
RTVSPropertyOp5
 70
     1
102
RTVSPropertyOp6
 70
     1
102
RTVSPropertyOp7
 70
     1
102
RTVSPropertyOp8
 70
     1
102
RTVSPropertyOp9
 70
     1
102
RTVSPropertyOp10
 70
     1
102
RTVSPropertyOp11
 70
     1
102
RTVSPropertyOp12
 70
     1
102
RTVSPropertyOp13
 70
     1
102
RTVSPropertyOp14
 70
     1
102
RTVSPropertyOp15
 70
     1
102
RTVSPropertyOp16
 70
     1
102
RTVSPropertyOp17
 70
     1
102
RTVSPropertyOp18
 70
     1
102
RTVSPropertyOp19
 70
     1
102
RTVSPropertyOp20
 70
     1
102
RTVSPropertyOp21
 70
     1
102
RTVSPropertyOp22
 70
     1
102
RTVSPropertyOp23
 70
     1
102
RTVSPropertyOp24
 70
     1
102
RTVSPropertyOp25
 70
     1
102
RTVSPropertyOp26
 70
     1
102
RTVSPropertyOp27
 70
     1
102
RTVSPropertyOp28
 70
     1
102
RTVSPropertyOp29
 70
     1
102
RTVSPropertyOp30
 70
     1
102
RTVSPropertyOp31
 70
     1
102
RTVSPropertyOp32
 70
     1
  0
XRECORD
  5
28D
102
{ACAD_REACTORS
330
28C
102
}
330
28C
100
AcDbXrecord
280
     1
102
RTVSPropertyOp0
 70
     1
102
RTVSPropertyOp1
 70
     1
102
RTVSPropertyOp2
 70
     1
102
RTVSPropertyOp3
 70
     1
102
RTVSPropertyOp4
 70
     1
102
RTVSPropertyOp5
 70
     1
102
RTVSPropertyOp6
 70
     1
102
RTVSPropertyOp7
 70
     1
102
RTVSPropertyOp8
 70
     1
102
RTVSPropertyOp9
 70
     1
102
RTVSPropertyOp10
 70
     1
102
RTVSPropertyOp11
 70
     1
102
RTVSPropertyOp12
 70
     1
102
RTVSPropertyOp13
 70
     1
102
RTVSPropertyOp14
 70
     1
102
RTVSPropertyOp15
 70
     1
102
RTVSPropertyOp16
 70
     1
102
RTVSPropertyOp17
 70
     1
102
RTVSPropertyOp18
 70
     1
102
RTVSPropertyOp19
 70
     1
102
RTVSPropertyOp20
 70
     1
102
RTVSPropertyOp21
 70
     1
102
RTVSPropertyOp22
 70
     1
102
RTVSPropertyOp23
 70
     1
102
RTVSPropertyOp24
 70
     1
102
RTVSPropertyOp25
 70
     1
102
RTVSPropertyOp26
 70
     1
102
RTVSPropertyOp27
 70
     1
102
RTVSPropertyOp28
 70
     1
102
RTVSPropertyOp29
 70
     1
102
RTVSPropertyOp30
 70
     1
102
RTVSPropertyOp31
 70
     1
102
RTVSPropertyOp32
 70
     1
  0
XRECORD
  5
295
102
{ACAD_REACTORS
330
294
102
}
330
294
100
AcDbXrecord
280
     1
102
RTVSPropertyOp0
 70
     1
102
RTVSPropertyOp1
 70
     1
102
RTVSPropertyOp2
 70
     1
102
RTVSPropertyOp3
 70
     1
102
RTVSPropertyOp4
 70
     1
102
RTVSPropertyOp5
 70
     1
102
RTVSPropertyOp6
 70
     1
102
RTVSPropertyOp7
 70
     1
102
RTVSPropertyOp8
 70
     1
102
RTVSPropertyOp9
 70
     1
102
RTVSPropertyOp10
 70
     1
102
RTVSPropertyOp11
 70
     1
102
RTVSPropertyOp12
 70
     1
102
RTVSPropertyOp13
 70
     1
102
RTVSPropertyOp14
 70
     1
102
RTVSPropertyOp15
 70
     1
102
RTVSPropertyOp16
 70
     1
102
RTVSPropertyOp17
 70
     1
102
RTVSPropertyOp18
 70
     1
102
RTVSPropertyOp19
 70
     1
102
RTVSPropertyOp20
 70
     1
102
RTVSPropertyOp21
 70
     1
102
RTVSPropertyOp22
 70
     1
102
RTVSPropertyOp23
 70
     1
102
RTVSPropertyOp24
 70
     1
102
RTVSPropertyOp25
 70
     1
102
RTVSPropertyOp26
 70
     1
102
RTVSPropertyOp27
 70
     1
102
RTVSPropertyOp28
 70
     1
102
RTVSPropertyOp29
 70
     1
102
RTVSPropertyOp30
 70
     1
102
RTVSPropertyOp31
 70
     1
102
RTVSPropertyOp32
 70
     1
  0
XRECORD
  5
289
102
{ACAD_REACTORS
330
288
102
}
330
288
100
AcDbXrecord
280
     1
102
RTVSPropertyOp0
 70
     1
102
RTVSPropertyOp1
 70
     1
102
RTVSPropertyOp2
 70
     1
102
RTVSPropertyOp3
 70
     1
102
RTVSPropertyOp4
 70
     1
102
RTVSPropertyOp5
 70
     1
102
RTVSPropertyOp6
 70
     1
102
RTVSPropertyOp7
 70
     1
102
RTVSPropertyOp8
 70
     1
102
RTVSPropertyOp9
 70
     1
102
RTVSPropertyOp10
 70
     1
102
RTVSPropertyOp11
 70
     1
102
RTVSPropertyOp12
 70
     1
102
RTVSPropertyOp13
 70
     1
102
RTVSPropertyOp14
 70
     1
102
RTVSPropertyOp15
 70
     1
102
RTVSPropertyOp16
 70
     1
102
RTVSPropertyOp17
 70
     1
102
RTVSPropertyOp18
 70
     1
102
RTVSPropertyOp19
 70
     1
102
RTVSPropertyOp20
 70
     1
102
RTVSPropertyOp21
 70
     1
102
RTVSPropertyOp22
 70
     1
102
RTVSPropertyOp23
 70
     1
102
RTVSPropertyOp24
 70
     1
102
RTVSPropertyOp25
 70
     1
102
RTVSPropertyOp26
 70
     1
102
RTVSPropertyOp27
 70
     1
102
RTVSPropertyOp28
 70
     1
102
RTVSPropertyOp29
 70
     1
102
RTVSPropertyOp30
 70
     1
102
RTVSPropertyOp31
 70
     1
102
RTVSPropertyOp32
 70
     1
  0
XRECORD
  5
28B
102
{ACAD_REACTORS
330
28A
102
}
330
28A
100
AcDbXrecord
280
     1
102
RTVSPropertyOp0
 70
     1
102
RTVSPropertyOp1
 70
     1
102
RTVSPropertyOp2
 70
     1
102
RTVSPropertyOp3
 70
     1
102
RTVSPropertyOp4
 70
     1
102
RTVSPropertyOp5
 70
     1
102
RTVSPropertyOp6
 70
     1
102
RTVSPropertyOp7
 70
     1
102
RTVSPropertyOp8
 70
     1
102
RTVSPropertyOp9
 70
     1
102
RTVSPropertyOp10
 70
     1
102
RTVSPropertyOp11
 70
     1
102
RTVSPropertyOp12
 70
     1
102
RTVSPropertyOp13
 70
     1
102
RTVSPropertyOp14
 70
     1
102
RTVSPropertyOp15
 70
     1
102
RTVSPropertyOp16
 70
     1
102
RTVSPropertyOp17
 70
     1
102
RTVSPropertyOp18
 70
     1
102
RTVSPropertyOp19
 70
     1
102
RTVSPropertyOp20
 70
     1
102
RTVSPropertyOp21
 70
     1
102
RTVSPropertyOp22
 70
     1
102
RTVSPropertyOp23
 70
     1
102
RTVSPropertyOp24
 70
     1
102
RTVSPropertyOp25
 70
     1
102
RTVSPropertyOp26
 70
     1
102
RTVSPropertyOp27
 70
     1
102
RTVSPropertyOp28
 70
     1
102
RTVSPropertyOp29
 70
     1
102
RTVSPropertyOp30
 70
     1
102
RTVSPropertyOp31
 70
     1
102
RTVSPropertyOp32
 70
     1
  0
XRECORD
  5
293
102
{ACAD_REACTORS
330
292
102
}
330
292
100
AcDbXrecord
280
     1
102
RTVSPropertyOp0
 70
     1
102
RTVSPropertyOp1
 70
     1
102
RTVSPropertyOp2
 70
     1
102
RTVSPropertyOp3
 70
     1
102
RTVSPropertyOp4
 70
     1
102
RTVSPropertyOp5
 70
     1
102
RTVSPropertyOp6
 70
     1
102
RTVSPropertyOp7
 70
     1
102
RTVSPropertyOp8
 70
     1
102
RTVSPropertyOp9
 70
     1
102
RTVSPropertyOp10
 70
     1
102
RTVSPropertyOp11
 70
     1
102
RTVSPropertyOp12
 70
     1
102
RTVSPropertyOp13
 70
     1
102
RTVSPropertyOp14
 70
     1
102
RTVSPropertyOp15
 70
     1
102
RTVSPropertyOp16
 70
     1
102
RTVSPropertyOp17
 70
     1
102
RTVSPropertyOp18
 70
     1
102
RTVSPropertyOp19
 70
     1
102
RTVSPropertyOp20
 70
     1
102
RTVSPropertyOp21
 70
     1
102
RTVSPropertyOp22
 70
     1
102
RTVSPropertyOp23
 70
     1
102
RTVSPropertyOp24
 70
     1
102
RTVSPropertyOp25
 70
     1
102
RTVSPropertyOp26
 70
     1
102
RTVSPropertyOp27
 70
     1
102
RTVSPropertyOp28
 70
     1
102
RTVSPropertyOp29
 70
     1
102
RTVSPropertyOp30
 70
     1
102
RTVSPropertyOp31
 70
     1
102
RTVSPropertyOp32
 70
     1
  0
XRECORD
  5
277
102
{ACAD_REACTORS
330
276
102
}
330
276
100
AcDbXrecord
280
     1
102
RTVSPropertyOp0
 70
     1
102
RTVSPropertyOp1
 70
     1
102
RTVSPropertyOp2
 70
     1
102
RTVSPropertyOp3
 70
     1
102
RTVSPropertyOp4
 70
     1
102
RTVSPropertyOp5
 70
     1
102
RTVSPropertyOp6
 70
     1
102
RTVSPropertyOp7
 70
     1
102
RTVSPropertyOp8
 70
     1
102
RTVSPropertyOp9
 70
     1
102
RTVSPropertyOp10
 70
     1
102
RTVSPropertyOp11
 70
     1
102
RTVSPropertyOp12
 70
     1
102
RTVSPropertyOp13
 70
     1
102
RTVSPropertyOp14
 70
     1
102
RTVSPropertyOp15
 70
     1
102
RTVSPropertyOp16
 70
     1
102
RTVSPropertyOp17
 70
     1
102
RTVSPropertyOp18
 70
     1
102
RTVSPropertyOp19
 70
     1
102
RTVSPropertyOp20
 70
     1
102
RTVSPropertyOp21
 70
     1
102
RTVSPropertyOp22
 70
     1
102
RTVSPropertyOp23
 70
     1
102
RTVSPropertyOp24
 70
     1
102
RTVSPropertyOp25
 70
     1
102
RTVSPropertyOp26
 70
     1
102
RTVSPropertyOp27
 70
     1
102
RTVSPropertyOp28
 70
     1
102
RTVSPropertyOp29
 70
     1
102
RTVSPropertyOp30
 70
     1
102
RTVSPropertyOp31
 70
     1
102
RTVSPropertyOp32
 70
     1
  0
XRECORD
  5
279
102
{ACAD_REACTORS
330
278
102
}
330
278
100
AcDbXrecord
280
     1
102
RTVSPropertyOp0
 70
     1
102
RTVSPropertyOp1
 70
     1
102
RTVSPropertyOp2
 70
     1
102
RTVSPropertyOp3
 70
     1
102
RTVSPropertyOp4
 70
     1
102
RTVSPropertyOp5
 70
     1
102
RTVSPropertyOp6
 70
     1
102
RTVSPropertyOp7
 70
     1
102
RTVSPropertyOp8
 70
     1
102
RTVSPropertyOp9
 70
     1
102
RTVSPropertyOp10
 70
     1
102
RTVSPropertyOp11
 70
     1
102
RTVSPropertyOp12
 70
     1
102
RTVSPropertyOp13
 70
     1
102
RTVSPropertyOp14
 70
     1
102
RTVSPropertyOp15
 70
     1
102
RTVSPropertyOp16
 70
     1
102
RTVSPropertyOp17
 70
     1
102
RTVSPropertyOp18
 70
     1
102
RTVSPropertyOp19
 70
     1
102
RTVSPropertyOp20
 70
     1
102
RTVSPropertyOp21
 70
     1
102
RTVSPropertyOp22
 70
     1
102
RTVSPropertyOp23
 70
     1
102
RTVSPropertyOp24
 70
     1
102
RTVSPropertyOp25
 70
     1
102
RTVSPropertyOp26
 70
     1
102
RTVSPropertyOp27
 70
     1
102
RTVSPropertyOp28
 70
     1
102
RTVSPropertyOp29
 70
     1
102
RTVSPropertyOp30
 70
     1
102
RTVSPropertyOp31
 70
     1
102
RTVSPropertyOp32
 70
     1
  0
XRECORD
  5
27B
102
{ACAD_REACTORS
330
27A
102
}
330
27A
100
AcDbXrecord
280
     1
102
RTVSPropertyOp0
 70
     1
102
RTVSPropertyOp1
 70
     1
102
RTVSPropertyOp2
 70
     1
102
RTVSPropertyOp3
 70
     1
102
RTVSPropertyOp4
 70
     1
102
RTVSPropertyOp5
 70
     1
102
RTVSPropertyOp6
 70
     1
102
RTVSPropertyOp7
 70
     1
102
RTVSPropertyOp8
 70
     1
102
RTVSPropertyOp9
 70
     1
102
RTVSPropertyOp10
 70
     1
102
RTVSPropertyOp11
 70
     1
102
RTVSPropertyOp12
 70
     1
102
RTVSPropertyOp13
 70
     1
102
RTVSPropertyOp14
 70
     1
102
RTVSPropertyOp15
 70
     1
102
RTVSPropertyOp16
 70
     1
102
RTVSPropertyOp17
 70
     1
102
RTVSPropertyOp18
 70
     1
102
RTVSPropertyOp19
 70
     1
102
RTVSPropertyOp20
 70
     1
102
RTVSPropertyOp21
 70
     1
102
RTVSPropertyOp22
 70
     1
102
RTVSPropertyOp23
 70
     1
102
RTVSPropertyOp24
 70
     1
102
RTVSPropertyOp25
 70
     1
102
RTVSPropertyOp26
 70
     1
102
RTVSPropertyOp27
 70
     1
102
RTVSPropertyOp28
 70
     1
102
RTVSPropertyOp29
 70
     1
102
RTVSPropertyOp30
 70
     1
102
RTVSPropertyOp31
 70
     1
102
RTVSPropertyOp32
 70
     1
  0
XRECORD
  5
27D
102
{ACAD_REACTORS
330
27C
102
}
330
27C
100
AcDbXrecord
280
     1
102
RTVSPropertyOp0
 70
     1
102
RTVSPropertyOp1
 70
     1
102
RTVSPropertyOp2
 70
     1
102
RTVSPropertyOp3
 70
     1
102
RTVSPropertyOp4
 70
     1
102
RTVSPropertyOp5
 70
     1
102
RTVSPropertyOp6
 70
     1
102
RTVSPropertyOp7
 70
     1
102
RTVSPropertyOp8
 70
     1
102
RTVSPropertyOp9
 70
     1
102
RTVSPropertyOp10
 70
     1
102
RTVSPropertyOp11
 70
     1
102
RTVSPropertyOp12
 70
     1
102
RTVSPropertyOp13
 70
     1
102
RTVSPropertyOp14
 70
     1
102
RTVSPropertyOp15
 70
     1
102
RTVSPropertyOp16
 70
     1
102
RTVSPropertyOp17
 70
     1
102
RTVSPropertyOp18
 70
     1
102
RTVSPropertyOp19
 70
     1
102
RTVSPropertyOp20
 70
     1
102
RTVSPropertyOp21
 70
     1
102
RTVSPropertyOp22
 70
     1
102
RTVSPropertyOp23
 70
     1
102
RTVSPropertyOp24
 70
     1
102
RTVSPropertyOp25
 70
     1
102
RTVSPropertyOp26
 70
     1
102
RTVSPropertyOp27
 70
     1
102
RTVSPropertyOp28
 70
     1
102
RTVSPropertyOp29
 70
     1
102
RTVSPropertyOp30
 70
     1
102
RTVSPropertyOp31
 70
     1
102
RTVSPropertyOp32
 70
     1
  0
XRECORD
  5
291
102
{ACAD_REACTORS
330
290
102
}
330
290
100
AcDbXrecord
280
     1
102
RTVSPropertyOp0
 70
     1
102
RTVSPropertyOp1
 70
     1
102
RTVSPropertyOp2
 70
     1
102
RTVSPropertyOp3
 70
     1
102
RTVSPropertyOp4
 70
     1
102
RTVSPropertyOp5
 70
     1
102
RTVSPropertyOp6
 70
     1
102
RTVSPropertyOp7
 70
     1
102
RTVSPropertyOp8
 70
     1
102
RTVSPropertyOp9
 70
     1
102
RTVSPropertyOp10
 70
     1
102
RTVSPropertyOp11
 70
     1
102
RTVSPropertyOp12
 70
     1
102
RTVSPropertyOp13
 70
     1
102
RTVSPropertyOp14
 70
     1
102
RTVSPropertyOp15
 70
     1
102
RTVSPropertyOp16
 70
     1
102
RTVSPropertyOp17
 70
     1
102
RTVSPropertyOp18
 70
     1
102
RTVSPropertyOp19
 70
     1
102
RTVSPropertyOp20
 70
     1
102
RTVSPropertyOp21
 70
     1
102
RTVSPropertyOp22
 70
     1
102
RTVSPropertyOp23
 70
     1
102
RTVSPropertyOp24
 70
     1
102
RTVSPropertyOp25
 70
     1
102
RTVSPropertyOp26
 70
     1
102
RTVSPropertyOp27
 70
     1
102
RTVSPropertyOp28
 70
     1
102
RTVSPropertyOp29
 70
     1
102
RTVSPropertyOp30
 70
     1
102
RTVSPropertyOp31
 70
     1
102
RTVSPropertyOp32
 70
     1
  0
XRECORD
  5
287
102
{ACAD_REACTORS
330
286
102
}
330
286
100
AcDbXrecord
280
     1
102
RTVSPropertyOp0
 70
     1
102
RTVSPropertyOp1
 70
     1
102
RTVSPropertyOp2
 70
     1
102
RTVSPropertyOp3
 70
     1
102
RTVSPropertyOp4
 70
     1
102
RTVSPropertyOp5
 70
     1
102
RTVSPropertyOp6
 70
     1
102
RTVSPropertyOp7
 70
     1
102
RTVSPropertyOp8
 70
     1
102
RTVSPropertyOp9
 70
     1
102
RTVSPropertyOp10
 70
     1
102
RTVSPropertyOp11
 70
     1
102
RTVSPropertyOp12
 70
     1
102
RTVSPropertyOp13
 70
     1
102
RTVSPropertyOp14
 70
     1
102
RTVSPropertyOp15
 70
     1
102
RTVSPropertyOp16
 70
     1
102
RTVSPropertyOp17
 70
     1
102
RTVSPropertyOp18
 70
     1
102
RTVSPropertyOp19
 70
     1
102
RTVSPropertyOp20
 70
     1
102
RTVSPropertyOp21
 70
     1
102
RTVSPropertyOp22
 70
     1
102
RTVSPropertyOp23
 70
     1
102
RTVSPropertyOp24
 70
     1
102
RTVSPropertyOp25
 70
     1
102
RTVSPropertyOp26
 70
     1
102
RTVSPropertyOp27
 70
     1
102
RTVSPropertyOp28
 70
     1
102
RTVSPropertyOp29
 70
     1
102
RTVSPropertyOp30
 70
     1
102
RTVSPropertyOp31
 70
     1
102
RTVSPropertyOp32
 70
     1
  0
XRECORD
  5
28F
102
{ACAD_REACTORS
330
28E
102
}
330
28E
100
AcDbXrecord
280
     1
102
RTVSPropertyOp0
 70
     1
102
RTVSPropertyOp1
 70
     1
102
RTVSPropertyOp2
 70
     1
102
RTVSPropertyOp3
 70
     1
102
RTVSPropertyOp4
 70
     1
102
RTVSPropertyOp5
 70
     1
102
RTVSPropertyOp6
 70
     1
102
RTVSPropertyOp7
 70
     1
102
RTVSPropertyOp8
 70
     1
102
RTVSPropertyOp9
 70
     1
102
RTVSPropertyOp10
 70
     1
102
RTVSPropertyOp11
 70
     1
102
RTVSPropertyOp12
 70
     1
102
RTVSPropertyOp13
 70
     1
102
RTVSPropertyOp14
 70
     1
102
RTVSPropertyOp15
 70
     1
102
RTVSPropertyOp16
 70
     1
102
RTVSPropertyOp17
 70
     1
102
RTVSPropertyOp18
 70
     1
102
RTVSPropertyOp19
 70
     1
102
RTVSPropertyOp20
 70
     1
102
RTVSPropertyOp21
 70
     1
102
RTVSPropertyOp22
 70
     1
102
RTVSPropertyOp23
 70
     1
102
RTVSPropertyOp24
 70
     1
102
RTVSPropertyOp25
 70
     1
102
RTVSPropertyOp26
 70
     1
102
RTVSPropertyOp27
 70
     1
102
RTVSPropertyOp28
 70
     1
102
RTVSPropertyOp29
 70
     1
102
RTVSPropertyOp30
 70
     1
102
RTVSPropertyOp31
 70
     1
102
RTVSPropertyOp32
 70
     1
  0
ENDSEC
  0
EOF
