  0
SECTION
  2
HEADER
  9
$ACADVER
  1
AC1015
  9
$ACADMAINTVER
 70
     6
  9
$DWGCODEPAGE
  3
ANSI_949
  9
$INSBASE
 10
0.0
 20
0.0
 30
0.0
  9
$EXTMIN
 10
1.000000000000000E+20
 20
1.000000000000000E+20
 30
1.000000000000000E+20
  9
$EXTMAX
 10
-1.000000000000000E+20
 20
-1.000000000000000E+20
 30
-1.000000000000000E+20
  9
$LIMMIN
 10
0.0
 20
0.0
  9
$LIMMAX
 10
12.0
 20
9.0
  9
$ORTHOMODE
 70
     0
  9
$REGENMODE
 70
     1
  9
$FILLMODE
 70
     1
  9
$QTEXTMODE
 70
     0
  9
$MIRRTEXT
 70
     1
  9
$LTSCALE
 40
1.0
  9
$ATTMODE
 70
     1
  9
$TEXTSIZE
 40
0.2
  9
$TRACEWID
 40
0.05
  9
$TEXTSTYLE
  7
Standard
  9
$CLAYER
  8
0
  9
$CELTYPE
  6
ByLayer
  9
$CECOLOR
 62
   256
  9
$CELTSCALE
 40
1.0
  9
$DISPSILH
 70
     0
  9
$DIMSCALE
 40
1.0
  9
$DIMASZ
 40
0.18
  9
$DIMEXO
 40
0.0625
  9
$DIMDLI
 40
0.38
  9
$DIMRND
 40
0.0
  9
$DIMDLE
 40
0.0
  9
$DIMEXE
 40
0.18
  9
$DIMTP
 40
0.0
  9
$DIMTM
 40
0.0
  9
$DIMTXT
 40
0.18
  9
$DIMCEN
 40
0.09
  9
$DIMTSZ
 40
0.0
  9
$DIMTOL
 70
     0
  9
$DIMLIM
 70
     0
  9
$DIMTIH
 70
     1
  9
$DIMTOH
 70
     1
  9
$DIMSE1
 70
     0
  9
$DIMSE2
 70
     0
  9
$DIMTAD
 70
     0
  9
$DIMZIN
 70
     0
  9
$DIMBLK
  1

  9
$DIMASO
 70
     1
  9
$DIMSHO
 70
     1
  9
$DIMPOST
  1

  9
$DIMAPOST
  1

  9
$DIMALT
 70
     0
  9
$DIMALTD
 70
     2
  9
$DIMALTF
 40
25.4
  9
$DIMLFAC
 40
1.0
  9
$DIMTOFL
 70
     0
  9
$DIMTVP
 40
0.0
  9
$DIMTIX
 70
     0
  9
$DIMSOXD
 70
     0
  9
$DIMSAH
 70
     0
  9
$DIMBLK1
  1

  9
$DIMBLK2
  1

  9
$DIMSTYLE
  2
Standard
  9
$DIMCLRD
 70
     0
  9
$DIMCLRE
 70
     0
  9
$DIMCLRT
 70
     0
  9
$DIMTFAC
 40
1.0
  9
$DIMGAP
 40
0.09
  9
$DIMJUST
 70
     0
  9
$DIMSD1
 70
     0
  9
$DIMSD2
 70
     0
  9
$DIMTOLJ
 70
     1
  9
$DIMTZIN
 70
     0
  9
$DIMALTZ
 70
     0
  9
$DIMALTTZ
 70
     0
  9
$DIMUPT
 70
     0
  9
$DIMDEC
 70
     4
  9
$DIMTDEC
 70
     4
  9
$DIMALTU
 70
     2
  9
$DIMALTTD
 70
     2
  9
$DIMTXSTY
  7
Standard
  9
$DIMAUNIT
 70
     0
  9
$DIMADEC
 70
     0
  9
$DIMALTRND
 40
0.0
  9
$DIMAZIN
 70
     0
  9
$DIMDSEP
 70
    46
  9
$DIMATFIT
 70
     3
  9
$DIMFRAC
 70
     0
  9
$DIMLDRBLK
  1

  9
$DIMLUNIT
 70
     2
  9
$DIMLWD
 70
    -2
  9
$DIMLWE
 70
    -2
  9
$DIMTMOVE
 70
     0
  9
$LUNITS
 70
     2
  9
$LUPREC
 70
     4
  9
$SKETCHINC
 40
0.1
  9
$FILLETRAD
 40
0.5
  9
$AUNITS
 70
     0
  9
$AUPREC
 70
     0
  9
$MENU
  1
.
  9
$ELEVATION
 40
0.0
  9
$PELEVATION
 40
0.0
  9
$THICKNESS
 40
0.0
  9
$LIMCHECK
 70
     0
  9
$CHAMFERA
 40
0.5
  9
$CHAMFERB
 40
0.5
  9
$CHAMFERC
 40
1.0
  9
$CHAMFERD
 40
0.0
  9
$SKPOLY
 70
     0
  9
$TDCREATE
 40
2456522.538290729
  9
$TDUCREATE
 40
2456522.038290729
  9
$TDUPDATE
 40
2456522.53832625
  9
$TDUUPDATE
 40
2456522.03832625
  9
$TDINDWG
 40
0.0000000116
  9
$TDUSRTIMER
 40
0.0000000116
  9
$USRTIMER
 70
     1
  9
$ANGBASE
 50
0.0
  9
$ANGDIR
 70
     0
  9
$PDMODE
 70
     0
  9
$PDSIZE
 40
0.0
  9
$PLINEWID
 40
0.0
  9
$SPLFRAME
 70
     0
  9
$SPLINETYPE
 70
     6
  9
$SPLINESEGS
 70
     8
  9
$HANDSEED
  5
5F1
  9
$SURFTAB1
 70
     6
  9
$SURFTAB2
 70
     6
  9
$SURFTYPE
 70
     6
  9
$SURFU
 70
     6
  9
$SURFV
 70
     6
  9
$UCSBASE
  2

  9
$UCSNAME
  2

  9
$UCSORG
 10
0.0
 20
0.0
 30
0.0
  9
$UCSXDIR
 10
1.0
 20
0.0
 30
0.0
  9
$UCSYDIR
 10
0.0
 20
1.0
 30
0.0
  9
$UCSORTHOREF
  2

  9
$UCSORTHOVIEW
 70
     0
  9
$UCSORGTOP
 10
0.0
 20
0.0
 30
0.0
  9
$UCSORGBOTTOM
 10
0.0
 20
0.0
 30
0.0
  9
$UCSORGLEFT
 10
0.0
 20
0.0
 30
0.0
  9
$UCSORGRIGHT
 10
0.0
 20
0.0
 30
0.0
  9
$UCSORGFRONT
 10
0.0
 20
0.0
 30
0.0
  9
$UCSORGBACK
 10
0.0
 20
0.0
 30
0.0
  9
$PUCSBASE
  2

  9
$PUCSNAME
  2

  9
$PUCSORG
 10
0.0
 20
0.0
 30
0.0
  9
$PUCSXDIR
 10
1.0
 20
0.0
 30
0.0
  9
$PUCSYDIR
 10
0.0
 20
1.0
 30
0.0
  9
$PUCSORTHOREF
  2

  9
$PUCSORTHOVIEW
 70
     0
  9
$PUCSORGTOP
 10
0.0
 20
0.0
 30
0.0
  9
$PUCSORGBOTTOM
 10
0.0
 20
0.0
 30
0.0
  9
$PUCSORGLEFT
 10
0.0
 20
0.0
 30
0.0
  9
$PUCSORGRIGHT
 10
0.0
 20
0.0
 30
0.0
  9
$PUCSORGFRONT
 10
0.0
 20
0.0
 30
0.0
  9
$PUCSORGBACK
 10
0.0
 20
0.0
 30
0.0
  9
$USERI1
 70
     0
  9
$USERI2
 70
     0
  9
$USERI3
 70
     0
  9
$USERI4
 70
     0
  9
$USERI5
 70
     0
  9
$USERR1
 40
0.0
  9
$USERR2
 40
0.0
  9
$USERR3
 40
0.0
  9
$USERR4
 40
0.0
  9
$USERR5
 40
0.0
  9
$WORLDVIEW
 70
     1
  9
$SHADEDGE
 70
     3
  9
$SHADEDIF
 70
    70
  9
$TILEMODE
 70
     1
  9
$MAXACTVP
 70
    64
  9
$PINSBASE
 10
0.0
 20
0.0
 30
0.0
  9
$PLIMCHECK
 70
     0
  9
$PEXTMIN
 10
1.000000000000000E+20
 20
1.000000000000000E+20
 30
1.000000000000000E+20
  9
$PEXTMAX
 10
-1.000000000000000E+20
 20
-1.000000000000000E+20
 30
-1.000000000000000E+20
  9
$PLIMMIN
 10
0.0
 20
0.0
  9
$PLIMMAX
 10
12.0
 20
9.0
  9
$UNITMODE
 70
     0
  9
$VISRETAIN
 70
     1
  9
$PLINEGEN
 70
     0
  9
$PSLTSCALE
 70
     1
  9
$TREEDEPTH
 70
  3020
  9
$CMLSTYLE
  2
Standard
  9
$CMLJUST
 70
     0
  9
$CMLSCALE
 40
1.0
  9
$PROXYGRAPHICS
 70
     1
  9
$MEASUREMENT
 70
     0
  9
$CELWEIGHT
370
    -1
  9
$ENDCAPS
280
     0
  9
$JOINSTYLE
280
     0
  9
$LWDISPLAY
290
     1
  9
$INSUNITS
 70
     4
  9
$HYPERLINKBASE
  1

  9
$STYLESHEET
  1

  9
$XEDIT
290
     1
  9
$CEPSNTYPE
380
     0
  9
$PSTYLEMODE
290
     1
  9
$FINGERPRINTGUID
  2
{BB45F458-300D-40F9-BA4E-53097C88A573}
  9
$VERSIONGUID
  2
{FAEB1C32-E019-11D5-929B-00C0DF256EC4}
  9
$EXTNAMES
290
     1
  9
$PSVPSCALE
 40
0.0
  9
$OLESTARTUP
290
     0
  0
ENDSEC
  0
SECTION
  2
CLASSES
  0
CLASS
  1
ACDBDICTIONARYWDFLT
  2
AcDbDictionaryWithDefault
  3
ObjectDBX Classes
 90
        0
280
     0
281
     0
  0
CLASS
  1
VISUALSTYLE
  2
AcDbVisualStyle
  3
ObjectDBX Classes
 90
     4095
280
     0
281
     0
  0
CLASS
  1
MATERIAL
  2
AcDbMaterial
  3
ObjectDBX Classes
 90
     1153
280
     0
281
     0
  0
CLASS
  1
SPATIAL_FILTER
  2
AcDbSpatialFilter
  3
ObjectDBX Classes
 90
        0
280
     0
281
     0
  0
CLASS
  1
SCALE
  2
AcDbScale
  3
ObjectDBX Classes
 90
     1153
280
     0
281
     0
  0
CLASS
  1
DICTIONARYVAR
  2
AcDbDictionaryVar
  3
ObjectDBX Classes
 90
        0
280
     0
281
     0
  0
CLASS
  1
ACDBPLACEHOLDER
  2
AcDbPlaceHolder
  3
ObjectDBX Classes
 90
        0
280
     0
281
     0
  0
CLASS
  1
LAYOUT
  2
AcDbLayout
  3
ObjectDBX Classes
 90
        0
280
     0
281
     0
  0
ENDSEC
  0
SECTION
  2
TABLES
  0
TABLE
  2
VPORT
  5
8
330
0
100
AcDbSymbolTable
 70
     1
  0
VPORT
  5
29
330
8
100
AcDbSymbolTableRecord
100
AcDbViewportTableRecord
  2
*Active
 70
     0
 10
0.0
 20
0.0
 11
1.0
 21
1.0
 12
148.6203422501967
 22
99.83536082289874
 13
0.0
 23
0.0
 14
0.5
 24
0.5
 15
0.5
 25
0.5
 16
0.0
 26
0.0
 36
1.0
 17
0.0
 27
0.0
 37
0.0
 40
199.5292239653249
 41
1.447935753198045
 42
50.0
 43
0.0
 44
0.0
 50
0.0
 51
0.0
 71
     0
 72
   100
 73
     1
 74
     3
 75
     0
 76
     0
 77
     0
 78
     0
281
     0
 65
     1
110
0.0
120
0.0
130
0.0
111
1.0
121
0.0
131
0.0
112
0.0
122
1.0
132
0.0
 79
     0
146
0.0
  0
ENDTAB
  0
TABLE
  2
LTYPE
  5
5
330
0
100
AcDbSymbolTable
 70
     2
  0
LTYPE
  5
14
330
5
100
AcDbSymbolTableRecord
100
AcDbLinetypeTableRecord
  2
ByBlock
 70
     0
  3

 72
    65
 73
     0
 40
0.0
  0
LTYPE
  5
15
330
5
100
AcDbSymbolTableRecord
100
AcDbLinetypeTableRecord
  2
ByLayer
 70
     0
  3

 72
    65
 73
     0
 40
0.0
  0
LTYPE
  5
16
330
5
100
AcDbSymbolTableRecord
100
AcDbLinetypeTableRecord
  2
Continuous
 70
     0
  3
Solid line
 72
    65
 73
     0
 40
0.0
  0
LTYPE
  5
132
330
5
100
AcDbSymbolTableRecord
100
AcDbLinetypeTableRecord
  2
Dashed
 70
     0
  3
- - - - - 
 72
    65
 73
     2
 40
5.644444465637207
 49
2.822222232818604
 74
     0
 49
-2.822222232818603
 74
     0
  0
ENDTAB
  0
TABLE
  2
LAYER
  5
2
330
0
100
AcDbSymbolTable
 70
     3
  0
LAYER
  5
10
330
2
100
AcDbSymbolTableRecord
100
AcDbLayerTableRecord
  2
0
 70
     0
 62
     7
  6
Continuous
370
    -3
390
F
  0
LAYER
  5
40
330
2
100
AcDbSymbolTableRecord
100
AcDbLayerTableRecord
  2
Doc_ Finishes
 70
     0
 62
     7
  6
Continuous
370
    -3
390
F
  0
LAYER
  5
DB
330
2
100
AcDbSymbolTableRecord
100
AcDbLayerTableRecord
  2
Doc_ Floor
 70
     0
 62
     7
  6
Continuous
370
    -3
390
F
  0
ENDTAB
  0
TABLE
  2
STYLE
  5
3
330
0
100
AcDbSymbolTable
 70
     4
  0
STYLE
  5
11
330
3
100
AcDbSymbolTableRecord
100
AcDbTextStyleTableRecord
  2
Standard
 70
     0
 40
0.0
 41
1.0
 50
0.0
 71
     0
 42
0.2
  3
txt
  4

  0
STYLE
  5
D6
330
3
100
AcDbSymbolTableRecord
100
AcDbTextStyleTableRecord
  2
GENERATED_STYLE_1
 70
     0
 40
0.0
 41
1.0
 50
0.0
 71
     0
 42
0.2
  3

  4

1001
ACAD
1000
Century Gothic
1071
       34
  0
STYLE
  5
D9
330
3
100
AcDbSymbolTableRecord
100
AcDbTextStyleTableRecord
  2
GENERATED_STYLE_2
 70
     0
 40
0.0
 41
1.0
 50
0.0
 71
     0
 42
0.2
  3

  4

1001
ACAD
1000
DilleniaUPC
1071
 33554450
  0
STYLE
  5
160
330
3
100
AcDbSymbolTableRecord
100
AcDbTextStyleTableRecord
  2
GENERATED_STYLE_3
 70
     0
 40
0.0
 41
1.0
 50
0.0
 71
     0
 42
0.2
  3

  4

1001
ACAD
1000
Arial
1071
       34
  0
ENDTAB
  0
TABLE
  2
VIEW
  5
6
330
0
100
AcDbSymbolTable
 70
     0
  0
ENDTAB
  0
TABLE
  2
UCS
  5
7
330
0
100
AcDbSymbolTable
 70
     0
  0
ENDTAB
  0
TABLE
  2
APPID
  5
9
330
0
100
AcDbSymbolTable
 70
     1
  0
APPID
  5
12
330
9
100
AcDbSymbolTableRecord
100
AcDbRegAppTableRecord
  2
ACAD
 70
     0
  0
ENDTAB
  0
TABLE
  2
DIMSTYLE
  5
A
330
0
100
AcDbSymbolTable
 70
     1
100
AcDbDimStyleTable
  0
DIMSTYLE
105
27
330
A
100
AcDbSymbolTableRecord
100
AcDbDimStyleTableRecord
  2
Standard
 70
     0
178
     0
340
11
  0
ENDTAB
  0
TABLE
  2
BLOCK_RECORD
  5
1
330
0
100
AcDbSymbolTable
 70
     3
  0
BLOCK_RECORD
  5
1F
330
1
100
AcDbSymbolTableRecord
100
AcDbBlockTableRecord
  2
*Model_Space
340
22
  0
BLOCK_RECORD
  5
1B
330
1
100
AcDbSymbolTableRecord
100
AcDbBlockTableRecord
  2
*Paper_Space
340
1E
  0
BLOCK_RECORD
  5
E3
330
1
100
AcDbSymbolTableRecord
100
AcDbBlockTableRecord
  2
Drawing_1_2
340
0
102
{BLKREFS
331
597
102
}
  0
BLOCK_RECORD
  5
59B
330
1
100
AcDbSymbolTableRecord
100
AcDbBlockTableRecord
  2
R-TRS5-05 HIDDENGUTTER DETAIL_STORY_MARKER
340
0
  0
ENDTAB
  0
ENDSEC
  0
SECTION
  2
BLOCKS
  0
BLOCK
  5
20
330
1F
100
AcDbEntity
  8
0
100
AcDbBlockBegin
  2
*Model_Space
 70
     0
 10
0.0
 20
0.0
 30
0.0
  3
*Model_Space
  1

  0
ENDBLK
  5
21
330
1F
100
AcDbEntity
  8
0
100
AcDbBlockEnd
  0
BLOCK
  5
1C
330
1B
100
AcDbEntity
 67
     1
  8
0
100
AcDbBlockBegin
  2
*Paper_Space
 70
     0
 10
0.0
 20
0.0
 30
0.0
  3
*Paper_Space
  1

  0
ENDBLK
  5
1D
330
1B
100
AcDbEntity
 67
     1
  8
0
100
AcDbBlockEnd
  0
BLOCK
  5
E4
330
E3
100
AcDbEntity
  8
0
100
AcDbBlockBegin
  2
Drawing_1_2
 70
     0
 10
26.12171212374109
 20
79.28749807145608
 30
0.0
  3
Drawing_1_2
  1

  0
HATCH
  5
E6
330
E3
100
AcDbEntity
  8
0
  6
Continuous
 62
   255
370
     0
100
AcDbHatch
 10
0.0
 20
0.0
 30
0.0
210
0.0
220
0.0
230
1.0
  2
SOLID
 70
     1
 71
     0
 91
        1
 92
        3
 72
     0
 73
     1
 93
        4
 10
103.3111730868406
 20
125.6122907542079
 10
103.3111730868406
 20
111.6122907542079
 10
131.3111730868406
 20
111.6122907542079
 10
131.3111730868406
 20
125.6122907542079
 97
        0
 75
     0
 76
     1
 98
        0
  0
LINE
  5
E7
330
E3
100
AcDbEntity
  8
0
  6
Continuous
100
AcDbLine
 10
103.3111748845927
 20
125.6122912378308
 30
0.0
 11
131.3111717206079
 21
111.6122892102031
 31
0.0
  0
LINE
  5
E8
330
E3
100
AcDbEntity
  8
0
  6
Continuous
100
AcDbLine
 10
103.3111748845927
 20
125.6122912378308
 30
0.0
 11
103.3111748845927
 21
111.6122892102031
 31
0.0
  0
LINE
  5
E9
330
E3
100
AcDbEntity
  8
0
  6
Continuous
100
AcDbLine
 10
103.3111748845927
 20
111.6122892102031
 30
0.0
 11
131.3111717206079
 21
111.6122892102031
 31
0.0
  0
LINE
  5
EA
330
E3
100
AcDbEntity
  8
0
  6
Continuous
100
AcDbLine
 10
131.3111717206079
 20
111.6122892102031
 30
0.0
 11
131.3111717206079
 21
125.6122912378308
 31
0.0
  0
LINE
  5
EB
330
E3
100
AcDbEntity
  8
0
  6
Continuous
100
AcDbLine
 10
131.3111717206079
 20
125.6122912378308
 30
0.0
 11
103.3111748845927
 21
125.6122912378308
 31
0.0
  0
HATCH
  5
EC
330
E3
100
AcDbEntity
  8
0
  6
Continuous
 62
   255
370
     0
100
AcDbHatch
 10
0.0
 20
0.0
 30
0.0
210
0.0
220
0.0
230
1.0
  2
SOLID
 70
     1
 71
     0
 91
        1
 92
        3
 72
     0
 73
     1
 93
        4
 10
80.71174278380172
 20
83.61229075420786
 10
169.3895022910217
 20
83.61229075420785
 10
169.3895022910217
 20
111.6122907542078
 10
80.71174278380174
 20
111.6122907542079
 97
        0
 75
     0
 76
     1
 98
        0
  0
LINE
  5
ED
330
E3
100
AcDbEntity
  8
0
  6
Continuous
100
AcDbLine
 10
80.71174373621747
 20
83.6122923741879
 30
0.0
 11
169.3895023720015
 21
83.6122923741879
 31
0.0
  0
LINE
  5
EE
330
E3
100
AcDbEntity
  8
0
  6
Continuous
100
AcDbLine
 10
169.3895023720015
 20
83.6122923741879
 30
0.0
 11
169.3895023720015
 21
111.6122892102031
 31
0.0
  0
LINE
  5
EF
330
E3
100
AcDbEntity
  8
0
  6
Continuous
100
AcDbLine
 10
169.3895023720015
 20
111.6122892102031
 30
0.0
 11
80.71174373621747
 21
111.6122892102031
 31
0.0
  0
LINE
  5
F0
330
E3
100
AcDbEntity
  8
0
  6
Continuous
100
AcDbLine
 10
80.71174373621747
 20
111.6122892102031
 30
0.0
 11
80.71174373621747
 21
83.6122923741879
 31
0.0
  0
HATCH
  5
F1
330
E3
100
AcDbEntity
  8
0
  6
Continuous
 62
   255
370
     0
100
AcDbHatch
 10
0.0
 20
0.0
 30
0.0
210
0.0
220
0.0
230
1.0
  2
SOLID
 70
     1
 71
     0
 91
        1
 92
        3
 72
     0
 73
     1
 93
        4
 10
161.3078660438386
 20
197.6438028207592
 10
161.3078660438386
 20
140.8546342837216
 10
165.3078666231608
 20
140.8546342837216
 10
165.3078666231608
 20
197.6438028207592
 97
        0
 75
     0
 76
     1
 98
        0
  0
LINE
  5
F2
330
E3
100
AcDbEntity
  8
0
  6
Continuous
100
AcDbLine
 10
161.3078660438386
 20
197.6438028207592
 30
0.0
 11
161.3078660438386
 21
140.8546342837216
 31
0.0
  0
LINE
  5
F3
330
E3
100
AcDbEntity
  8
0
  6
Continuous
100
AcDbLine
 10
161.3078660438386
 20
140.8546342837216
 30
0.0
 11
165.3078666231608
 21
140.8546342837216
 31
0.0
  0
LINE
  5
F4
330
E3
100
AcDbEntity
  8
0
  6
Continuous
100
AcDbLine
 10
165.3078666231608
 20
140.8546342837216
 30
0.0
 11
165.3078666231608
 21
197.6438028207592
 31
0.0
  0
HATCH
  5
F5
330
E3
100
AcDbEntity
  8
0
  6
Continuous
 62
   255
370
     0
100
AcDbHatch
 10
0.0
 20
0.0
 30
0.0
210
0.0
220
0.0
230
1.0
  2
SOLID
 70
     1
 71
     0
 91
        1
 92
        3
 72
     0
 73
     1
 93
        4
 10
161.3078656812288
 20
137.0546356246902
 10
165.3078656812288
 20
137.0546356246902
 10
165.3078656812288
 20
146.0546356246902
 10
161.3078656812288
 20
146.0546356246901
 97
        0
 75
     0
 76
     1
 98
        0
  0
LINE
  5
F6
330
E3
100
AcDbEntity
  8
0
  6
Continuous
100
AcDbLine
 10
161.3078660438386
 20
137.0546355381756
 30
0.0
 11
165.3078666231608
 21
146.0546350368405
 31
0.0
  0
LINE
  5
F7
330
E3
100
AcDbEntity
  8
0
  6
Continuous
100
AcDbLine
 10
161.3078660438386
 20
137.0546355381756
 30
0.0
 11
165.3078666231608
 21
137.0546355381756
 31
0.0
  0
LINE
  5
F8
330
E3
100
AcDbEntity
  8
0
  6
Continuous
100
AcDbLine
 10
165.3078666231608
 20
137.0546355381756
 30
0.0
 11
165.3078666231608
 21
146.0546350368405
 31
0.0
  0
LINE
  5
F9
330
E3
100
AcDbEntity
  8
0
  6
Continuous
100
AcDbLine
 10
165.3078666231608
 20
146.0546350368405
 30
0.0
 11
161.3078660438386
 21
146.0546350368405
 31
0.0
  0
LINE
  5
FA
330
E3
100
AcDbEntity
  8
0
  6
Continuous
100
AcDbLine
 10
161.3078660438386
 20
146.0546350368405
 30
0.0
 11
161.3078660438386
 21
137.0546355381756
 31
0.0
  0
HATCH
  5
FB
330
E3
100
AcDbEntity
  8
0
  6
Continuous
 62
   255
370
     0
100
AcDbHatch
 10
0.0
 20
0.0
 30
0.0
210
0.0
220
0.0
230
1.0
  2
SOLID
 70
     1
 71
     0
 91
        1
 92
        3
 72
     0
 73
     1
 93
        4
 10
169.3895017656127
 20
197.6438053121825
 10
169.3895017656127
 20
26.01930819705006
 10
187.3894999625705
 20
26.01930819705006
 10
187.3894999625705
 20
197.6438053121825
 97
        0
 75
     0
 76
     1
 98
        0
  0
LINE
  5
FC
330
E3
100
AcDbEntity
  8
0
  6
Continuous
100
AcDbLine
 10
187.3894999625705
 20
26.01930819705006
 30
0.0
 11
187.3894999625705
 21
197.6438053121825
 31
0.0
  0
LINE
  5
FD
330
E3
100
AcDbEntity
  8
0
  6
Continuous
100
AcDbLine
 10
169.3895017656127
 20
197.6438053121825
 30
0.0
 11
169.3895017656127
 21
26.01930819705006
 31
0.0
  0
HATCH
  5
FE
330
E3
100
AcDbEntity
  8
0
  6
Continuous
 62
   255
370
     0
100
AcDbHatch
 10
0.0
 20
0.0
 30
0.0
210
0.0
220
0.0
230
1.0
  2
SOLID
 70
     1
 71
     0
 91
        1
 92
        3
 72
     0
 73
     1
 93
        4
 10
187.3894999625705
 20
197.6438053121825
 10
187.3894999625705
 20
26.01930819705006
 10
189.3894989790929
 20
26.01930819705006
 10
189.3894989790929
 20
197.6438053121825
 97
        0
 75
     0
 76
     1
 98
        0
  0
HATCH
  5
FF
330
E3
100
AcDbEntity
  8
0
  6
Continuous
 62
     9
370
    13
100
AcDbHatch
 10
0.0
 20
0.0
 30
0.0
210
0.0
220
0.0
230
1.0
  2
Gypsum_0002
 70
     0
 71
     0
 91
        1
 92
        3
 72
     0
 73
     1
 93
        4
 10
187.3894999625705
 20
197.6438053121825
 10
187.3894999625705
 20
26.01930819705006
 10
189.3894989790929
 20
26.01930819705006
 10
189.3894989790929
 20
197.6438053121825
 97
        0
 75
     0
 76
     2
 52
0.0
 41
1.0
 77
     0
 78
     1
 53
0.0
 43
26.12171212374109
 44
79.28749807145608
 45
0.0
 46
0.75
 79
     2
 49
0.0
 49
-0.75
 98
        0
  0
LINE
  5
100
330
E3
100
AcDbEntity
  8
0
  6
Continuous
100
AcDbLine
 10
189.3894989790929
 20
26.01930819705006
 30
0.0
 11
189.3894989790929
 21
197.6438053121825
 31
0.0
  0
LINE
  5
101
330
E3
100
AcDbEntity
  8
0
  6
Continuous
100
AcDbLine
 10
187.3894999625705
 20
197.6438053121825
 30
0.0
 11
187.3894999625705
 21
26.01930819705006
 31
0.0
  0
HATCH
  5
102
330
E3
100
AcDbEntity
  8
0
  6
Continuous
 62
   255
370
     0
100
AcDbHatch
 10
0.0
 20
0.0
 30
0.0
210
0.0
220
0.0
230
1.0
  2
SOLID
 70
     1
 71
     0
 91
        1
 92
        3
 72
     0
 73
     1
 93
        4
 10
169.3895023720015
 20
194.8452967979795
 10
187.3895013693313
 20
194.8452967979795
 10
187.3895013693313
 20
197.6438028207592
 10
169.3895023720015
 20
197.6438028207592
 97
        0
 75
     0
 76
     1
 98
        0
  0
LINE
  5
103
330
E3
100
AcDbEntity
  8
0
  6
Continuous
100
AcDbLine
 10
187.3895013693313
 20
194.8452967979795
 30
0.0
 11
187.3895013693313
 21
197.6438028207592
 31
0.0
  0
LINE
  5
104
330
E3
100
AcDbEntity
  8
0
  6
Continuous
100
AcDbLine
 10
169.3895023720015
 20
197.6438028207592
 30
0.0
 11
169.3895023720015
 21
194.8452967979795
 31
0.0
  0
LINE
  5
105
330
E3
100
AcDbEntity
  8
0
  6
Continuous
100
AcDbLine
 10
169.3895023720015
 20
194.8452967979795
 30
0.0
 11
187.3895013693313
 21
194.8452967979795
 31
0.0
  0
HATCH
  5
106
330
E3
100
AcDbEntity
  8
0
  6
Continuous
 62
   255
370
     0
100
AcDbHatch
 10
0.0
 20
0.0
 30
0.0
210
0.0
220
0.0
230
1.0
  2
SOLID
 70
     1
 71
     0
 91
        1
 92
        3
 72
     0
 73
     1
 93
        4
 10
187.3895022910217
 20
46.34529790331813
 10
187.3895022910217
 20
55.34529790331812
 10
169.3895022910217
 20
55.34529790331812
 10
169.3895022910217
 20
46.34529790331813
 97
        0
 75
     0
 76
     1
 98
        0
  0
LINE
  5
107
330
E3
100
AcDbEntity
  8
0
  6
Continuous
100
AcDbLine
 10
187.3895013693313
 20
46.34529965557851
 30
0.0
 11
187.3895013693313
 21
55.34529915424341
 31
0.0
  0
LINE
  5
108
330
E3
100
AcDbEntity
  8
0
  6
Continuous
100
AcDbLine
 10
187.3895013693313
 20
55.34529915424341
 30
0.0
 11
169.3895023720015
 21
55.34529915424341
 31
0.0
  0
LINE
  5
109
330
E3
100
AcDbEntity
  8
0
  6
Continuous
100
AcDbLine
 10
169.3895023720015
 20
55.34529915424341
 30
0.0
 11
169.3895023720015
 21
46.34529965557851
 31
0.0
  0
LINE
  5
10A
330
E3
100
AcDbEntity
  8
0
  6
Continuous
100
AcDbLine
 10
169.3895023720015
 20
46.34529965557851
 30
0.0
 11
187.3895013693313
 21
46.34529965557851
 31
0.0
  0
LINE
  5
10B
330
E3
100
AcDbEntity
  8
0
  6
Continuous
100
AcDbLine
 10
187.3895013693313
 20
194.8452967979795
 30
0.0
 11
181.7924893237719
 21
197.6438028207592
 31
0.0
  0
LINE
  5
10C
330
E3
100
AcDbEntity
  8
0
  6
Continuous
100
AcDbLine
 10
174.9865144175609
 20
197.6438028207592
 30
0.0
 11
169.3895023720015
 21
194.8452967979795
 31
0.0
  0
LINE
  5
10D
330
E3
100
AcDbEntity
  8
0
  6
Continuous
100
AcDbLine
 10
169.3895023720015
 20
46.34529965557851
 30
0.0
 11
187.3895013693313
 21
55.34529915424341
 31
0.0
  0
HATCH
  5
10E
330
E3
100
AcDbEntity
  8
0
  6
Continuous
 62
   255
370
     0
100
AcDbHatch
 10
0.0
 20
0.0
 30
0.0
210
0.0
220
0.0
230
1.0
  2
SOLID
 70
     1
 71
     0
 91
        1
 92
        3
 72
     0
 73
     1
 93
        4
 10
169.3895022910217
 20
111.6122907542079
 10
169.3895022910217
 20
113.4122907542079
 10
131.7111730868406
 20
113.4122907542079
 10
131.7111730868406
 20
111.6122907542079
 97
        0
 75
     0
 76
     1
 98
        0
  0
HATCH
  5
10F
330
E3
100
AcDbEntity
  8
0
  6
Continuous
100
AcDbHatch
 10
0.0
 20
0.0
 30
0.0
210
0.0
220
0.0
230
1.0
  2
Wood_0002
 70
     0
 71
     0
 91
        1
 92
        3
 72
     0
 73
     1
 93
        4
 10
169.3895022910217
 20
111.6122907542079
 10
169.3895022910217
 20
113.4122907542079
 10
131.7111730868406
 20
113.4122907542079
 10
131.7111730868406
 20
111.6122907542079
 97
        0
 75
     0
 76
     2
 52
0.0
 41
1.0
 77
     0
 78
     1
 53
9.999999999999996
 43
26.12171212374109
 44
79.28749807145608
 45
-0.1562833557601421
 46
0.8863269542313407
 79
     0
 98
        0
  0
LINE
  5
110
330
E3
100
AcDbEntity
  8
0
  6
Continuous
100
AcDbLine
 10
169.3895023720015
 20
113.4122912757081
 30
0.0
 11
169.3895023720015
 21
111.6122892102031
 31
0.0
  0
LINE
  5
111
330
E3
100
AcDbEntity
  8
0
  6
Continuous
100
AcDbLine
 10
131.7111717785401
 20
113.4122912757081
 30
0.0
 11
169.3895023720015
 21
113.4122912757081
 31
0.0
  0
LINE
  5
112
330
E3
100
AcDbEntity
  8
0
  6
Continuous
100
AcDbLine
 10
131.7111717785401
 20
111.6122892102031
 30
0.0
 11
131.7111717785401
 21
113.4122912757081
 31
0.0
  0
LINE
  5
113
330
E3
100
AcDbEntity
  8
0
  6
Continuous
100
AcDbLine
 10
169.3895023720015
 20
111.6122892102031
 30
0.0
 11
131.7111717785401
 21
111.6122892102031
 31
0.0
  0
HATCH
  5
114
330
E3
100
AcDbEntity
  8
0
  6
Continuous
 62
   255
370
     0
100
AcDbHatch
 10
0.0
 20
0.0
 30
0.0
210
0.0
220
0.0
230
1.0
  2
SOLID
 70
     1
 71
     0
 91
        1
 92
        3
 72
     0
 73
     1
 93
        4
 10
169.3895022910217
 20
111.6122907542078
 10
160.3895022910217
 20
111.6122907542078
 10
160.3895022910217
 20
83.61229075420785
 10
169.3895022910217
 20
83.61229075420785
 97
        0
 75
     0
 76
     1
 98
        0
  0
LINE
  5
115
330
E3
100
AcDbEntity
  8
0
  6
Continuous
100
AcDbLine
 10
160.3895028733366
 20
111.6122892102031
 30
0.0
 11
169.3895023720015
 21
83.6122923741879
 31
0.0
  0
LINE
  5
116
330
E3
100
AcDbEntity
  8
0
  6
Continuous
100
AcDbLine
 10
169.3895023720015
 20
111.6122892102031
 30
0.0
 11
160.3895028733366
 21
83.6122923741879
 31
0.0
  0
LINE
  5
117
330
E3
100
AcDbEntity
  8
0
  6
Continuous
100
AcDbLine
 10
169.3895023720015
 20
111.6122892102031
 30
0.0
 11
160.3895028733366
 21
111.6122892102031
 31
0.0
  0
LINE
  5
118
330
E3
100
AcDbEntity
  8
0
  6
Continuous
100
AcDbLine
 10
160.3895028733366
 20
111.6122892102031
 30
0.0
 11
160.3895028733366
 21
83.6122923741879
 31
0.0
  0
LINE
  5
119
330
E3
100
AcDbEntity
  8
0
  6
Continuous
100
AcDbLine
 10
160.3895028733366
 20
83.6122923741879
 30
0.0
 11
169.3895023720015
 21
83.6122923741879
 31
0.0
  0
LINE
  5
11A
330
E3
100
AcDbEntity
  8
0
  6
Continuous
100
AcDbLine
 10
169.3895023720015
 20
83.6122923741879
 30
0.0
 11
169.3895023720015
 21
111.6122892102031
 31
0.0
  0
HATCH
  5
11B
330
E3
100
AcDbEntity
  8
0
  6
Continuous
 62
   255
370
     0
100
AcDbHatch
 10
0.0
 20
0.0
 30
0.0
210
0.0
220
0.0
230
1.0
  2
SOLID
 70
     1
 71
     0
 91
        1
 92
        3
 72
     0
 73
     1
 93
        4
 10
158.507865638313
 20
197.6438028207592
 10
158.507865638313
 20
137.85463565404
 10
160.307864094198
 20
137.85463565404
 10
160.307864094198
 20
197.6438028207592
 97
        0
 75
     0
 76
     1
 98
        0
  0
HATCH
  5
11C
330
E3
100
AcDbEntity
  8
0
  6
Continuous
100
AcDbHatch
 10
0.0
 20
0.0
 30
0.0
210
0.0
220
0.0
230
1.0
  2
Plaster_0002
 70
     0
 71
     0
 91
        1
 92
        3
 72
     0
 73
     1
 93
        4
 10
158.507865638313
 20
197.6438028207592
 10
158.507865638313
 20
137.85463565404
 10
160.307864094198
 20
137.85463565404
 10
160.307864094198
 20
197.6438028207592
 97
        0
 75
     0
 76
     2
 52
0.0
 41
1.0
 77
     0
 78
     2
 53
0.0
 43
26.12171212374109
 44
79.28749807145608
 45
0.0
 46
1.732050807568877
 79
     2
 49
0.0
 49
-1.0
 53
0.0
 43
26.62171212374109
 44
80.1535234596969
 45
0.0
 46
1.732050807568877
 79
     2
 49
0.0
 49
-1.0
 98
        0
  0
LINE
  5
11D
330
E3
100
AcDbEntity
  8
0
  6
Continuous
100
AcDbLine
 10
158.507865638313
 20
197.6438028207592
 30
0.0
 11
158.507865638313
 21
137.85463565404
 31
0.0
  0
LINE
  5
11E
330
E3
100
AcDbEntity
  8
0
  6
Continuous
100
AcDbLine
 10
158.507865638313
 20
137.85463565404
 30
0.0
 11
160.307864094198
 21
137.85463565404
 31
0.0
  0
LINE
  5
11F
330
E3
100
AcDbEntity
  8
0
  6
Continuous
100
AcDbLine
 10
160.307864094198
 20
137.85463565404
 30
0.0
 11
160.307864094198
 21
197.6438028207592
 31
0.0
  0
HATCH
  5
120
330
E3
100
AcDbEntity
  8
0
  6
Continuous
 62
   255
370
     0
100
AcDbHatch
 10
0.0
 20
0.0
 30
0.0
210
0.0
220
0.0
230
1.0
  2
SOLID
 70
     1
 71
     0
 91
        1
 92
        3
 72
     0
 73
     1
 93
        4
 10
178.3895022910217
 20
152.0546356246901
 10
169.3895022910217
 20
152.0546356246901
 10
169.3895022910217
 20
134.0546356246902
 10
178.3895022910217
 20
134.0546356246902
 97
        0
 75
     0
 76
     1
 98
        0
  0
LINE
  5
121
330
E3
100
AcDbEntity
  8
0
  6
Continuous
100
AcDbLine
 10
178.3895018706664
 20
152.0546359058238
 30
0.0
 11
169.3895023720015
 21
134.054636908494
 31
0.0
  0
LINE
  5
122
330
E3
100
AcDbEntity
  8
0
  6
Continuous
100
AcDbLine
 10
178.3895018706664
 20
152.0546359058238
 30
0.0
 11
169.3895023720015
 21
152.0546359058238
 31
0.0
  0
LINE
  5
123
330
E3
100
AcDbEntity
  8
0
  6
Continuous
100
AcDbLine
 10
169.3895023720015
 20
152.0546359058238
 30
0.0
 11
169.3895023720015
 21
134.054636908494
 31
0.0
  0
LINE
  5
124
330
E3
100
AcDbEntity
  8
0
  6
Continuous
100
AcDbLine
 10
169.3895023720015
 20
134.054636908494
 30
0.0
 11
178.3895018706664
 21
134.054636908494
 31
0.0
  0
LINE
  5
125
330
E3
100
AcDbEntity
  8
0
  6
Continuous
100
AcDbLine
 10
178.3895018706664
 20
134.054636908494
 30
0.0
 11
178.3895018706664
 21
152.0546359058238
 31
0.0
  0
HATCH
  5
126
330
E3
100
AcDbEntity
  8
0
  6
Continuous
 62
   255
370
     0
100
AcDbHatch
 10
0.0
 20
0.0
 30
0.0
210
0.0
220
0.0
230
1.0
  2
SOLID
 70
     1
 71
     0
 91
        1
 92
        3
 72
     0
 73
     1
 93
        8
 10
150.7258414836445
 20
63.66405625107252
 10
150.7258414836445
 20
26.01930573920253
 10
198.563414757173
 20
26.01930573920253
 10
198.563414757173
 20
72.09911191202694
 10
176.6142461304842
 20
68.22888179562564
 10
175.3011698999604
 20
73.99735322291279
 10
173.9880936694366
 20
61.76582226876609
 10
172.6750174389128
 20
67.53429369605324
 97
        0
 75
     0
 76
     1
 98
        0
  0
LINE
  5
127
330
E3
100
AcDbEntity
  8
0
  6
Continuous
100
AcDbLine
 10
150.7258422218372
 20
63.66405864989888
 30
0.0
 11
172.6750147370287
 21
67.53428977488076
 31
0.0
  0
LINE
  5
128
330
E3
100
AcDbEntity
  8
0
  6
Continuous
100
AcDbLine
 10
176.6142437513521
 20
68.22888176285876
 30
0.0
 11
198.5634162665436
 21
72.09911288784068
 31
0.0
  0
LINE
  5
129
330
E3
100
AcDbEntity
  8
0
  6
Continuous
100
AcDbLine
 10
176.6142437513521
 20
68.22888176285876
 30
0.0
 11
175.301168616451
 21
73.99735076597602
 31
0.0
  0
LINE
  5
12A
330
E3
100
AcDbEntity
  8
0
  6
Continuous
100
AcDbLine
 10
175.301168616451
 20
73.99735076597602
 30
0.0
 11
173.9880898719298
 21
61.76582077176352
 31
0.0
  0
LINE
  5
12B
330
E3
100
AcDbEntity
  8
0
  6
Continuous
100
AcDbLine
 10
173.9880898719298
 20
61.76582077176352
 30
0.0
 11
172.6750147370287
 21
67.53428977488076
 31
0.0
  0
HATCH
  5
12C
330
E3
100
AcDbEntity
  8
0
  6
Continuous
 62
   255
370
     0
100
AcDbHatch
 10
0.0
 20
0.0
 30
0.0
210
0.0
220
0.0
230
1.0
  2
SOLID
 70
     1
 71
     0
 91
        1
 92
        3
 72
     0
 73
     1
 93
        4
 10
178.3895022910217
 20
131.4122907542078
 10
169.3895022910217
 20
131.4122907542078
 10
169.3895022910217
 20
113.4122907542079
 10
178.3895022910217
 20
113.4122907542079
 97
        0
 75
     0
 76
     1
 98
        0
  0
LINE
  5
12D
330
E3
100
AcDbEntity
  8
0
  6
Continuous
100
AcDbLine
 10
178.3895018706664
 20
131.4122902730379
 30
0.0
 11
169.3895023720015
 21
113.4122912757081
 31
0.0
  0
LINE
  5
12E
330
E3
100
AcDbEntity
  8
0
  6
Continuous
100
AcDbLine
 10
178.3895018706664
 20
131.4122902730379
 30
0.0
 11
169.3895023720015
 21
131.4122902730379
 31
0.0
  0
LINE
  5
12F
330
E3
100
AcDbEntity
  8
0
  6
Continuous
100
AcDbLine
 10
169.3895023720015
 20
131.4122902730379
 30
0.0
 11
169.3895023720015
 21
113.4122912757081
 31
0.0
  0
LINE
  5
130
330
E3
100
AcDbEntity
  8
0
  6
Continuous
100
AcDbLine
 10
169.3895023720015
 20
113.4122912757081
 30
0.0
 11
178.3895018706664
 21
113.4122912757081
 31
0.0
  0
LINE
  5
131
330
E3
100
AcDbEntity
  8
0
  6
Continuous
100
AcDbLine
 10
178.3895018706664
 20
113.4122912757081
 30
0.0
 11
178.3895018706664
 21
131.4122902730379
 31
0.0
  0
LINE
  5
133
330
E3
100
AcDbEntity
  8
0
  6
Dashed
100
AcDbLine
 10
104.3694758094232
 20
133.4164055296804
 30
0.0
 11
107.077286516085
 21
133.4164055296804
 31
0.0
  0
LINE
  5
134
330
E3
100
AcDbEntity
  8
0
  6
Dashed
100
AcDbLine
 10
166.5097690667813
 20
154.4696378347984
 30
0.0
 11
166.5097690667813
 21
140.8004213985519
 31
0.0
  0
LINE
  5
135
330
E3
100
AcDbEntity
  8
0
  6
Dashed
100
AcDbLine
 10
83.07504868527326
 20
126.4945582067416
 30
0.0
 11
132.2364653618154
 21
126.4945582067416
 31
0.0
  0
LINE
  5
136
330
E3
100
AcDbEntity
  8
0
  6
Dashed
100
AcDbLine
 10
132.2364653618154
 20
126.4945582067416
 30
0.0
 11
141.5974052186707
 21
124.0054940913423
 31
0.0
  0
LINE
  5
137
330
E3
100
AcDbEntity
  8
0
  6
Dashed
100
AcDbLine
 10
131.8526183540952
 20
124.1802177551442
 30
0.0
 11
131.8526183540952
 21
114.1634568404399
 31
0.0
  0
LINE
  5
138
330
E3
100
AcDbEntity
  8
0
  6
Dashed
100
AcDbLine
 10
131.8526183540952
 20
114.1634568404399
 30
0.0
 11
168.5680719412524
 21
114.1634568404399
 31
0.0
  0
LINE
  5
139
330
E3
100
AcDbEntity
  8
0
  6
Dashed
100
AcDbLine
 10
168.5680719412524
 20
114.1634568404399
 30
0.0
 11
168.5680719412524
 21
156.7685579890761
 31
0.0
  0
LINE
  5
13A
330
E3
100
AcDbEntity
  8
0
  6
Dashed
100
AcDbLine
 10
166.5097690667813
 20
154.4696378347984
 30
0.0
 11
167.2548054964829
 21
155.1122549021053
 31
0.0
  0
LINE
  5
13B
330
E3
100
AcDbEntity
  8
0
  6
Dashed
100
AcDbLine
 10
167.2548054964829
 20
155.1122549021053
 30
0.0
 11
167.2548054964829
 21
197.6438028207592
 31
0.0
  0
LINE
  5
13C
330
E3
100
AcDbEntity
  8
0
  6
Continuous
100
AcDbLine
 10
38.52770116952185
 20
56.90658260014564
 30
0.0
 11
138.9207852398038
 21
56.90658260014564
 31
0.0
  0
LINE
  5
13D
330
E3
100
AcDbEntity
  8
0
  6
Continuous
100
AcDbLine
 10
138.9207852398038
 20
64.99294753071702
 30
0.0
 11
138.9207852398038
 21
35.38539552797995
 31
0.0
  0
LINE
  5
13E
330
E3
100
AcDbEntity
  8
0
  6
Continuous
100
AcDbLine
 10
38.52770116952185
 20
35.38539552797995
 30
0.0
 11
38.52770116952185
 21
56.90658260014564
 31
0.0
  0
LINE
  5
13F
330
E3
100
AcDbEntity
  8
0
  6
Continuous
100
AcDbLine
 10
114.9507704881525
 20
64.99294753071702
 30
0.0
 11
114.9507704881525
 21
35.38539552797995
 31
0.0
  0
LINE
  5
140
330
E3
100
AcDbEntity
  8
0
  6
Continuous
100
AcDbLine
 10
38.52770116952185
 20
46.14598725925271
 30
0.0
 11
138.9207852398038
 21
46.14598725925271
 31
0.0
  0
LINE
  5
141
330
E3
100
AcDbEntity
  8
0
  6
Continuous
100
AcDbLine
 10
38.52770116952185
 20
35.38539552797995
 30
0.0
 11
138.9207852398038
 21
35.38539552797995
 31
0.0
  0
LINE
  5
142
330
E3
100
AcDbEntity
  8
0
  6
Continuous
100
AcDbLine
 10
114.9507704881525
 20
64.99294753071702
 30
0.0
 11
138.9207852398038
 21
64.99294753071702
 31
0.0
  0
LINE
  5
143
330
E3
100
AcDbEntity
  8
0
  6
Continuous
100
AcDbLine
 10
157.3008591917875
 20
51.55812538912271
 30
0.0
 11
229.6939464260544
 21
51.55812538912271
 31
0.0
  0
LINE
  5
144
330
E3
100
AcDbEntity
  8
0
  6
Continuous
100
AcDbLine
 10
229.6939464260544
 20
59.64449031969411
 30
0.0
 11
229.6939464260544
 21
35.38539552797995
 31
0.0
  0
LINE
  5
145
330
E3
100
AcDbEntity
  8
0
  6
Continuous
100
AcDbLine
 10
157.3008591917875
 20
35.38539552797995
 30
0.0
 11
157.3008591917875
 21
51.55812538912271
 31
0.0
  0
LINE
  5
146
330
E3
100
AcDbEntity
  8
0
  6
Continuous
100
AcDbLine
 10
205.7239280647829
 20
59.64449031969411
 30
0.0
 11
205.7239280647829
 21
35.38539552797995
 31
0.0
  0
LINE
  5
147
330
E3
100
AcDbEntity
  8
0
  6
Continuous
100
AcDbLine
 10
205.7239280647829
 20
59.64449031969411
 30
0.0
 11
229.6939464260544
 21
59.64449031969411
 31
0.0
  0
LINE
  5
148
330
E3
100
AcDbEntity
  8
0
  6
Continuous
100
AcDbLine
 10
157.3008591917875
 20
43.47176045855134
 30
0.0
 11
229.6939464260544
 21
43.47176045855134
 31
0.0
  0
LINE
  5
149
330
E3
100
AcDbEntity
  8
0
  6
Continuous
100
AcDbLine
 10
157.3008591917875
 20
35.38539552797995
 30
0.0
 11
229.6939464260544
 21
35.38539552797995
 31
0.0
  0
LWPOLYLINE
  5
14A
330
E3
100
AcDbEntity
  8
0
  6
Continuous
100
AcDbPolyline
 90
        8
 70
   128
 43
0.0
 10
135.8820605215612
 20
123.2471986718545
 10
132.6309671586692
 20
123.9903057262298
 10
132.6309671586692
 20
114.9903057262298
 10
167.6309671586692
 20
114.9903057262298
 10
167.6309671586692
 20
151.9903057262298
 10
167.370695210085
 20
152.2309721332364
 10
167.0855373414768
 20
151.9198908220274
 10
167.0855373414768
 20
149.7941685287658
  0
LWPOLYLINE
  5
14B
330
E3
100
AcDbEntity
  8
0
  6
Continuous
100
AcDbPolyline
 90
        4
 70
   128
 43
0.0
 10
160.8281163850782
 20
138.4480767970899
 10
160.8281163850782
 20
136.4984625188516
 10
165.9020729582614
 20
136.4984625188516
 10
165.9020729582614
 20
148.4211036819244
  0
LWPOLYLINE
  5
14C
330
E3
100
AcDbEntity
  8
0
  6
Continuous
100
AcDbPolyline
 90
       29
 70
   128
 43
0.0
 10
20.48385250649914
 20
127.162642210702
 10
22.71369722281636
 20
127.162642210702
 10
26.71421839811582
 20
132.962642210702
 10
31.71421839811589
 20
132.962642210702
 10
35.71473957341534
 20
127.162642210702
 10
43.61473957341541
 20
127.162642210702
 10
43.60333475545587
 20
127.3623167712432
 10
52.80333475545574
 20
127.3623167712432
 10
52.79192993749621
 20
127.162642210702
 10
60.69192993749628
 20
127.162642210702
 10
64.69245111279572
 20
132.962642210702
 10
69.6924511127958
 20
132.962642210702
 10
73.69297228809525
 20
127.162642210702
 10
81.59297228809531
 20
127.162642210702
 10
81.58156747013578
 20
127.3623167712432
 10
90.78156747013564
 20
127.3623167712432
 10
90.77016265217613
 20
127.162642210702
 10
98.67016265217617
 20
127.162642210702
 10
102.6706838274756
 20
132.962642210702
 10
107.6706838274757
 20
132.962642210702
 10
111.6712050027752
 20
127.162642210702
 10
119.5712050027752
 20
127.162642210702
 10
119.5598001848157
 20
127.3623167712432
 10
128.7598001848156
 20
127.3623167712432
 10
128.748395366856
 20
127.162642210702
 10
136.6483953668561
 20
127.162642210702
 10
140.6489165421555
 20
132.962642210702
 10
145.6489165421556
 20
132.962642210702
 10
149.6494377174551
 20
127.162642210702
  0
HATCH
  5
14D
330
E3
100
AcDbEntity
  8
0
  6
Continuous
 62
   255
370
     0
100
AcDbHatch
 10
0.0
 20
0.0
 30
0.0
210
0.0
220
0.0
230
1.0
  2
SOLID
 70
     1
 71
     0
 91
        1
 92
        3
 72
     0
 73
     1
 93
        8
 10
149.8140175101609
 20
169.2206376051742
 10
171.962361027335
 20
173.1259906879008
 10
173.2754419827045
 20
167.3575200459895
 10
174.5885178730936
 20
179.589052472219
 10
175.9015937634827
 20
173.8205818303076
 10
198.0499372806568
 20
177.7259298480539
 10
198.0499372806568
 20
197.6438029127367
 10
149.8140175101609
 20
197.6438029127367
 97
        0
 75
     0
 76
     1
 98
        0
  0
LINE
  5
14E
330
E3
100
AcDbEntity
  8
0
  6
Continuous
100
AcDbLine
 10
149.8140160734434
 20
169.2206357750105
 30
0.0
 11
171.9623638193947
 21
173.1259885041405
 31
0.0
  0
LINE
  5
14F
330
E3
100
AcDbEntity
  8
0
  6
Continuous
100
AcDbLine
 10
175.901592833718
 20
173.8205804921185
 30
0.0
 11
198.0499405796693
 21
177.7259332212486
 31
0.0
  0
LINE
  5
150
330
E3
100
AcDbEntity
  8
0
  6
Continuous
100
AcDbLine
 10
175.901592833718
 20
173.8205804921185
 30
0.0
 11
174.588517698817
 21
179.5890494952358
 31
0.0
  0
LINE
  5
151
330
E3
100
AcDbEntity
  8
0
  6
Continuous
100
AcDbLine
 10
174.588517698817
 20
179.5890494952358
 30
0.0
 11
173.2754389542957
 21
167.3575195010233
 31
0.0
  0
LINE
  5
152
330
E3
100
AcDbEntity
  8
0
  6
Continuous
100
AcDbLine
 10
173.2754389542957
 20
167.3575195010233
 30
0.0
 11
171.9623638193947
 21
173.1259885041405
 31
0.0
  0
HATCH
  5
153
330
E3
100
AcDbEntity
  8
0
  6
Continuous
 62
   255
370
     0
100
AcDbHatch
 10
0.0
 20
0.0
 30
0.0
210
0.0
220
0.0
230
1.0
  2
SOLID
 70
     1
 71
     0
 91
        1
 92
        3
 72
     0
 73
     1
 93
        8
 10
20.48385378188895
 20
136.9796744490597
 10
20.48385378188895
 20
78.6569834176662
 10
94.76321740422547
 20
78.6569834176662
 10
89.96858547774126
 20
105.8487161995042
 10
83.73705432229553
 20
107.1617927579594
 10
95.50552228003679
 20
108.4748693164147
 10
89.27399112459103
 20
109.7879458748699
 10
84.47935499045866
 20
136.9796744490597
 97
        0
 75
     0
 76
     1
 98
        0
  0
LINE
  5
154
330
E3
100
AcDbEntity
  8
0
  6
Continuous
100
AcDbLine
 10
84.47935696969594
 20
136.9796745563312
 30
0.0
 11
89.273990159706
 21
109.7879438663449
 31
0.0
  0
LINE
  5
155
330
E3
100
AcDbEntity
  8
0
  6
Continuous
100
AcDbLine
 10
89.96858214768397
 20
105.8487148520216
 30
0.0
 11
94.7632189473142
 21
78.65698416203522
 31
0.0
  0
LINE
  5
156
330
E3
100
AcDbEntity
  8
0
  6
Continuous
100
AcDbLine
 10
89.96858214768397
 20
105.8487148520216
 30
0.0
 11
83.73705302245476
 21
107.1617899869226
 31
0.0
  0
LINE
  5
157
330
E3
100
AcDbEntity
  8
0
  6
Continuous
100
AcDbLine
 10
83.73705302245476
 20
107.1617899869226
 30
0.0
 11
95.50552289455536
 21
108.4748687314438
 31
0.0
  0
LINE
  5
158
330
E3
100
AcDbEntity
  8
0
  6
Continuous
100
AcDbLine
 10
95.50552289455536
 20
108.4748687314438
 30
0.0
 11
89.273990159706
 21
109.7879438663449
 31
0.0
  0
LINE
  5
159
330
E3
100
AcDbEntity
  8
Doc_ Floor
  6
Continuous
100
AcDbLine
 10
146.9109393546542
 20
114.012303996277
 30
0.0
 11
146.9109393546542
 21
114.9903053110479
 31
0.0
  0
LINE
  5
15A
330
E3
100
AcDbEntity
  8
Doc_ Floor
  6
Continuous
100
AcDbLine
 10
146.9109393546542
 20
114.9903053110479
 30
0.0
 11
146.9109393546542
 21
123.9903048097128
 31
0.0
  0
LINE
  5
15B
330
E3
100
AcDbEntity
  8
Doc_ Floor
  6
Continuous
100
AcDbLine
 10
145.9109374050136
 20
115.5676568362578
 30
0.0
 11
147.9109376946747
 21
114.4129573954581
 31
0.0
  0
LINE
  5
15C
330
E3
100
AcDbEntity
  8
Doc_ Floor
  6
Continuous
100
AcDbLine
 10
147.9109376946747
 20
123.4129568941229
 30
0.0
 11
145.9109374050136
 21
124.5676563349227
 31
0.0
  0
LINE
  5
15D
330
E3
100
AcDbEntity
  8
Doc_ Floor
  6
Continuous
100
AcDbLine
 10
146.9109393546542
 20
123.9903048097128
 30
0.0
 11
146.9109393546542
 21
124.9683061244836
 31
0.0
  0
LINE
  5
15E
330
E3
100
AcDbEntity
  8
Doc_ Floor
  6
Continuous
100
AcDbLine
 10
148.410938669495
 20
114.9903053110479
 30
0.0
 11
145.4109364301933
 21
114.9903053110479
 31
0.0
  0
LINE
  5
15F
330
E3
100
AcDbEntity
  8
Doc_ Floor
  6
Continuous
100
AcDbLine
 10
148.410938669495
 20
123.9903048097128
 30
0.0
 11
145.4109364301933
 21
123.9903048097128
 31
0.0
  0
MTEXT
  5
161
330
E3
100
AcDbEntity
  8
Doc_ Floor
  6
Continuous
100
AcDbMText
 10
146.4109380481292
 20
118.3474481299516
 30
0.0
 40
2.5
 41
0.0
 71
     7
 72
     1
  1
{A}
  7
GENERATED_STYLE_3
 11
6.123233995736766E-17
 21
1.0
 31
0.0
 73
     1
 44
1.0
  0
LINE
  5
162
330
E3
100
AcDbEntity
  8
Doc_ Floor
  6
Continuous
100
AcDbLine
 10
146.8508247405243
 20
131.9846424743275
 30
0.0
 11
146.8508247405243
 21
132.9626437890984
 31
0.0
  0
LINE
  5
163
330
E3
100
AcDbEntity
  8
Doc_ Floor
  6
Continuous
100
AcDbLine
 10
146.8508247405243
 20
132.9626437890984
 30
0.0
 11
146.8508247405243
 21
137.85463565404
 31
0.0
  0
LINE
  5
164
330
E3
100
AcDbEntity
  8
Doc_ Floor
  6
Continuous
100
AcDbLine
 10
145.8508264005038
 20
133.5399917046882
 30
0.0
 11
147.850826690165
 21
132.3852922638884
 31
0.0
  0
LINE
  5
165
330
E3
100
AcDbEntity
  8
Doc_ Floor
  6
Continuous
100
AcDbLine
 10
147.850826690165
 20
137.27728412883
 30
0.0
 11
145.8508264005038
 21
138.43198717925
 31
0.0
  0
LINE
  5
166
330
E3
100
AcDbEntity
  8
Doc_ Floor
  6
Continuous
100
AcDbLine
 10
146.8508247405243
 20
137.85463565404
 30
0.0
 11
146.8508247405243
 21
138.8326369688109
 31
0.0
  0
LINE
  5
167
330
E3
100
AcDbEntity
  8
Doc_ Floor
  6
Continuous
100
AcDbLine
 10
148.3508240553651
 20
132.9626437890984
 30
0.0
 11
145.3508254256835
 21
132.9626437890984
 31
0.0
  0
LINE
  5
168
330
E3
100
AcDbEntity
  8
Doc_ Floor
  6
Continuous
100
AcDbLine
 10
148.3508240553651
 20
137.85463565404
 30
0.0
 11
145.3508254256835
 21
137.85463565404
 31
0.0
  0
MTEXT
  5
169
330
E3
100
AcDbEntity
  8
Doc_ Floor
  6
Continuous
100
AcDbMText
 10
134.8508005802592
 20
134.3014960605532
 30
0.0
 40
2.5
 41
0.0
 71
     7
 72
     1
  1
{35 MIN.}
  7
GENERATED_STYLE_3
 73
     1
 44
1.0
  0
LINE
  5
16A
330
E3
100
AcDbEntity
  8
Doc_ Floor
  6
Continuous
100
AcDbLine
 10
146.8508247405243
 20
136.8766343392692
 30
0.0
 11
146.8508247405243
 21
137.85463565404
 31
0.0
  0
LINE
  5
16B
330
E3
100
AcDbEntity
  8
Doc_ Floor
  6
Continuous
100
AcDbLine
 10
146.8508247405243
 20
137.85463565404
 30
0.0
 11
146.8508247405243
 21
151.9903052553481
 31
0.0
  0
LINE
  5
16C
330
E3
100
AcDbEntity
  8
Doc_ Floor
  6
Continuous
100
AcDbLine
 10
145.8508264005038
 20
138.43198717925
 30
0.0
 11
147.850826690165
 21
137.27728412883
 31
0.0
  0
LINE
  5
16D
330
E3
100
AcDbEntity
  8
Doc_ Floor
  6
Continuous
100
AcDbLine
 10
147.850826690165
 20
151.4129573397583
 30
0.0
 11
145.8508264005038
 21
152.5676567805581
 31
0.0
  0
LINE
  5
16E
330
E3
100
AcDbEntity
  8
Doc_ Floor
  6
Continuous
100
AcDbLine
 10
146.8508247405243
 20
151.9903052553481
 30
0.0
 11
146.8508247405243
 21
152.9683065701189
 31
0.0
  0
LINE
  5
16F
330
E3
100
AcDbEntity
  8
Doc_ Floor
  6
Continuous
100
AcDbLine
 10
148.3508240553651
 20
137.85463565404
 30
0.0
 11
145.3508254256835
 21
137.85463565404
 31
0.0
  0
LINE
  5
170
330
E3
100
AcDbEntity
  8
Doc_ Floor
  6
Continuous
100
AcDbLine
 10
148.3508240553651
 20
151.9903052553481
 30
0.0
 11
145.3508254256835
 21
151.9903052553481
 31
0.0
  0
MTEXT
  5
171
330
E3
100
AcDbEntity
  8
Doc_ Floor
  6
Continuous
100
AcDbMText
 10
142.7641814663789
 20
143.5573874584481
 30
0.0
 40
2.5
 41
0.0
 71
     7
 72
     1
  1
{B}
  7
GENERATED_STYLE_3
 73
     1
 44
1.0
  0
LINE
  5
172
330
E3
100
AcDbEntity
  8
Doc_ Floor
  6
Continuous
100
AcDbLine
 10
131.6529666534744
 20
97.86747288934407
 30
0.0
 11
132.6309679682452
 21
97.86747288934407
 31
0.0
  0
LINE
  5
173
330
E3
100
AcDbEntity
  8
Doc_ Floor
  6
Continuous
100
AcDbLine
 10
132.6309679682452
 20
97.86747288934407
 30
0.0
 11
150.2103451476738
 21
97.86747288934407
 31
0.0
  0
LINE
  5
174
330
E3
100
AcDbEntity
  8
Doc_ Floor
  6
Continuous
100
AcDbLine
 10
133.2083158838351
 20
98.86747122936453
 30
0.0
 11
132.0536164430353
 21
96.86747093970342
 31
0.0
  0
LINE
  5
175
330
E3
100
AcDbEntity
  8
Doc_ Floor
  6
Continuous
100
AcDbLine
 10
132.6309679682452
 20
96.3674699648831
 30
0.0
 11
132.6309679682452
 21
99.36747220418485
 31
0.0
  0
LINE
  5
176
330
E3
100
AcDbEntity
  8
Doc_ Floor
  6
Continuous
100
AcDbLine
 10
150.2103451476738
 20
96.3674699648831
 30
0.0
 11
150.2103451476738
 21
99.36747220418485
 31
0.0
  0
LINE
  5
177
330
E3
100
AcDbEntity
  8
Doc_ Floor
  6
Continuous
100
AcDbLine
 10
150.2103451476738
 20
97.86747288934407
 30
0.0
 11
167.6309676228844
 21
97.86747288934407
 31
0.0
  0
LINE
  5
178
330
E3
100
AcDbEntity
  8
Doc_ Floor
  6
Continuous
100
AcDbLine
 10
150.7876966728838
 20
98.86747122936453
 30
0.0
 11
149.632997232084
 21
96.86747093970342
 31
0.0
  0
LINE
  5
179
330
E3
100
AcDbEntity
  8
Doc_ Floor
  6
Continuous
100
AcDbLine
 10
167.0536160976744
 20
96.86747093970342
 30
0.0
 11
168.2083155384742
 21
98.86747122936453
 31
0.0
  0
LINE
  5
17A
330
E3
100
AcDbEntity
  8
Doc_ Floor
  6
Continuous
100
AcDbLine
 10
167.6309676228844
 20
97.86747288934407
 30
0.0
 11
168.6089689376552
 21
97.86747288934407
 31
0.0
  0
LINE
  5
17B
330
E3
100
AcDbEntity
  8
Doc_ Floor
  6
Continuous
100
AcDbLine
 10
167.6309676228844
 20
96.3674699648831
 30
0.0
 11
167.6309676228844
 21
99.36747220418485
 31
0.0
  0
MTEXT
  5
17C
330
E3
100
AcDbEntity
  8
Doc_ Floor
  6
Continuous
100
AcDbMText
 10
135.4206437772218
 20
98.36747130082357
 30
0.0
 40
2.5
 41
0.0
 71
     7
 72
     1
  1
{80 MIN.}
  7
GENERATED_STYLE_3
 73
     1
 44
1.0
  0
MTEXT
  5
17D
330
E3
100
AcDbEntity
  8
Doc_ Floor
  6
Continuous
100
AcDbMText
 10
152.9206437772218
 20
98.36747130082357
 30
0.0
 40
2.5
 41
0.0
 71
     7
 72
     1
  1
{80 MIN.}
  7
GENERATED_STYLE_3
 73
     1
 44
1.0
  0
MTEXT
  5
17E
330
E3
100
AcDbEntity
  8
Doc_ Floor
  6
Continuous
100
AcDbMText
 10
73.20746058109886
 20
155.7198498865425
 30
0.0
 40
2.500000000000001
 41
56.68353220040039
 71
     6
 72
     1
  1
\A1;{\fCentury Gothic|b0|i0|c0|p34;TRS 5\PMIN. ROOF PITCH 3\fArial|b0|i0|c0|p34;\H1.029412x;\U+00B0}
  7
GENERATED_STYLE_1
 73
     1
 44
1.056356172275314
  0
LINE
  5
17F
330
E3
100
AcDbEntity
  8
Doc_ Floor
  6
Continuous
100
AcDbLine
 10
103.4474199974985
 20
129.7098273634724
 30
0.0
 11
101.1546181493906
 21
132.8196956115571
 31
0.0
  0
LINE
  5
180
330
E3
100
AcDbEntity
  8
Doc_ Floor
  6
Continuous
100
AcDbLine
 10
103.4474199974985
 20
129.7098273634724
 30
0.0
 11
103.0167309489735
 21
133.5494525191252
 31
0.0
  0
LINE
  5
181
330
E3
100
AcDbEntity
  8
Doc_ Floor
  6
Continuous
100
AcDbLine
 10
101.1546181493906
 20
132.8196956115571
 30
0.0
 11
103.0167309489735
 21
133.5494525191252
 31
0.0
  0
LWPOLYLINE
  5
182
330
E3
100
AcDbEntity
  8
Doc_ Floor
  6
Continuous
100
AcDbPolyline
 90
       17
 70
   128
 43
0.0
 10
102.0856751722567
 20
133.1845728359244
 10
100.7858745096041
 20
136.2108712471277
 10
99.46832158613671
 20
138.9848856451872
 10
98.12417509347792
 20
141.514486390274
 10
96.744593723251
 20
143.8075438425586
 10
95.32073616707929
 20
145.8719283622121
 10
93.84376111658607
 20
147.7155103094052
 10
92.30482726339466
 20
149.3461600443088
 10
90.69509329912835
 20
150.7717479270937
 10
89.00571791541047
 20
152.0001443179308
 10
87.22785980386432
 20
153.0392195769909
 10
85.35267765611317
 20
153.8968440644448
 10
83.3713301637804
 20
154.5808881404634
 10
81.27497601848927
 20
155.0992221652175
 10
79.0547739118631
 20
155.459716498878
 10
76.70188253552519
 20
155.6702415016157
 10
74.20746058109886
 20
155.7386675336014
  0
MTEXT
  5
183
330
E3
100
AcDbEntity
  8
Doc_ Floor
  6
Continuous
100
AcDbMText
 10
84.61063592105417
 20
143.3735547292774
 30
0.0
 40
2.5
 41
0.0
 71
     6
 72
     1
  1
{UNDERLAY}
  7
GENERATED_STYLE_1
 73
     1
 44
1.0
  0
LINE
  5
184
330
E3
100
AcDbEntity
  8
Doc_ Floor
  6
Continuous
100
AcDbLine
 10
96.1912640939032
 20
126.4945582067416
 30
0.0
 11
94.50066600580072
 21
129.9687562463462
 31
0.0
  0
LINE
  5
185
330
E3
100
AcDbEntity
  8
Doc_ Floor
  6
Continuous
100
AcDbLine
 10
96.1912640939032
 20
126.4945582067416
 30
0.0
 11
96.46426327615715
 21
130.3486037949301
 31
0.0
  0
LINE
  5
186
330
E3
100
AcDbEntity
  8
Doc_ Floor
  6
Continuous
100
AcDbLine
 10
94.50066600580072
 20
129.9687562463462
 30
0.0
 11
96.46426327615715
 21
130.3486037949301
 31
0.0
  0
LWPOLYLINE
  5
187
330
E3
100
AcDbEntity
  8
Doc_ Floor
  6
Continuous
100
AcDbPolyline
 90
       12
 70
   128
 43
0.0
 10
95.48246556427382
 20
130.158680376093
 10
94.6625153387116
 20
133.5599382968309
 10
93.76899092298441
 20
136.3916191885203
 10
92.77953248648325
 20
138.6894998921392
 10
91.67178019859918
 20
140.4893572486652
 10
91.06655641332323
 20
141.213707434574
 10
90.42337422872319
 20
141.8269680990761
 10
89.73943866597294
 20
142.3336113472939
 10
89.01195474624635
 20
142.7381092843495
 10
88.23812749071729
 20
143.0449340153652
 10
87.41516192055965
 20
143.2585576454633
 10
85.61063592105417
 20
143.424090023395
  0
MTEXT
  5
188
330
E3
100
AcDbEntity
  8
Doc_ Floor
  6
Continuous
100
AcDbMText
 10
78.03072071894049
 20
166.7695038187583
 30
0.0
 40
2.5
 41
0.0
 71
     6
 72
     1
  1
{ROOF FIXING}
  7
GENERATED_STYLE_1
 73
     1
 44
1.0
  0
LINE
  5
189
330
E3
100
AcDbEntity
  8
Doc_ Floor
  6
Continuous
100
AcDbLine
 10
105.7965896740112
 20
134.0625275381618
 30
0.0
 11
103.9735004779684
 21
137.4690704671241
 31
0.0
  0
LINE
  5
18A
330
E3
100
AcDbEntity
  8
Doc_ Floor
  6
Continuous
100
AcDbLine
 10
105.7965896740112
 20
134.0625275381618
 30
0.0
 11
105.9210205001362
 21
137.9242255210876
 31
0.0
  0
LINE
  5
18B
330
E3
100
AcDbEntity
  8
Doc_ Floor
  6
Continuous
100
AcDbLine
 10
103.9735004779684
 20
137.4690704671241
 30
0.0
 11
105.9210205001362
 21
137.9242255210876
 31
0.0
  0
LWPOLYLINE
  5
18C
330
E3
100
AcDbEntity
  8
Doc_ Floor
  6
Continuous
100
AcDbPolyline
 90
       17
 70
   128
 43
0.0
 10
104.947260896017
 20
137.6966474687168
 10
103.930137886066
 20
141.6034713232054
 10
102.8717450487598
 20
145.1840276867452
 10
101.7637070399284
 20
148.448556816801
 10
100.5976485154016
 20
151.4072989708378
 10
99.36519413100949
 20
154.0704944063204
 10
98.0579685425819
 20
156.4483833807136
 10
96.66759640594879
 20
158.5512061514821
 10
95.18570237694009
 20
160.389202976091
 10
93.60391111138571
 20
161.972614112005
 10
91.9138472651156
 20
163.311679816689
 10
90.10713549395969
 20
164.4166403476078
 10
88.17540045374788
 20
165.2977359622263
 10
86.11026680031014
 20
165.9652069180092
 10
83.90335918947638
 20
166.4292934724216
 10
81.54630227707652
 20
166.700235882928
 10
79.03072071894049
 20
166.7882744069936
  0
MTEXT
  5
18D
330
E3
100
AcDbEntity
  8
Doc_ Floor
  6
Continuous
100
AcDbMText
 10
199.5846598040943
 20
143.502746323124
 30
0.0
 40
2.5
 41
0.0
 71
     4
 72
     1
  1
{METAL HIDDEN GUTTER}
  7
GENERATED_STYLE_1
 73
     1
 44
1.0
  0
LINE
  5
18E
330
E3
100
AcDbEntity
  8
Doc_ Floor
  6
Continuous
100
AcDbLine
 10
158.6006906303248
 20
114.9903053110479
 30
0.0
 11
160.8681709930166
 21
118.1186800816883
 31
0.0
  0
LINE
  5
18F
330
E3
100
AcDbEntity
  8
Doc_ Floor
  6
Continuous
100
AcDbLine
 10
158.6006906303248
 20
114.9903053110479
 30
0.0
 11
162.1285745505558
 21
116.5658178796173
 31
0.0
  0
LINE
  5
190
330
E3
100
AcDbEntity
  8
Doc_ Floor
  6
Continuous
100
AcDbLine
 10
160.8681709930166
 20
118.1186800816883
 30
0.0
 11
162.1285745505558
 21
116.5658178796173
 31
0.0
  0
LWPOLYLINE
  5
191
330
E3
100
AcDbEntity
  8
Doc_ Floor
  6
Continuous
100
AcDbPolyline
 90
        9
 70
   128
 43
0.0
 10
161.4983716995332
 20
117.342249241487
 10
176.9887945973551
 20
129.6898624257524
 10
182.9182268235236
 20
134.226681705624
 10
187.7763750371021
 20
137.7715298416212
 10
191.6676658400196
 20
140.3989221319687
 10
194.6965258342049
 20
142.1833738748911
 10
196.9673816215868
 20
143.1994003686131
 10
197.8511912508293
 20
143.4425401777191
 10
198.5846598040943
 20
143.5215169113593
  0
MTEXT
  5
192
330
E3
100
AcDbEntity
  8
Doc_ Floor
  6
Continuous
100
AcDbMText
 10
220.8087086944494
 20
104.3041952799212
 30
0.0
 40
2.5
 41
0.0
 71
     6
 72
     1
  1
{UNDERLAY}
  7
GENERATED_STYLE_1
 73
     1
 44
1.0
  0
LINE
  5
193
330
E3
100
AcDbEntity
  8
Doc_ Floor
  6
Continuous
100
AcDbLine
 10
168.5680719412524
 20
114.1634568404399
 30
0.0
 11
172.4115088557932
 21
113.768250358079
 31
0.0
  0
LINE
  5
194
330
E3
100
AcDbEntity
  8
Doc_ Floor
  6
Continuous
100
AcDbLine
 10
168.5680719412524
 20
114.1634568404399
 30
0.0
 11
171.6989806652446
 21
111.8994778093025
 31
0.0
  0
LINE
  5
195
330
E3
100
AcDbEntity
  8
Doc_ Floor
  6
Continuous
100
AcDbLine
 10
172.4115088557932
 20
113.768250358079
 30
0.0
 11
171.6989806652446
 21
111.8994778093025
 31
0.0
  0
LWPOLYLINE
  5
196
330
E3
100
AcDbEntity
  8
Doc_ Floor
  6
Continuous
100
AcDbPolyline
 90
        6
 70
   128
 43
0.0
 10
172.0552446806111
 20
112.8338638930918
 10
182.7261589098906
 20
108.8404245833714
 10
190.1474602588489
 20
106.2222308081268
 10
194.8767003305841
 20
104.7900702456014
 10
196.4060322634612
 20
104.4596235685596
 10
197.4714307281941
 20
104.3547305740389
  0
MTEXT
  5
197
330
E3
100
AcDbEntity
  8
Doc_ Floor
  6
Continuous
100
AcDbMText
 10
198.8634527114357
 20
85.60938523449802
 30
0.0
 40
2.499999999999999
 41
0.0
 71
     4
 72
     1
  1
{SOLID SUPPORT FOR HIDDEN GUTTER}
  7
GENERATED_STYLE_1
 73
     1
 44
1.0
  0
LINE
  5
198
330
E3
100
AcDbEntity
  8
Doc_ Floor
  6
Continuous
100
AcDbLine
 10
153.5751356002556
 20
112.4920474931033
 30
0.0
 11
157.1224609346636
 21
110.9608105254055
 31
0.0
  0
LINE
  5
199
330
E3
100
AcDbEntity
  8
Doc_ Floor
  6
Continuous
100
AcDbLine
 10
153.5751356002556
 20
112.4920474931033
 30
0.0
 11
155.8815926414255
 21
109.3922934007044
 31
0.0
  0
LINE
  5
19A
330
E3
100
AcDbEntity
  8
Doc_ Floor
  6
Continuous
100
AcDbLine
 10
157.1224609346636
 20
110.9608105254055
 30
0.0
 11
155.8815926414255
 21
109.3922934007044
 31
0.0
  0
LWPOLYLINE
  5
19B
330
E3
100
AcDbEntity
  8
Doc_ Floor
  6
Continuous
100
AcDbPolyline
 90
       12
 70
   128
 43
0.0
 10
156.5020281391087
 20
110.1765529273228
 10
164.6593725617214
 20
103.8531811442045
 10
171.7331712593182
 20
98.59931149519609
 10
177.838459044254
 20
94.34516750539191
 10
183.0902707288836
 20
91.0209726998862
 10
187.6036411255617
 20
88.55695060377322
 10
189.6193592197799
 20
87.62569917333096
 10
191.4936050466433
 20
86.88332474214722
 10
193.2407579576962
 20
86.32110525085884
 10
194.875197304483
 20
85.9303186401025
 10
196.411302438548
 20
85.70224285051509
 10
197.8634527114357
 20
85.62815582273332
  0
MTEXT
  5
19C
330
E3
100
AcDbEntity
  8
Doc_ Floor
  6
Continuous
100
AcDbMText
 10
111.4764557867262
 20
180.8908537492673
 30
0.0
 40
2.5
 41
56.71228972547952
 71
     6
 72
     1
  1
{CLADDING ON CAVITY BATTENS WITH BUILDING WRAP OVER METAL HIDDEN GUTTER}
  7
GENERATED_STYLE_1
 73
     1
 44
1.065340909090909
  0
LINE
  5
19D
330
E3
100
AcDbEntity
  8
Doc_ Floor
  6
Continuous
100
AcDbLine
 10
158.307867414157
 20
160.9689394122912
 30
0.0
 11
154.7188834534926
 21
162.3998181107051
 31
0.0
  0
LINE
  5
19E
330
E3
100
AcDbEntity
  8
Doc_ Floor
  6
Continuous
100
AcDbLine
 10
158.307867414157
 20
160.9689394122912
 30
0.0
 11
155.9151548896649
 21
164.002608578817
 31
0.0
  0
LINE
  5
19F
330
E3
100
AcDbEntity
  8
Doc_ Floor
  6
Continuous
100
AcDbLine
 10
154.7188834534926
 20
162.3998181107051
 30
0.0
 11
155.9151548896649
 21
164.002608578817
 31
0.0
  0
LWPOLYLINE
  5
1A0
330
E3
100
AcDbEntity
  8
Doc_ Floor
  6
Continuous
100
AcDbPolyline
 90
       15
 70
   128
 43
0.0
 10
155.317019857806
 20
163.201213177669
 10
148.8843857445985
 20
167.7587274089904
 10
142.9887753179524
 20
171.5468381518251
 10
140.2065495541147
 20
173.1679452792594
 10
137.5156143923473
 20
174.6153952116112
 10
134.9016480594601
 20
175.8954191745605
 10
132.350328782263
 20
177.0142483937869
 10
129.847334787566
 20
177.9781140949703
 10
127.3783443021791
 20
178.7932475037904
 10
124.9290355529121
 20
179.465879845927
 10
122.4850867665752
 20
180.0022423470599
 10
120.0321761699781
 20
180.4085662328688
 10
117.555981989931
 20
180.6910827290336
 10
115.0421824532437
 20
180.856023061234
 10
112.4764557867262
 20
180.9096184551497
  0
MTEXT
  5
1A1
330
E3
100
AcDbEntity
  8
Doc_ Floor
  6
Continuous
100
AcDbMText
 10
199.5846598040943
 20
172.5307261741983
 30
0.0
 40
2.499999999999999
 41
0.0
 71
     4
 72
     1
  1
{HEM TO FLASHING EDGE}
  7
GENERATED_STYLE_1
 73
     1
 44
1.0
  0
LINE
  5
1A2
330
E3
100
AcDbEntity
  8
Doc_ Floor
  6
Continuous
100
AcDbLine
 10
167.6309676228844
 20
151.2895480361383
 30
0.0
 11
169.8956397010923
 21
154.4199586325485
 31
0.0
  0
LINE
  5
1A3
330
E3
100
AcDbEntity
  8
Doc_ Floor
  6
Continuous
100
AcDbLine
 10
167.6309676228844
 20
151.2895480361383
 30
0.0
 11
171.157436572013
 21
152.8682262415873
 31
0.0
  0
LINE
  5
1A4
330
E3
100
AcDbEntity
  8
Doc_ Floor
  6
Continuous
100
AcDbLine
 10
169.8956397010923
 20
154.4199586325485
 30
0.0
 11
171.157436572013
 21
152.8682262415873
 31
0.0
  0
LWPOLYLINE
  5
1A5
330
E3
100
AcDbEntity
  8
Doc_ Floor
  6
Continuous
100
AcDbPolyline
 90
        9
 70
   128
 43
0.0
 10
170.526536738393
 20
153.6440929086401
 10
181.7718737800494
 20
162.5541313062839
 10
186.1430386715481
 20
165.830119435805
 10
189.7832289091054
 20
168.3910784315267
 10
192.76996531693
 20
170.2902519777496
 10
195.1807687192305
 20
171.5808837587745
 10
197.0931599402157
 20
172.3162174589023
 10
197.8866762402803
 20
172.4922861799737
 10
198.5846598040943
 20
172.5494967624336
  0
MTEXT
  5
1A6
330
E3
100
AcDbEntity
  8
0
  6
Continuous
100
AcDbMText
 10
42.0836279444616
 20
48.06293888957747
 30
0.0
 40
2.499999999999999
 41
69.01187578516154
 71
     7
 72
     1
  1
\A1;{\fCentury Gothic|b0|i0|c0|p34;LOW, MEDIUM OR HIGH WIND ZONE.\P ROOF PITCH \fArial|b0|i0|c0|p34;\H1.029412x;\U+2265\fCentury Gothic|b0|i0|c0|p34;\H0.971429x; 10\fArial|b0|i0|c0|p34;\H1.029412x;\U+00B0}
  7
GENERATED_STYLE_1
 73
     1
 44
1.056355725756043
  0
MTEXT
  5
1A7
330
E3
100
AcDbEntity
  8
0
  6
Continuous
100
AcDbMText
 10
42.0836279444616
 20
37.64008650345021
 30
0.0
 40
2.5
 41
69.01187578516154
 71
     7
 72
     1
  1
\A1;{\fCentury Gothic|b0|i0|c0|p34;VERY HIGH OR EXTRA WIND ZONE.\P ROOF PITCH \fArial|b0|i0|c0|p34;\H1.029412x;<\fCentury Gothic|b0|i0|c0|p34;\H0.971429x; 10\fArial|b0|i0|c0|p34;\H1.029412x;\U+00B0}
  7
GENERATED_STYLE_1
 73
     1
 44
1.056355725756043
  0
MTEXT
  5
1A8
330
E3
100
AcDbEntity
  8
0
  6
Continuous
100
AcDbMText
 10
126.5829620010497
 20
50.1027666210229
 30
0.0
 40
2.499999999999999
 41
0.0
 71
     8
 72
     1
  1
{75MM}
  7
GENERATED_STYLE_1
 73
     1
 44
1.0
  0
MTEXT
  5
1A9
330
E3
100
AcDbEntity
  8
0
  6
Continuous
100
AcDbMText
 10
126.5829620010497
 20
38.86398709956514
 30
0.0
 40
2.499999999999999
 41
0.0
 71
     8
 72
     1
  1
{100MM}
  7
GENERATED_STYLE_1
 73
     1
 44
1.0
  0
MTEXT
  5
1AA
330
E3
100
AcDbEntity
  8
0
  6
Continuous
100
AcDbMText
 10
126.5829620010497
 20
59.98482570442802
 30
0.0
 40
2.499999999999999
 41
0.0
 71
     8
 72
     1
  1
{B}
  7
GENERATED_STYLE_1
 73
     1
 44
1.0
  0
MTEXT
  5
1AB
330
E3
100
AcDbEntity
  8
0
  6
Continuous
100
AcDbMText
 10
160.8567875075116
 20
46.51192937361961
 30
0.0
 40
2.499999999999999
 41
0.0
 71
     7
 72
     1
  1
\A1;{\fCentury Gothic|b0|i0|c0|p34;ROOF PITCH \fArial|b0|i0|c0|p34;\H1.029412x;\U+2265\fCentury Gothic|b0|i0|c0|p34;\H0.971429x; 12\fArial|b0|i0|c0|p34;\H1.029412x;\U+00B0}
  7
GENERATED_STYLE_1
 73
     1
 44
1.0
  0
MTEXT
  5
1AC
330
E3
100
AcDbEntity
  8
0
  6
Continuous
100
AcDbMText
 10
160.8567875075116
 20
38.35693337624465
 30
0.0
 40
2.5
 41
0.0
 71
     7
 72
     1
  1
\A1;{\fCentury Gothic|b0|i0|c0|p34;ROOF PITCH \fArial|b0|i0|c0|p34;\H1.029412x;<\fCentury Gothic|b0|i0|c0|p34;\H0.971429x; 12\fArial|b0|i0|c0|p34;\H1.029412x;\U+00B0}
  7
GENERATED_STYLE_1
 73
     1
 44
1.0
  0
MTEXT
  5
1AD
330
E3
100
AcDbEntity
  8
0
  6
Continuous
100
AcDbMText
 10
217.3561215640997
 20
46.51192937361961
 30
0.0
 40
2.499999999999999
 41
0.0
 71
     8
 72
     1
  1
{20MM}
  7
GENERATED_STYLE_1
 73
     1
 44
1.0
  0
MTEXT
  5
1AE
330
E3
100
AcDbEntity
  8
0
  6
Continuous
100
AcDbMText
 10
217.3561215640997
 20
38.43900243752393
 30
0.0
 40
2.499999999999999
 41
0.0
 71
     8
 72
     1
  1
{45MM}
  7
GENERATED_STYLE_1
 73
     1
 44
1.0
  0
MTEXT
  5
1AF
330
E3
100
AcDbEntity
  8
0
  6
Continuous
100
AcDbMText
 10
217.3561215640997
 20
54.63637060478976
 30
0.0
 40
2.499999999999999
 41
0.0
 71
     8
 72
     1
  1
{A}
  7
GENERATED_STYLE_1
 73
     1
 44
1.0
  0
HATCH
  5
1B0
330
E3
100
AcDbEntity
  8
0
  6
Continuous
 62
   255
370
     0
100
AcDbHatch
 10
0.0
 20
0.0
 30
0.0
210
0.0
220
0.0
230
1.0
  2
SOLID
 70
     1
 71
     0
 91
        1
 92
        3
 72
     0
 73
     1
 93
        4
 10
106.4919619777336
 20
134.202524360841
 10
104.9919619777336
 20
134.202524360841
 10
104.9919619777336
 20
133.702524360841
 10
106.4919619777336
 20
133.702524360841
 97
        0
 75
     0
 76
     1
 98
        0
  0
HATCH
  5
1B1
330
E3
100
AcDbEntity
  8
0
  6
Continuous
 62
   255
370
     0
100
AcDbHatch
 10
0.0
 20
0.0
 30
0.0
210
0.0
220
0.0
230
1.0
  2
SOLID
 70
     1
 71
     0
 91
        1
 92
        3
 72
     1
 73
     1
 93
        4
 10
106.2419619777336
 20
134.1191910275076
 42
0.1666666666666667
 10
105.2419619777336
 20
134.1191910275076
 42
0.0
 10
105.2419619777336
 20
133.7858576941743
 42
0.1666666666666667
 10
106.2419619777336
 20
133.7858576941743
 42
0.0
 97
        0
 75
     0
 76
     1
 98
        0
  0
ARC
  5
1B2
330
E3
100
AcDbEntity
  8
0
  6
Continuous
100
AcDbCircle
 10
105.7419619777336
 20
132.6608576941743
 30
0.0
 40
1.541666666666673
100
AcDbArc
 50
71.07535558394882
 51
108.9246444160512
  0
LINE
  5
1B3
330
E3
100
AcDbEntity
  8
0
  6
Continuous
100
AcDbLine
 10
105.2419607077029
 20
134.1191913554196
 30
0.0
 11
105.2419607077029
 21
133.785857372206
 31
0.0
  0
ARC
  5
1B4
330
E3
100
AcDbEntity
  8
0
  6
Continuous
100
AcDbCircle
 10
105.7419619777336
 20
135.2441910275077
 30
0.0
 40
1.541666666666673
100
AcDbArc
 50
251.0753555839488
 51
288.9246444160512
  0
LINE
  5
1B5
330
E3
100
AcDbEntity
  8
0
  6
Continuous
100
AcDbLine
 10
106.2419626573435
 20
133.785857372206
 30
0.0
 11
106.2419626573435
 21
134.1191913554196
 31
0.0
  0
HATCH
  5
1B6
330
E3
100
AcDbEntity
  8
0
  6
Continuous
 62
   255
370
     0
100
AcDbHatch
 10
0.0
 20
0.0
 30
0.0
210
0.0
220
0.0
230
1.0
  2
SOLID
 70
     1
 71
     0
 91
        1
 92
        3
 72
     1
 73
     1
 93
        4
 10
106.7419619777336
 20
134.1191910275076
 42
0.3333333333333333
 10
106.2419619777336
 20
134.1191910275076
 42
0.0
 10
106.2419619777336
 20
133.7858576941743
 42
0.3333333333333333
 10
106.7419619777336
 20
133.7858576941743
 42
0.0
 97
        0
 75
     0
 76
     1
 98
        0
  0
ARC
  5
1B7
330
E3
100
AcDbEntity
  8
0
  6
Continuous
100
AcDbCircle
 10
106.4919619777336
 20
133.7858576941743
 30
0.0
 40
0.4166666666666596
100
AcDbArc
 50
53.13010235415521
 51
126.8698976458448
  0
LINE
  5
1B8
330
E3
100
AcDbEntity
  8
0
  6
Continuous
100
AcDbLine
 10
106.2419626573435
 20
134.1191913554196
 30
0.0
 11
106.2419626573435
 21
133.785857372206
 31
0.0
  0
ARC
  5
1B9
330
E3
100
AcDbEntity
  8
0
  6
Continuous
100
AcDbCircle
 10
106.4919619777336
 20
134.1191910275077
 30
0.0
 40
0.4166666666666596
100
AcDbArc
 50
233.1301023541552
 51
306.8698976458448
  0
LINE
  5
1BA
330
E3
100
AcDbEntity
  8
0
  6
Continuous
100
AcDbLine
 10
106.7419636321638
 20
133.785857372206
 30
0.0
 11
106.7419636321638
 21
134.1191913554196
 31
0.0
  0
HATCH
  5
1BB
330
E3
100
AcDbEntity
  8
0
  6
Continuous
 62
   255
370
     0
100
AcDbHatch
 10
0.0
 20
0.0
 30
0.0
210
0.0
220
0.0
230
1.0
  2
SOLID
 70
     1
 71
     0
 91
        1
 92
        3
 72
     1
 73
     1
 93
        4
 10
104.7419619777336
 20
134.1191910275076
 42
0.0
 10
104.7419619777336
 20
133.7858576941743
 42
0.3333333333333333
 10
105.2419619777336
 20
133.7858576941743
 42
0.0
 10
105.2419619777336
 20
134.1191910275076
 42
0.3333333333333333
 97
        0
 75
     0
 76
     1
 98
        0
  0
LINE
  5
1BC
330
E3
100
AcDbEntity
  8
0
  6
Continuous
100
AcDbLine
 10
104.7419633425027
 20
133.785857372206
 30
0.0
 11
104.7419633425027
 21
134.1191913554196
 31
0.0
  0
ARC
  5
1BD
330
E3
100
AcDbEntity
  8
0
  6
Continuous
100
AcDbCircle
 10
104.9919619777336
 20
134.1191910275077
 30
0.0
 40
0.4166666666666596
100
AcDbArc
 50
233.1301023541552
 51
306.8698976458448
  0
LINE
  5
1BE
330
E3
100
AcDbEntity
  8
0
  6
Continuous
100
AcDbLine
 10
105.2419607077029
 20
134.1191913554196
 30
0.0
 11
105.2419607077029
 21
133.785857372206
 31
0.0
  0
ARC
  5
1BF
330
E3
100
AcDbEntity
  8
0
  6
Continuous
100
AcDbCircle
 10
104.9919619777336
 20
133.7858576941743
 30
0.0
 40
0.4166666666666596
100
AcDbArc
 50
53.13010235415521
 51
126.8698976458448
  0
HATCH
  5
1C0
330
E3
100
AcDbEntity
  8
0
  6
Continuous
 62
   255
370
     0
100
AcDbHatch
 10
0.0
 20
0.0
 30
0.0
210
0.0
220
0.0
230
1.0
  2
SOLID
 70
     1
 71
     0
 91
        1
 92
        3
 72
     0
 73
     1
 93
        4
 10
105.4086289777336
 20
133.702524360841
 10
105.4086289777336
 20
132.102524360841
 10
106.0752949777336
 20
132.102524360841
 10
106.0752949777336
 20
133.702524360841
 97
        0
 75
     0
 76
     1
 98
        0
  0
LINE
  5
1C1
330
E3
100
AcDbEntity
  8
0
  6
Continuous
100
AcDbLine
 10
105.4086276993096
 20
133.7025256812128
 30
0.0
 11
105.4086276993096
 21
132.1025254494839
 31
0.0
  0
LINE
  5
1C2
330
E3
100
AcDbEntity
  8
0
  6
Continuous
100
AcDbLine
 10
105.4086276993096
 20
132.1025254494839
 30
0.0
 11
106.0752956657367
 21
132.1025254494839
 31
0.0
  0
LINE
  5
1C3
330
E3
100
AcDbEntity
  8
0
  6
Continuous
100
AcDbLine
 10
106.0752956657367
 20
132.1025254494839
 30
0.0
 11
106.0752956657367
 21
133.7025256812128
 31
0.0
  0
LINE
  5
1C4
330
E3
100
AcDbEntity
  8
0
  6
Continuous
100
AcDbLine
 10
106.0752956657367
 20
133.7025256812128
 30
0.0
 11
105.4086276993096
 21
133.7025256812128
 31
0.0
  0
HATCH
  5
1C5
330
E3
100
AcDbEntity
  8
0
  6
Continuous
 62
   255
370
     0
100
AcDbHatch
 10
0.0
 20
0.0
 30
0.0
210
0.0
220
0.0
230
1.0
  2
SOLID
 70
     1
 71
     0
 91
        1
 92
        3
 72
     0
 73
     1
 93
        5
 10
105.4419619777336
 20
132.102524360841
 10
105.4419619777336
 20
121.702524360841
 10
105.7419619777336
 20
121.102524360841
 10
106.0419619777336
 20
121.702524360841
 10
106.0419619777336
 20
132.102524360841
 97
        0
 75
     0
 76
     1
 98
        0
  0
LINE
  5
1C6
330
E3
100
AcDbEntity
  8
0
  6
Continuous
100
AcDbLine
 10
105.441962541479
 20
132.1025254494839
 30
0.0
 11
105.441962541479
 21
121.7025239432461
 31
0.0
  0
LINE
  5
1C7
330
E3
100
AcDbEntity
  8
0
  6
Continuous
100
AcDbLine
 10
105.441962541479
 20
121.7025239432461
 30
0.0
 11
105.7419616825232
 21
121.1025256611579
 31
0.0
  0
LINE
  5
1C8
330
E3
100
AcDbEntity
  8
0
  6
Continuous
100
AcDbLine
 10
105.7419616825232
 20
121.1025256611579
 30
0.0
 11
106.0419608235673
 21
121.7025239432461
 31
0.0
  0
LINE
  5
1C9
330
E3
100
AcDbEntity
  8
0
  6
Continuous
100
AcDbLine
 10
106.0419608235673
 20
121.7025239432461
 30
0.0
 11
106.0419608235673
 21
132.1025254494839
 31
0.0
  0
LINE
  5
1CA
330
E3
100
AcDbEntity
  8
0
  6
Continuous
100
AcDbLine
 10
106.0419608235673
 20
132.1025254494839
 30
0.0
 11
105.441962541479
 21
132.1025254494839
 31
0.0
  0
LINE
  5
1CB
330
E3
100
AcDbEntity
  8
0
  6
Continuous
100
AcDbLine
 10
106.4919613399436
 20
134.2025230464129
 30
0.0
 11
104.9919620251028
 21
134.2025230464129
 31
0.0
  0
LINE
  5
1CC
330
E3
100
AcDbEntity
  8
0
  6
Continuous
100
AcDbLine
 10
104.9919620251028
 20
133.7025256812128
 30
0.0
 11
106.4919613399436
 21
133.7025256812128
 31
0.0
  0
LINE
  5
1CD
330
E3
100
AcDbEntity
  8
0
  6
Continuous
100
AcDbLine
 10
106.2419619777336
 20
132.102524360841
 30
0.0
 11
106.2400593267795
 21
132.0970680116346
 31
0.0
  0
LINE
  5
1CE
330
E3
100
AcDbEntity
  8
0
  6
Continuous
100
AcDbLine
 10
106.2400593267795
 20
132.0970680116346
 30
0.0
 11
106.2343658542397
 21
132.0916116624283
 31
0.0
  0
LINE
  5
1CF
330
E3
100
AcDbEntity
  8
0
  6
Continuous
100
AcDbLine
 10
106.2343658542397
 20
132.0916116624283
 30
0.0
 11
106.2249252501925
 21
132.0861558220623
 31
0.0
  0
LINE
  5
1D0
330
E3
100
AcDbEntity
  8
0
  6
Continuous
100
AcDbLine
 10
106.2249252501925
 20
132.0861558220623
 30
0.0
 11
106.2118078905342
 21
132.0806980763817
 31
0.0
  0
LINE
  5
1D1
330
E3
100
AcDbEntity
  8
0
  6
Continuous
100
AcDbLine
 10
106.2118078905342
 20
132.0806980763817
 30
0.0
 11
106.1951170069185
 21
132.0752439403213
 31
0.0
  0
LINE
  5
1D2
330
E3
100
AcDbEntity
  8
0
  6
Continuous
100
AcDbLine
 10
106.1951170069185
 20
132.0752439403213
 30
0.0
 11
106.1749753264307
 21
132.0697861946407
 31
0.0
  0
LINE
  5
1D3
330
E3
100
AcDbEntity
  8
0
  6
Continuous
100
AcDbLine
 10
106.1749753264307
 20
132.0697861946407
 30
0.0
 11
106.1515380627375
 21
132.0643284489601
 31
0.0
  0
LINE
  5
1D4
330
E3
100
AcDbEntity
  8
0
  6
Continuous
100
AcDbLine
 10
106.1515380627375
 20
132.0643284489601
 30
0.0
 11
106.1249856968471
 21
132.0588743128997
 31
0.0
  0
LINE
  5
1D5
330
E3
100
AcDbEntity
  8
0
  6
Continuous
100
AcDbLine
 10
106.1249856968471
 20
132.0588743128997
 30
0.0
 11
106.0955167578681
 21
132.0534165672191
 31
0.0
  0
LINE
  5
1D6
330
E3
100
AcDbEntity
  8
0
  6
Continuous
100
AcDbLine
 10
106.0955167578681
 20
132.0534165672191
 30
0.0
 11
106.0633550422504
 21
132.0479624311587
 31
0.0
  0
LINE
  5
1D7
330
E3
100
AcDbEntity
  8
0
  6
Continuous
100
AcDbLine
 10
106.0633550422504
 20
132.0479624311587
 30
0.0
 11
106.0287496137849
 21
132.0425046854781
 31
0.0
  0
LINE
  5
1D8
330
E3
100
AcDbEntity
  8
0
  6
Continuous
100
AcDbLine
 10
106.0287496137849
 20
132.0425046854781
 30
0.0
 11
105.9919603651232
 21
132.0370469397976
 31
0.0
  0
LINE
  5
1D9
330
E3
100
AcDbEntity
  8
0
  6
Continuous
100
AcDbLine
 10
105.9919603651232
 20
132.0370469397976
 30
0.0
 11
105.9532724562579
 21
132.0315928037371
 31
0.0
  0
LINE
  5
1DA
330
E3
100
AcDbEntity
  8
0
  6
Continuous
100
AcDbLine
 10
105.9532724562579
 20
132.0315928037371
 30
0.0
 11
105.9129710471813
 21
132.0261350580566
 31
0.0
  0
LINE
  5
1DB
330
E3
100
AcDbEntity
  8
0
  6
Continuous
100
AcDbLine
 10
105.9129710471813
 20
132.0261350580566
 30
0.0
 11
105.8713701748476
 21
132.0206809219962
 31
0.0
  0
LINE
  5
1DC
330
E3
100
AcDbEntity
  8
0
  6
Continuous
100
AcDbLine
 10
105.8713701748476
 20
132.0206809219962
 30
0.0
 11
105.8287874858305
 21
132.0152231763155
 31
0.0
  0
LINE
  5
1DD
330
E3
100
AcDbEntity
  8
0
  6
Continuous
100
AcDbLine
 10
105.8287874858305
 20
132.0152231763155
 30
0.0
 11
105.7855406267041
 21
132.009765430635
 31
0.0
  0
LINE
  5
1DE
330
E3
100
AcDbEntity
  8
0
  6
Continuous
100
AcDbLine
 10
105.7855406267041
 20
132.009765430635
 30
0.0
 11
105.7419616825232
 21
132.0043112945745
 31
0.0
  0
LINE
  5
1DF
330
E3
100
AcDbEntity
  8
0
  6
Continuous
100
AcDbLine
 10
105.7419616825232
 20
132.0043112945745
 30
0.0
 11
105.6983827383422
 21
131.9988535488939
 31
0.0
  0
LINE
  5
1E0
330
E3
100
AcDbEntity
  8
0
  6
Continuous
100
AcDbLine
 10
105.6983827383422
 20
131.9988535488939
 30
0.0
 11
105.655139488836
 21
131.9933958032134
 31
0.0
  0
LINE
  5
1E1
330
E3
100
AcDbEntity
  8
0
  6
Continuous
100
AcDbLine
 10
105.655139488836
 20
131.9933958032134
 30
0.0
 11
105.6125531901988
 21
131.9879416671529
 31
0.0
  0
LINE
  5
1E2
330
E3
100
AcDbEntity
  8
0
  6
Continuous
100
AcDbLine
 10
105.6125531901988
 20
131.9879416671529
 30
0.0
 11
105.570952317865
 21
131.9824839214724
 31
0.0
  0
LINE
  5
1E3
330
E3
100
AcDbEntity
  8
0
  6
Continuous
100
AcDbLine
 10
105.570952317865
 20
131.9824839214724
 30
0.0
 11
105.5306545184086
 21
131.977029785412
 31
0.0
  0
LINE
  5
1E4
330
E3
100
AcDbEntity
  8
0
  6
Continuous
100
AcDbLine
 10
105.5306545184086
 20
131.977029785412
 30
0.0
 11
105.4919629999231
 21
131.9715720397314
 31
0.0
  0
LINE
  5
1E5
330
E3
100
AcDbEntity
  8
0
  6
Continuous
100
AcDbLine
 10
105.4919629999231
 20
131.9715720397314
 30
0.0
 11
105.4551737512614
 21
131.9661142940508
 31
0.0
  0
LINE
  5
1E6
330
E3
100
AcDbEntity
  8
0
  6
Continuous
100
AcDbLine
 10
105.4551737512614
 20
131.9661142940508
 30
0.0
 11
105.420568322796
 21
131.9606601579904
 31
0.0
  0
LINE
  5
1E7
330
E3
100
AcDbEntity
  8
0
  6
Continuous
100
AcDbLine
 10
105.420568322796
 20
131.9606601579904
 30
0.0
 11
105.3884102167984
 21
131.9552024123098
 31
0.0
  0
LINE
  5
1E8
330
E3
100
AcDbEntity
  8
0
  6
Continuous
100
AcDbLine
 10
105.3884102167984
 20
131.9552024123098
 30
0.0
 11
105.3589412778194
 21
131.9497482762494
 31
0.0
  0
LINE
  5
1E9
330
E3
100
AcDbEntity
  8
0
  6
Continuous
100
AcDbLine
 10
105.3589412778194
 20
131.9497482762494
 30
0.0
 11
105.3323853023088
 21
131.9442905305688
 31
0.0
  0
LINE
  5
1EA
330
E3
100
AcDbEntity
  8
0
  6
Continuous
100
AcDbLine
 10
105.3323853023088
 20
131.9442905305688
 30
0.0
 11
105.3089480386157
 21
131.9388327848882
 31
0.0
  0
LINE
  5
1EB
330
E3
100
AcDbEntity
  8
0
  6
Continuous
100
AcDbLine
 10
105.3089480386157
 20
131.9388327848882
 30
0.0
 11
105.2888063581278
 21
131.9333786488278
 31
0.0
  0
LINE
  5
1EC
330
E3
100
AcDbEntity
  8
0
  6
Continuous
100
AcDbLine
 10
105.2888063581278
 20
131.9333786488278
 30
0.0
 11
105.2721154745121
 21
131.9279209031472
 31
0.0
  0
LINE
  5
1ED
330
E3
100
AcDbEntity
  8
0
  6
Continuous
100
AcDbLine
 10
105.2721154745121
 20
131.9279209031472
 30
0.0
 11
105.2589981148539
 21
131.9224631574666
 31
0.0
  0
LINE
  5
1EE
330
E3
100
AcDbEntity
  8
0
  6
Continuous
100
AcDbLine
 10
105.2589981148539
 20
131.9224631574666
 30
0.0
 11
105.2495589581378
 21
131.9170090214062
 31
0.0
  0
LINE
  5
1EF
330
E3
100
AcDbEntity
  8
0
  6
Continuous
100
AcDbLine
 10
105.2495589581378
 20
131.9170090214062
 30
0.0
 11
105.2438646286877
 21
131.9115521386188
 31
0.0
  0
LINE
  5
1F0
330
E3
100
AcDbEntity
  8
0
  6
Continuous
100
AcDbLine
 10
105.2438646286877
 20
131.9115521386188
 30
0.0
 11
105.2419619777336
 21
131.9060957894124
 31
0.0
  0
LINE
  5
1F1
330
E3
100
AcDbEntity
  8
0
  6
Continuous
100
AcDbLine
 10
106.2419619777336
 20
131.7096672179838
 30
0.0
 11
106.2400593267795
 21
131.7042108687775
 31
0.0
  0
LINE
  5
1F2
330
E3
100
AcDbEntity
  8
0
  6
Continuous
100
AcDbLine
 10
106.2400593267795
 20
131.7042108687775
 30
0.0
 11
106.2343658542397
 21
131.6987545195711
 31
0.0
  0
LINE
  5
1F3
330
E3
100
AcDbEntity
  8
0
  6
Continuous
100
AcDbLine
 10
106.2343658542397
 20
131.6987545195711
 30
0.0
 11
106.2249252501925
 21
131.693299202425
 31
0.0
  0
LINE
  5
1F4
330
E3
100
AcDbEntity
  8
0
  6
Continuous
100
AcDbLine
 10
106.2249252501925
 20
131.693299202425
 30
0.0
 11
106.2118078905342
 21
131.6878414567444
 31
0.0
  0
LINE
  5
1F5
330
E3
100
AcDbEntity
  8
0
  6
Continuous
100
AcDbLine
 10
106.2118078905342
 20
131.6878414567444
 30
0.0
 11
106.1951170069185
 21
131.6823837110638
 31
0.0
  0
LINE
  5
1F6
330
E3
100
AcDbEntity
  8
0
  6
Continuous
100
AcDbLine
 10
106.1951170069185
 20
131.6823837110638
 30
0.0
 11
106.1749753264307
 21
131.6769295750034
 31
0.0
  0
LINE
  5
1F7
330
E3
100
AcDbEntity
  8
0
  6
Continuous
100
AcDbLine
 10
106.1749753264307
 20
131.6769295750034
 30
0.0
 11
106.1515380627375
 21
131.6714718293228
 31
0.0
  0
LINE
  5
1F8
330
E3
100
AcDbEntity
  8
0
  6
Continuous
100
AcDbLine
 10
106.1515380627375
 20
131.6714718293228
 30
0.0
 11
106.1249856968471
 21
131.6660176932623
 31
0.0
  0
LINE
  5
1F9
330
E3
100
AcDbEntity
  8
0
  6
Continuous
100
AcDbLine
 10
106.1249856968471
 20
131.6660176932623
 30
0.0
 11
106.0955167578681
 21
131.6605599475818
 31
0.0
  0
LINE
  5
1FA
330
E3
100
AcDbEntity
  8
0
  6
Continuous
100
AcDbLine
 10
106.0955167578681
 20
131.6605599475818
 30
0.0
 11
106.0633550422504
 21
131.6551022019012
 31
0.0
  0
LINE
  5
1FB
330
E3
100
AcDbEntity
  8
0
  6
Continuous
100
AcDbLine
 10
106.0633550422504
 20
131.6551022019012
 30
0.0
 11
106.0287496137849
 21
131.6496480658408
 31
0.0
  0
LINE
  5
1FC
330
E3
100
AcDbEntity
  8
0
  6
Continuous
100
AcDbLine
 10
106.0287496137849
 20
131.6496480658408
 30
0.0
 11
105.9919603651232
 21
131.6441903201602
 31
0.0
  0
LINE
  5
1FD
330
E3
100
AcDbEntity
  8
0
  6
Continuous
100
AcDbLine
 10
105.9919603651232
 20
131.6441903201602
 30
0.0
 11
105.9532724562579
 21
131.6387361840998
 31
0.0
  0
LINE
  5
1FE
330
E3
100
AcDbEntity
  8
0
  6
Continuous
100
AcDbLine
 10
105.9532724562579
 20
131.6387361840998
 30
0.0
 11
105.9129710471813
 21
131.6332784384192
 31
0.0
  0
LINE
  5
1FF
330
E3
100
AcDbEntity
  8
0
  6
Continuous
100
AcDbLine
 10
105.9129710471813
 20
131.6332784384192
 30
0.0
 11
105.8713701748476
 21
131.6278206927386
 31
0.0
  0
LINE
  5
200
330
E3
100
AcDbEntity
  8
0
  6
Continuous
100
AcDbLine
 10
105.8713701748476
 20
131.6278206927386
 30
0.0
 11
105.8287874858305
 21
131.6223665566782
 31
0.0
  0
LINE
  5
201
330
E3
100
AcDbEntity
  8
0
  6
Continuous
100
AcDbLine
 10
105.8287874858305
 20
131.6223665566782
 30
0.0
 11
105.7855406267041
 21
131.6169088109976
 31
0.0
  0
LINE
  5
202
330
E3
100
AcDbEntity
  8
0
  6
Continuous
100
AcDbLine
 10
105.7855406267041
 20
131.6169088109976
 30
0.0
 11
105.7419616825232
 21
131.6114546749372
 31
0.0
  0
LINE
  5
203
330
E3
100
AcDbEntity
  8
0
  6
Continuous
100
AcDbLine
 10
105.7419616825232
 20
131.6114546749372
 30
0.0
 11
105.6983827383422
 21
131.6059969292566
 31
0.0
  0
LINE
  5
204
330
E3
100
AcDbEntity
  8
0
  6
Continuous
100
AcDbLine
 10
105.6983827383422
 20
131.6059969292566
 30
0.0
 11
105.655139488836
 21
131.600539183576
 31
0.0
  0
LINE
  5
205
330
E3
100
AcDbEntity
  8
0
  6
Continuous
100
AcDbLine
 10
105.655139488836
 20
131.600539183576
 30
0.0
 11
105.6125531901988
 21
131.5950850475156
 31
0.0
  0
LINE
  5
206
330
E3
100
AcDbEntity
  8
0
  6
Continuous
100
AcDbLine
 10
105.6125531901988
 20
131.5950850475156
 30
0.0
 11
105.570952317865
 21
131.589627301835
 31
0.0
  0
LINE
  5
207
330
E3
100
AcDbEntity
  8
0
  6
Continuous
100
AcDbLine
 10
105.570952317865
 20
131.589627301835
 30
0.0
 11
105.5306545184086
 21
131.5841695561544
 31
0.0
  0
LINE
  5
208
330
E3
100
AcDbEntity
  8
0
  6
Continuous
100
AcDbLine
 10
105.5306545184086
 20
131.5841695561544
 30
0.0
 11
105.4919629999231
 21
131.578715420094
 31
0.0
  0
LINE
  5
209
330
E3
100
AcDbEntity
  8
0
  6
Continuous
100
AcDbLine
 10
105.4919629999231
 20
131.578715420094
 30
0.0
 11
105.4551737512614
 21
131.5732576744135
 31
0.0
  0
LINE
  5
20A
330
E3
100
AcDbEntity
  8
0
  6
Continuous
100
AcDbLine
 10
105.4551737512614
 20
131.5732576744135
 30
0.0
 11
105.420568322796
 21
131.567803538353
 31
0.0
  0
LINE
  5
20B
330
E3
100
AcDbEntity
  8
0
  6
Continuous
100
AcDbLine
 10
105.420568322796
 20
131.567803538353
 30
0.0
 11
105.3884102167984
 21
131.5623457926725
 31
0.0
  0
LINE
  5
20C
330
E3
100
AcDbEntity
  8
0
  6
Continuous
100
AcDbLine
 10
105.3884102167984
 20
131.5623457926725
 30
0.0
 11
105.3589412778194
 21
131.5568880469919
 31
0.0
  0
LINE
  5
20D
330
E3
100
AcDbEntity
  8
0
  6
Continuous
100
AcDbLine
 10
105.3589412778194
 20
131.5568880469919
 30
0.0
 11
105.3323853023088
 21
131.5514339109315
 31
0.0
  0
LINE
  5
20E
330
E3
100
AcDbEntity
  8
0
  6
Continuous
100
AcDbLine
 10
105.3323853023088
 20
131.5514339109315
 30
0.0
 11
105.3089480386157
 21
131.5459761652509
 31
0.0
  0
LINE
  5
20F
330
E3
100
AcDbEntity
  8
0
  6
Continuous
100
AcDbLine
 10
105.3089480386157
 20
131.5459761652509
 30
0.0
 11
105.2888063581278
 21
131.5405220291904
 31
0.0
  0
LINE
  5
210
330
E3
100
AcDbEntity
  8
0
  6
Continuous
100
AcDbLine
 10
105.2888063581278
 20
131.5405220291904
 30
0.0
 11
105.2721154745121
 21
131.5350642835099
 31
0.0
  0
LINE
  5
211
330
E3
100
AcDbEntity
  8
0
  6
Continuous
100
AcDbLine
 10
105.2721154745121
 20
131.5350642835099
 30
0.0
 11
105.2589981148539
 21
131.5296065378293
 31
0.0
  0
LINE
  5
212
330
E3
100
AcDbEntity
  8
0
  6
Continuous
100
AcDbLine
 10
105.2589981148539
 20
131.5296065378293
 30
0.0
 11
105.2495589581378
 21
131.5241524017689
 31
0.0
  0
LINE
  5
213
330
E3
100
AcDbEntity
  8
0
  6
Continuous
100
AcDbLine
 10
105.2495589581378
 20
131.5241524017689
 30
0.0
 11
105.2438646286877
 21
131.5186949957616
 31
0.0
  0
LINE
  5
214
330
E3
100
AcDbEntity
  8
0
  6
Continuous
100
AcDbLine
 10
105.2438646286877
 20
131.5186949957616
 30
0.0
 11
105.2419619777336
 21
131.5132386465553
 31
0.0
  0
LINE
  5
215
330
E3
100
AcDbEntity
  8
0
  6
Continuous
100
AcDbLine
 10
106.2419619777336
 20
131.3168100751267
 30
0.0
 11
106.2400593267795
 21
131.3113537259204
 31
0.0
  0
LINE
  5
216
330
E3
100
AcDbEntity
  8
0
  6
Continuous
100
AcDbLine
 10
106.2400593267795
 20
131.3113537259204
 30
0.0
 11
106.2343658542397
 21
131.305897376714
 31
0.0
  0
LINE
  5
217
330
E3
100
AcDbEntity
  8
0
  6
Continuous
100
AcDbLine
 10
106.2343658542397
 20
131.305897376714
 30
0.0
 11
106.2249252501925
 21
131.3004425827876
 31
0.0
  0
LINE
  5
218
330
E3
100
AcDbEntity
  8
0
  6
Continuous
100
AcDbLine
 10
106.2249252501925
 20
131.3004425827876
 30
0.0
 11
106.2118078905342
 21
131.2949848371071
 31
0.0
  0
LINE
  5
219
330
E3
100
AcDbEntity
  8
0
  6
Continuous
100
AcDbLine
 10
106.2118078905342
 20
131.2949848371071
 30
0.0
 11
106.1951170069185
 21
131.2895270914265
 31
0.0
  0
LINE
  5
21A
330
E3
100
AcDbEntity
  8
0
  6
Continuous
100
AcDbLine
 10
106.1951170069185
 20
131.2895270914265
 30
0.0
 11
106.1749753264307
 21
131.284072955366
 31
0.0
  0
LINE
  5
21B
330
E3
100
AcDbEntity
  8
0
  6
Continuous
100
AcDbLine
 10
106.1749753264307
 20
131.284072955366
 30
0.0
 11
106.1515380627375
 21
131.2786152096855
 31
0.0
  0
LINE
  5
21C
330
E3
100
AcDbEntity
  8
0
  6
Continuous
100
AcDbLine
 10
106.1515380627375
 20
131.2786152096855
 30
0.0
 11
106.1249856968471
 21
131.273161073625
 31
0.0
  0
LINE
  5
21D
330
E3
100
AcDbEntity
  8
0
  6
Continuous
100
AcDbLine
 10
106.1249856968471
 20
131.273161073625
 30
0.0
 11
106.0955167578681
 21
131.2677033279445
 31
0.0
  0
LINE
  5
21E
330
E3
100
AcDbEntity
  8
0
  6
Continuous
100
AcDbLine
 10
106.0955167578681
 20
131.2677033279445
 30
0.0
 11
106.0633550422504
 21
131.2622455822639
 31
0.0
  0
LINE
  5
21F
330
E3
100
AcDbEntity
  8
0
  6
Continuous
100
AcDbLine
 10
106.0633550422504
 20
131.2622455822639
 30
0.0
 11
106.0287496137849
 21
131.2567914462034
 31
0.0
  0
LINE
  5
220
330
E3
100
AcDbEntity
  8
0
  6
Continuous
100
AcDbLine
 10
106.0287496137849
 20
131.2567914462034
 30
0.0
 11
105.9919603651232
 21
131.2513337005229
 31
0.0
  0
LINE
  5
221
330
E3
100
AcDbEntity
  8
0
  6
Continuous
100
AcDbLine
 10
105.9919603651232
 20
131.2513337005229
 30
0.0
 11
105.9532724562579
 21
131.2458759548423
 31
0.0
  0
LINE
  5
222
330
E3
100
AcDbEntity
  8
0
  6
Continuous
100
AcDbLine
 10
105.9532724562579
 20
131.2458759548423
 30
0.0
 11
105.9129710471813
 21
131.2404218187819
 31
0.0
  0
LINE
  5
223
330
E3
100
AcDbEntity
  8
0
  6
Continuous
100
AcDbLine
 10
105.9129710471813
 20
131.2404218187819
 30
0.0
 11
105.8713701748476
 21
131.2349640731013
 31
0.0
  0
LINE
  5
224
330
E3
100
AcDbEntity
  8
0
  6
Continuous
100
AcDbLine
 10
105.8713701748476
 20
131.2349640731013
 30
0.0
 11
105.8287874858305
 21
131.2295099370409
 31
0.0
  0
LINE
  5
225
330
E3
100
AcDbEntity
  8
0
  6
Continuous
100
AcDbLine
 10
105.8287874858305
 20
131.2295099370409
 30
0.0
 11
105.7855406267041
 21
131.2240521913603
 31
0.0
  0
LINE
  5
226
330
E3
100
AcDbEntity
  8
0
  6
Continuous
100
AcDbLine
 10
105.7855406267041
 20
131.2240521913603
 30
0.0
 11
105.7419616825232
 21
131.2185944456797
 31
0.0
  0
LINE
  5
227
330
E3
100
AcDbEntity
  8
0
  6
Continuous
100
AcDbLine
 10
105.7419616825232
 20
131.2185944456797
 30
0.0
 11
105.6983827383422
 21
131.2131403096193
 31
0.0
  0
LINE
  5
228
330
E3
100
AcDbEntity
  8
0
  6
Continuous
100
AcDbLine
 10
105.6983827383422
 20
131.2131403096193
 30
0.0
 11
105.655139488836
 21
131.2076825639387
 31
0.0
  0
LINE
  5
229
330
E3
100
AcDbEntity
  8
0
  6
Continuous
100
AcDbLine
 10
105.655139488836
 20
131.2076825639387
 30
0.0
 11
105.6125531901988
 21
131.2022284278783
 31
0.0
  0
LINE
  5
22A
330
E3
100
AcDbEntity
  8
0
  6
Continuous
100
AcDbLine
 10
105.6125531901988
 20
131.2022284278783
 30
0.0
 11
105.570952317865
 21
131.1967706821977
 31
0.0
  0
LINE
  5
22B
330
E3
100
AcDbEntity
  8
0
  6
Continuous
100
AcDbLine
 10
105.570952317865
 20
131.1967706821977
 30
0.0
 11
105.5306545184086
 21
131.1913129365171
 31
0.0
  0
LINE
  5
22C
330
E3
100
AcDbEntity
  8
0
  6
Continuous
100
AcDbLine
 10
105.5306545184086
 20
131.1913129365171
 30
0.0
 11
105.4919629999231
 21
131.1858588004567
 31
0.0
  0
LINE
  5
22D
330
E3
100
AcDbEntity
  8
0
  6
Continuous
100
AcDbLine
 10
105.4919629999231
 20
131.1858588004567
 30
0.0
 11
105.4551737512614
 21
131.1804010547761
 31
0.0
  0
LINE
  5
22E
330
E3
100
AcDbEntity
  8
0
  6
Continuous
100
AcDbLine
 10
105.4551737512614
 20
131.1804010547761
 30
0.0
 11
105.420568322796
 21
131.1749433090955
 31
0.0
  0
LINE
  5
22F
330
E3
100
AcDbEntity
  8
0
  6
Continuous
100
AcDbLine
 10
105.420568322796
 20
131.1749433090955
 30
0.0
 11
105.3884102167984
 21
131.1694891730351
 31
0.0
  0
LINE
  5
230
330
E3
100
AcDbEntity
  8
0
  6
Continuous
100
AcDbLine
 10
105.3884102167984
 20
131.1694891730351
 30
0.0
 11
105.3589412778194
 21
131.1640314273546
 31
0.0
  0
LINE
  5
231
330
E3
100
AcDbEntity
  8
0
  6
Continuous
100
AcDbLine
 10
105.3589412778194
 20
131.1640314273546
 30
0.0
 11
105.3323853023088
 21
131.1585772912941
 31
0.0
  0
LINE
  5
232
330
E3
100
AcDbEntity
  8
0
  6
Continuous
100
AcDbLine
 10
105.3323853023088
 20
131.1585772912941
 30
0.0
 11
105.3089480386157
 21
131.1531195456135
 31
0.0
  0
LINE
  5
233
330
E3
100
AcDbEntity
  8
0
  6
Continuous
100
AcDbLine
 10
105.3089480386157
 20
131.1531195456135
 30
0.0
 11
105.2888063581278
 21
131.147661799933
 31
0.0
  0
LINE
  5
234
330
E3
100
AcDbEntity
  8
0
  6
Continuous
100
AcDbLine
 10
105.2888063581278
 20
131.147661799933
 30
0.0
 11
105.2721154745121
 21
131.1422076638725
 31
0.0
  0
LINE
  5
235
330
E3
100
AcDbEntity
  8
0
  6
Continuous
100
AcDbLine
 10
105.2721154745121
 20
131.1422076638725
 30
0.0
 11
105.2589981148539
 21
131.136749918192
 31
0.0
  0
LINE
  5
236
330
E3
100
AcDbEntity
  8
0
  6
Continuous
100
AcDbLine
 10
105.2589981148539
 20
131.136749918192
 30
0.0
 11
105.2495589581378
 21
131.1312957821315
 31
0.0
  0
LINE
  5
237
330
E3
100
AcDbEntity
  8
0
  6
Continuous
100
AcDbLine
 10
105.2495589581378
 20
131.1312957821315
 30
0.0
 11
105.2438646286877
 21
131.1258378529045
 31
0.0
  0
LINE
  5
238
330
E3
100
AcDbEntity
  8
0
  6
Continuous
100
AcDbLine
 10
105.2438646286877
 20
131.1258378529045
 30
0.0
 11
105.2419619777336
 21
131.1203815036982
 31
0.0
  0
LINE
  5
239
330
E3
100
AcDbEntity
  8
0
  6
Continuous
100
AcDbLine
 10
106.2419619777336
 20
130.9239529322695
 30
0.0
 11
106.2400593267795
 21
130.9184965830632
 31
0.0
  0
LINE
  5
23A
330
E3
100
AcDbEntity
  8
0
  6
Continuous
100
AcDbLine
 10
106.2400593267795
 20
130.9184965830632
 30
0.0
 11
106.2343658542397
 21
130.9130402338569
 31
0.0
  0
LINE
  5
23B
330
E3
100
AcDbEntity
  8
0
  6
Continuous
100
AcDbLine
 10
106.2343658542397
 20
130.9130402338569
 30
0.0
 11
106.2249252501925
 21
130.9075823535301
 31
0.0
  0
LINE
  5
23C
330
E3
100
AcDbEntity
  8
0
  6
Continuous
100
AcDbLine
 10
106.2249252501925
 20
130.9075823535301
 30
0.0
 11
106.2118078905342
 21
130.9021282174697
 31
0.0
  0
LINE
  5
23D
330
E3
100
AcDbEntity
  8
0
  6
Continuous
100
AcDbLine
 10
106.2118078905342
 20
130.9021282174697
 30
0.0
 11
106.1951170069185
 21
130.8966704717891
 31
0.0
  0
LINE
  5
23E
330
E3
100
AcDbEntity
  8
0
  6
Continuous
100
AcDbLine
 10
106.1951170069185
 20
130.8966704717891
 30
0.0
 11
106.1749753264307
 21
130.8912163357287
 31
0.0
  0
LINE
  5
23F
330
E3
100
AcDbEntity
  8
0
  6
Continuous
100
AcDbLine
 10
106.1749753264307
 20
130.8912163357287
 30
0.0
 11
106.1515380627375
 21
130.8857585900481
 31
0.0
  0
LINE
  5
240
330
E3
100
AcDbEntity
  8
0
  6
Continuous
100
AcDbLine
 10
106.1515380627375
 20
130.8857585900481
 30
0.0
 11
106.1249856968471
 21
130.8803008443675
 31
0.0
  0
LINE
  5
241
330
E3
100
AcDbEntity
  8
0
  6
Continuous
100
AcDbLine
 10
106.1249856968471
 20
130.8803008443675
 30
0.0
 11
106.0955167578681
 21
130.8748467083071
 31
0.0
  0
LINE
  5
242
330
E3
100
AcDbEntity
  8
0
  6
Continuous
100
AcDbLine
 10
106.0955167578681
 20
130.8748467083071
 30
0.0
 11
106.0633550422504
 21
130.8693889626266
 31
0.0
  0
LINE
  5
243
330
E3
100
AcDbEntity
  8
0
  6
Continuous
100
AcDbLine
 10
106.0633550422504
 20
130.8693889626266
 30
0.0
 11
106.0287496137849
 21
130.8639348265661
 31
0.0
  0
LINE
  5
244
330
E3
100
AcDbEntity
  8
0
  6
Continuous
100
AcDbLine
 10
106.0287496137849
 20
130.8639348265661
 30
0.0
 11
105.9919603651232
 21
130.8584770808855
 31
0.0
  0
LINE
  5
245
330
E3
100
AcDbEntity
  8
0
  6
Continuous
100
AcDbLine
 10
105.9919603651232
 20
130.8584770808855
 30
0.0
 11
105.9532724562579
 21
130.8530193352049
 31
0.0
  0
LINE
  5
246
330
E3
100
AcDbEntity
  8
0
  6
Continuous
100
AcDbLine
 10
105.9532724562579
 20
130.8530193352049
 30
0.0
 11
105.9129710471813
 21
130.8475651991445
 31
0.0
  0
LINE
  5
247
330
E3
100
AcDbEntity
  8
0
  6
Continuous
100
AcDbLine
 10
105.9129710471813
 20
130.8475651991445
 30
0.0
 11
105.8713701748476
 21
130.842107453464
 31
0.0
  0
LINE
  5
248
330
E3
100
AcDbEntity
  8
0
  6
Continuous
100
AcDbLine
 10
105.8713701748476
 20
130.842107453464
 30
0.0
 11
105.8287874858305
 21
130.8366497077834
 31
0.0
  0
LINE
  5
249
330
E3
100
AcDbEntity
  8
0
  6
Continuous
100
AcDbLine
 10
105.8287874858305
 20
130.8366497077834
 30
0.0
 11
105.7855406267041
 21
130.831195571723
 31
0.0
  0
LINE
  5
24A
330
E3
100
AcDbEntity
  8
0
  6
Continuous
100
AcDbLine
 10
105.7855406267041
 20
130.831195571723
 30
0.0
 11
105.7419616825232
 21
130.8257378260424
 31
0.0
  0
LINE
  5
24B
330
E3
100
AcDbEntity
  8
0
  6
Continuous
100
AcDbLine
 10
105.7419616825232
 20
130.8257378260424
 30
0.0
 11
105.6983827383422
 21
130.8202836899819
 31
0.0
  0
LINE
  5
24C
330
E3
100
AcDbEntity
  8
0
  6
Continuous
100
AcDbLine
 10
105.6983827383422
 20
130.8202836899819
 30
0.0
 11
105.655139488836
 21
130.8148259443014
 31
0.0
  0
LINE
  5
24D
330
E3
100
AcDbEntity
  8
0
  6
Continuous
100
AcDbLine
 10
105.655139488836
 20
130.8148259443014
 30
0.0
 11
105.6125531901988
 21
130.8093681986208
 31
0.0
  0
LINE
  5
24E
330
E3
100
AcDbEntity
  8
0
  6
Continuous
100
AcDbLine
 10
105.6125531901988
 20
130.8093681986208
 30
0.0
 11
105.570952317865
 21
130.8039140625604
 31
0.0
  0
LINE
  5
24F
330
E3
100
AcDbEntity
  8
0
  6
Continuous
100
AcDbLine
 10
105.570952317865
 20
130.8039140625604
 30
0.0
 11
105.5306545184086
 21
130.7984563168798
 31
0.0
  0
LINE
  5
250
330
E3
100
AcDbEntity
  8
0
  6
Continuous
100
AcDbLine
 10
105.5306545184086
 20
130.7984563168798
 30
0.0
 11
105.4919629999231
 21
130.7930021808193
 31
0.0
  0
LINE
  5
251
330
E3
100
AcDbEntity
  8
0
  6
Continuous
100
AcDbLine
 10
105.4919629999231
 20
130.7930021808193
 30
0.0
 11
105.4551737512614
 21
130.7875444351388
 31
0.0
  0
LINE
  5
252
330
E3
100
AcDbEntity
  8
0
  6
Continuous
100
AcDbLine
 10
105.4551737512614
 20
130.7875444351388
 30
0.0
 11
105.420568322796
 21
130.7820866894582
 31
0.0
  0
LINE
  5
253
330
E3
100
AcDbEntity
  8
0
  6
Continuous
100
AcDbLine
 10
105.420568322796
 20
130.7820866894582
 30
0.0
 11
105.3884102167984
 21
130.7766325533978
 31
0.0
  0
LINE
  5
254
330
E3
100
AcDbEntity
  8
0
  6
Continuous
100
AcDbLine
 10
105.3884102167984
 20
130.7766325533978
 30
0.0
 11
105.3589412778194
 21
130.7711748077172
 31
0.0
  0
LINE
  5
255
330
E3
100
AcDbEntity
  8
0
  6
Continuous
100
AcDbLine
 10
105.3589412778194
 20
130.7711748077172
 30
0.0
 11
105.3323853023088
 21
130.7657170620366
 31
0.0
  0
LINE
  5
256
330
E3
100
AcDbEntity
  8
0
  6
Continuous
100
AcDbLine
 10
105.3323853023088
 20
130.7657170620366
 30
0.0
 11
105.3089480386157
 21
130.7602629259762
 31
0.0
  0
LINE
  5
257
330
E3
100
AcDbEntity
  8
0
  6
Continuous
100
AcDbLine
 10
105.3089480386157
 20
130.7602629259762
 30
0.0
 11
105.2888063581278
 21
130.7548051802956
 31
0.0
  0
LINE
  5
258
330
E3
100
AcDbEntity
  8
0
  6
Continuous
100
AcDbLine
 10
105.2888063581278
 20
130.7548051802956
 30
0.0
 11
105.2721154745121
 21
130.7493510442352
 31
0.0
  0
LINE
  5
259
330
E3
100
AcDbEntity
  8
0
  6
Continuous
100
AcDbLine
 10
105.2721154745121
 20
130.7493510442352
 30
0.0
 11
105.2589981148539
 21
130.7438932985546
 31
0.0
  0
LINE
  5
25A
330
E3
100
AcDbEntity
  8
0
  6
Continuous
100
AcDbLine
 10
105.2589981148539
 20
130.7438932985546
 30
0.0
 11
105.2495589581378
 21
130.7384355528741
 31
0.0
  0
LINE
  5
25B
330
E3
100
AcDbEntity
  8
0
  6
Continuous
100
AcDbLine
 10
105.2495589581378
 20
130.7384355528741
 30
0.0
 11
105.2438646286877
 21
130.7329807100473
 31
0.0
  0
LINE
  5
25C
330
E3
100
AcDbEntity
  8
0
  6
Continuous
100
AcDbLine
 10
105.2438646286877
 20
130.7329807100473
 30
0.0
 11
105.2419619777336
 21
130.727524360841
 31
0.0
  0
LINE
  5
25D
330
E3
100
AcDbEntity
  8
0
  6
Continuous
100
AcDbLine
 10
106.2419619777336
 20
130.5310957894124
 30
0.0
 11
106.2400593267795
 21
130.5256394402061
 31
0.0
  0
LINE
  5
25E
330
E3
100
AcDbEntity
  8
0
  6
Continuous
100
AcDbLine
 10
106.2400593267795
 20
130.5256394402061
 30
0.0
 11
106.2343658542397
 21
130.5201830909997
 31
0.0
  0
LINE
  5
25F
330
E3
100
AcDbEntity
  8
0
  6
Continuous
100
AcDbLine
 10
106.2343658542397
 20
130.5201830909997
 30
0.0
 11
106.2249252501925
 21
130.5147257338928
 31
0.0
  0
LINE
  5
260
330
E3
100
AcDbEntity
  8
0
  6
Continuous
100
AcDbLine
 10
106.2249252501925
 20
130.5147257338928
 30
0.0
 11
106.2118078905342
 21
130.5092715978324
 31
0.0
  0
LINE
  5
261
330
E3
100
AcDbEntity
  8
0
  6
Continuous
100
AcDbLine
 10
106.2118078905342
 20
130.5092715978324
 30
0.0
 11
106.1951170069185
 21
130.5038138521518
 31
0.0
  0
LINE
  5
262
330
E3
100
AcDbEntity
  8
0
  6
Continuous
100
AcDbLine
 10
106.1951170069185
 20
130.5038138521518
 30
0.0
 11
106.1749753264307
 21
130.4983561064712
 31
0.0
  0
LINE
  5
263
330
E3
100
AcDbEntity
  8
0
  6
Continuous
100
AcDbLine
 10
106.1749753264307
 20
130.4983561064712
 30
0.0
 11
106.1515380627375
 21
130.4929019704108
 31
0.0
  0
LINE
  5
264
330
E3
100
AcDbEntity
  8
0
  6
Continuous
100
AcDbLine
 10
106.1515380627375
 20
130.4929019704108
 30
0.0
 11
106.1249856968471
 21
130.4874442247302
 31
0.0
  0
LINE
  5
265
330
E3
100
AcDbEntity
  8
0
  6
Continuous
100
AcDbLine
 10
106.1249856968471
 20
130.4874442247302
 30
0.0
 11
106.0955167578681
 21
130.4819900886698
 31
0.0
  0
LINE
  5
266
330
E3
100
AcDbEntity
  8
0
  6
Continuous
100
AcDbLine
 10
106.0955167578681
 20
130.4819900886698
 30
0.0
 11
106.0633550422504
 21
130.4765323429892
 31
0.0
  0
LINE
  5
267
330
E3
100
AcDbEntity
  8
0
  6
Continuous
100
AcDbLine
 10
106.0633550422504
 20
130.4765323429892
 30
0.0
 11
106.0287496137849
 21
130.4710745973086
 31
0.0
  0
LINE
  5
268
330
E3
100
AcDbEntity
  8
0
  6
Continuous
100
AcDbLine
 10
106.0287496137849
 20
130.4710745973086
 30
0.0
 11
105.9919603651232
 21
130.4656204612482
 31
0.0
  0
LINE
  5
269
330
E3
100
AcDbEntity
  8
0
  6
Continuous
100
AcDbLine
 10
105.9919603651232
 20
130.4656204612482
 30
0.0
 11
105.9532724562579
 21
130.4601627155676
 31
0.0
  0
LINE
  5
26A
330
E3
100
AcDbEntity
  8
0
  6
Continuous
100
AcDbLine
 10
105.9532724562579
 20
130.4601627155676
 30
0.0
 11
105.9129710471813
 21
130.4547085795072
 31
0.0
  0
LINE
  5
26B
330
E3
100
AcDbEntity
  8
0
  6
Continuous
100
AcDbLine
 10
105.9129710471813
 20
130.4547085795072
 30
0.0
 11
105.8713701748476
 21
130.4492508338266
 31
0.0
  0
LINE
  5
26C
330
E3
100
AcDbEntity
  8
0
  6
Continuous
100
AcDbLine
 10
105.8713701748476
 20
130.4492508338266
 30
0.0
 11
105.8287874858305
 21
130.443793088146
 31
0.0
  0
LINE
  5
26D
330
E3
100
AcDbEntity
  8
0
  6
Continuous
100
AcDbLine
 10
105.8287874858305
 20
130.443793088146
 30
0.0
 11
105.7855406267041
 21
130.4383389520856
 31
0.0
  0
LINE
  5
26E
330
E3
100
AcDbEntity
  8
0
  6
Continuous
100
AcDbLine
 10
105.7855406267041
 20
130.4383389520856
 30
0.0
 11
105.7419616825232
 21
130.4328812064051
 31
0.0
  0
LINE
  5
26F
330
E3
100
AcDbEntity
  8
0
  6
Continuous
100
AcDbLine
 10
105.7419616825232
 20
130.4328812064051
 30
0.0
 11
105.6983827383422
 21
130.4274234607244
 31
0.0
  0
LINE
  5
270
330
E3
100
AcDbEntity
  8
0
  6
Continuous
100
AcDbLine
 10
105.6983827383422
 20
130.4274234607244
 30
0.0
 11
105.655139488836
 21
130.421969324664
 31
0.0
  0
LINE
  5
271
330
E3
100
AcDbEntity
  8
0
  6
Continuous
100
AcDbLine
 10
105.655139488836
 20
130.421969324664
 30
0.0
 11
105.6125531901988
 21
130.4165115789835
 31
0.0
  0
LINE
  5
272
330
E3
100
AcDbEntity
  8
0
  6
Continuous
100
AcDbLine
 10
105.6125531901988
 20
130.4165115789835
 30
0.0
 11
105.570952317865
 21
130.411057442923
 31
0.0
  0
LINE
  5
273
330
E3
100
AcDbEntity
  8
0
  6
Continuous
100
AcDbLine
 10
105.570952317865
 20
130.411057442923
 30
0.0
 11
105.5306545184086
 21
130.4055996972425
 31
0.0
  0
LINE
  5
274
330
E3
100
AcDbEntity
  8
0
  6
Continuous
100
AcDbLine
 10
105.5306545184086
 20
130.4055996972425
 30
0.0
 11
105.4919629999231
 21
130.4001419515619
 31
0.0
  0
LINE
  5
275
330
E3
100
AcDbEntity
  8
0
  6
Continuous
100
AcDbLine
 10
105.4919629999231
 20
130.4001419515619
 30
0.0
 11
105.4551737512614
 21
130.3946878155014
 31
0.0
  0
LINE
  5
276
330
E3
100
AcDbEntity
  8
0
  6
Continuous
100
AcDbLine
 10
105.4551737512614
 20
130.3946878155014
 30
0.0
 11
105.420568322796
 21
130.3892300698209
 31
0.0
  0
LINE
  5
277
330
E3
100
AcDbEntity
  8
0
  6
Continuous
100
AcDbLine
 10
105.420568322796
 20
130.3892300698209
 30
0.0
 11
105.3884102167984
 21
130.3837759337604
 31
0.0
  0
LINE
  5
278
330
E3
100
AcDbEntity
  8
0
  6
Continuous
100
AcDbLine
 10
105.3884102167984
 20
130.3837759337604
 30
0.0
 11
105.3589412778194
 21
130.3783181880799
 31
0.0
  0
LINE
  5
279
330
E3
100
AcDbEntity
  8
0
  6
Continuous
100
AcDbLine
 10
105.3589412778194
 20
130.3783181880799
 30
0.0
 11
105.3323853023088
 21
130.3728604423993
 31
0.0
  0
LINE
  5
27A
330
E3
100
AcDbEntity
  8
0
  6
Continuous
100
AcDbLine
 10
105.3323853023088
 20
130.3728604423993
 30
0.0
 11
105.3089480386157
 21
130.3674063063389
 31
0.0
  0
LINE
  5
27B
330
E3
100
AcDbEntity
  8
0
  6
Continuous
100
AcDbLine
 10
105.3089480386157
 20
130.3674063063389
 30
0.0
 11
105.2888063581278
 21
130.3619485606583
 31
0.0
  0
LINE
  5
27C
330
E3
100
AcDbEntity
  8
0
  6
Continuous
100
AcDbLine
 10
105.2888063581278
 20
130.3619485606583
 30
0.0
 11
105.2721154745121
 21
130.3564908149777
 31
0.0
  0
LINE
  5
27D
330
E3
100
AcDbEntity
  8
0
  6
Continuous
100
AcDbLine
 10
105.2721154745121
 20
130.3564908149777
 30
0.0
 11
105.2589981148539
 21
130.3510366789173
 31
0.0
  0
LINE
  5
27E
330
E3
100
AcDbEntity
  8
0
  6
Continuous
100
AcDbLine
 10
105.2589981148539
 20
130.3510366789173
 30
0.0
 11
105.2495589581378
 21
130.3455789332367
 31
0.0
  0
LINE
  5
27F
330
E3
100
AcDbEntity
  8
0
  6
Continuous
100
AcDbLine
 10
105.2495589581378
 20
130.3455789332367
 30
0.0
 11
105.2438646286877
 21
130.3401235671902
 31
0.0
  0
LINE
  5
280
330
E3
100
AcDbEntity
  8
0
  6
Continuous
100
AcDbLine
 10
105.2438646286877
 20
130.3401235671902
 30
0.0
 11
105.2419619777336
 21
130.3346672179838
 31
0.0
  0
LINE
  5
281
330
E3
100
AcDbEntity
  8
0
  6
Continuous
100
AcDbLine
 10
106.2419619777336
 20
130.1382386465553
 30
0.0
 11
106.2400593267795
 21
130.1327822973489
 31
0.0
  0
LINE
  5
282
330
E3
100
AcDbEntity
  8
0
  6
Continuous
100
AcDbLine
 10
106.2400593267795
 20
130.1327822973489
 30
0.0
 11
106.2343658542397
 21
130.1273259481426
 31
0.0
  0
LINE
  5
283
330
E3
100
AcDbEntity
  8
0
  6
Continuous
100
AcDbLine
 10
106.2343658542397
 20
130.1273259481426
 30
0.0
 11
106.2249252501925
 21
130.1218691142554
 31
0.0
  0
LINE
  5
284
330
E3
100
AcDbEntity
  8
0
  6
Continuous
100
AcDbLine
 10
106.2249252501925
 20
130.1218691142554
 30
0.0
 11
106.2118078905342
 21
130.1164149781951
 31
0.0
  0
LINE
  5
285
330
E3
100
AcDbEntity
  8
0
  6
Continuous
100
AcDbLine
 10
106.2118078905342
 20
130.1164149781951
 30
0.0
 11
106.1951170069185
 21
130.1109572325145
 31
0.0
  0
LINE
  5
286
330
E3
100
AcDbEntity
  8
0
  6
Continuous
100
AcDbLine
 10
106.1951170069185
 20
130.1109572325145
 30
0.0
 11
106.1749753264307
 21
130.1054994868339
 31
0.0
  0
LINE
  5
287
330
E3
100
AcDbEntity
  8
0
  6
Continuous
100
AcDbLine
 10
106.1749753264307
 20
130.1054994868339
 30
0.0
 11
106.1515380627375
 21
130.1000453507735
 31
0.0
  0
LINE
  5
288
330
E3
100
AcDbEntity
  8
0
  6
Continuous
100
AcDbLine
 10
106.1515380627375
 20
130.1000453507735
 30
0.0
 11
106.1249856968471
 21
130.0945876050929
 31
0.0
  0
LINE
  5
289
330
E3
100
AcDbEntity
  8
0
  6
Continuous
100
AcDbLine
 10
106.1249856968471
 20
130.0945876050929
 30
0.0
 11
106.0955167578681
 21
130.0891298594123
 31
0.0
  0
LINE
  5
28A
330
E3
100
AcDbEntity
  8
0
  6
Continuous
100
AcDbLine
 10
106.0955167578681
 20
130.0891298594123
 30
0.0
 11
106.0633550422504
 21
130.0836757233519
 31
0.0
  0
LINE
  5
28B
330
E3
100
AcDbEntity
  8
0
  6
Continuous
100
AcDbLine
 10
106.0633550422504
 20
130.0836757233519
 30
0.0
 11
106.0287496137849
 21
130.0782179776713
 31
0.0
  0
LINE
  5
28C
330
E3
100
AcDbEntity
  8
0
  6
Continuous
100
AcDbLine
 10
106.0287496137849
 20
130.0782179776713
 30
0.0
 11
105.9919603651232
 21
130.0727638416109
 31
0.0
  0
LINE
  5
28D
330
E3
100
AcDbEntity
  8
0
  6
Continuous
100
AcDbLine
 10
105.9919603651232
 20
130.0727638416109
 30
0.0
 11
105.9532724562579
 21
130.0673060959303
 31
0.0
  0
LINE
  5
28E
330
E3
100
AcDbEntity
  8
0
  6
Continuous
100
AcDbLine
 10
105.9532724562579
 20
130.0673060959303
 30
0.0
 11
105.9129710471813
 21
130.0618483502497
 31
0.0
  0
LINE
  5
28F
330
E3
100
AcDbEntity
  8
0
  6
Continuous
100
AcDbLine
 10
105.9129710471813
 20
130.0618483502497
 30
0.0
 11
105.8713701748476
 21
130.0563942141893
 31
0.0
  0
LINE
  5
290
330
E3
100
AcDbEntity
  8
0
  6
Continuous
100
AcDbLine
 10
105.8713701748476
 20
130.0563942141893
 30
0.0
 11
105.8287874858305
 21
130.0509364685087
 31
0.0
  0
LINE
  5
291
330
E3
100
AcDbEntity
  8
0
  6
Continuous
100
AcDbLine
 10
105.8287874858305
 20
130.0509364685087
 30
0.0
 11
105.7855406267041
 21
130.0454823324483
 31
0.0
  0
LINE
  5
292
330
E3
100
AcDbEntity
  8
0
  6
Continuous
100
AcDbLine
 10
105.7855406267041
 20
130.0454823324483
 30
0.0
 11
105.7419616825232
 21
130.0400245867677
 31
0.0
  0
LINE
  5
293
330
E3
100
AcDbEntity
  8
0
  6
Continuous
100
AcDbLine
 10
105.7419616825232
 20
130.0400245867677
 30
0.0
 11
105.6983827383422
 21
130.0345668410871
 31
0.0
  0
LINE
  5
294
330
E3
100
AcDbEntity
  8
0
  6
Continuous
100
AcDbLine
 10
105.6983827383422
 20
130.0345668410871
 30
0.0
 11
105.655139488836
 21
130.0291127050267
 31
0.0
  0
LINE
  5
295
330
E3
100
AcDbEntity
  8
0
  6
Continuous
100
AcDbLine
 10
105.655139488836
 20
130.0291127050267
 30
0.0
 11
105.6125531901988
 21
130.0236549593461
 31
0.0
  0
LINE
  5
296
330
E3
100
AcDbEntity
  8
0
  6
Continuous
100
AcDbLine
 10
105.6125531901988
 20
130.0236549593461
 30
0.0
 11
105.570952317865
 21
130.0181972136655
 31
0.0
  0
LINE
  5
297
330
E3
100
AcDbEntity
  8
0
  6
Continuous
100
AcDbLine
 10
105.570952317865
 20
130.0181972136655
 30
0.0
 11
105.5306545184086
 21
130.0127430776051
 31
0.0
  0
LINE
  5
298
330
E3
100
AcDbEntity
  8
0
  6
Continuous
100
AcDbLine
 10
105.5306545184086
 20
130.0127430776051
 30
0.0
 11
105.4919629999231
 21
130.0072853319245
 31
0.0
  0
LINE
  5
299
330
E3
100
AcDbEntity
  8
0
  6
Continuous
100
AcDbLine
 10
105.4919629999231
 20
130.0072853319245
 30
0.0
 11
105.4551737512614
 21
130.0018311958641
 31
0.0
  0
LINE
  5
29A
330
E3
100
AcDbEntity
  8
0
  6
Continuous
100
AcDbLine
 10
105.4551737512614
 20
130.0018311958641
 30
0.0
 11
105.420568322796
 21
129.9963734501836
 31
0.0
  0
LINE
  5
29B
330
E3
100
AcDbEntity
  8
0
  6
Continuous
100
AcDbLine
 10
105.420568322796
 20
129.9963734501836
 30
0.0
 11
105.3884102167984
 21
129.990915704503
 31
0.0
  0
LINE
  5
29C
330
E3
100
AcDbEntity
  8
0
  6
Continuous
100
AcDbLine
 10
105.3884102167984
 20
129.990915704503
 30
0.0
 11
105.3589412778194
 21
129.9854615684425
 31
0.0
  0
LINE
  5
29D
330
E3
100
AcDbEntity
  8
0
  6
Continuous
100
AcDbLine
 10
105.3589412778194
 20
129.9854615684425
 30
0.0
 11
105.3323853023088
 21
129.980003822762
 31
0.0
  0
LINE
  5
29E
330
E3
100
AcDbEntity
  8
0
  6
Continuous
100
AcDbLine
 10
105.3323853023088
 20
129.980003822762
 30
0.0
 11
105.3089480386157
 21
129.9745496867015
 31
0.0
  0
LINE
  5
29F
330
E3
100
AcDbEntity
  8
0
  6
Continuous
100
AcDbLine
 10
105.3089480386157
 20
129.9745496867015
 30
0.0
 11
105.2888063581278
 21
129.969091941021
 31
0.0
  0
LINE
  5
2A0
330
E3
100
AcDbEntity
  8
0
  6
Continuous
100
AcDbLine
 10
105.2888063581278
 20
129.969091941021
 30
0.0
 11
105.2721154745121
 21
129.9636341953404
 31
0.0
  0
LINE
  5
2A1
330
E3
100
AcDbEntity
  8
0
  6
Continuous
100
AcDbLine
 10
105.2721154745121
 20
129.9636341953404
 30
0.0
 11
105.2589981148539
 21
129.95818005928
 31
0.0
  0
LINE
  5
2A2
330
E3
100
AcDbEntity
  8
0
  6
Continuous
100
AcDbLine
 10
105.2589981148539
 20
129.95818005928
 30
0.0
 11
105.2495589581378
 21
129.9527223135994
 31
0.0
  0
LINE
  5
2A3
330
E3
100
AcDbEntity
  8
0
  6
Continuous
100
AcDbLine
 10
105.2495589581378
 20
129.9527223135994
 30
0.0
 11
105.2438646286877
 21
129.947266424333
 31
0.0
  0
LINE
  5
2A4
330
E3
100
AcDbEntity
  8
0
  6
Continuous
100
AcDbLine
 10
105.2438646286877
 20
129.947266424333
 30
0.0
 11
105.2419619777336
 21
129.9418100751267
 31
0.0
  0
LINE
  5
2A5
330
E3
100
AcDbEntity
  8
0
  6
Continuous
100
AcDbLine
 10
106.2419619777336
 20
129.7453815036981
 30
0.0
 11
106.2400593267795
 21
129.7399251544918
 31
0.0
  0
LINE
  5
2A6
330
E3
100
AcDbEntity
  8
0
  6
Continuous
100
AcDbLine
 10
106.2400593267795
 20
129.7399251544918
 30
0.0
 11
106.2343658542397
 21
129.7344688052854
 31
0.0
  0
LINE
  5
2A7
330
E3
100
AcDbEntity
  8
0
  6
Continuous
100
AcDbLine
 10
106.2343658542397
 20
129.7344688052854
 30
0.0
 11
106.2249252501925
 21
129.7290124946181
 31
0.0
  0
LINE
  5
2A8
330
E3
100
AcDbEntity
  8
0
  6
Continuous
100
AcDbLine
 10
106.2249252501925
 20
129.7290124946181
 30
0.0
 11
106.2118078905342
 21
129.7235547489375
 31
0.0
  0
LINE
  5
2A9
330
E3
100
AcDbEntity
  8
0
  6
Continuous
100
AcDbLine
 10
106.2118078905342
 20
129.7235547489375
 30
0.0
 11
106.1951170069185
 21
129.7181006128772
 31
0.0
  0
LINE
  5
2AA
330
E3
100
AcDbEntity
  8
0
  6
Continuous
100
AcDbLine
 10
106.1951170069185
 20
129.7181006128772
 30
0.0
 11
106.1749753264307
 21
129.7126428671965
 31
0.0
  0
LINE
  5
2AB
330
E3
100
AcDbEntity
  8
0
  6
Continuous
100
AcDbLine
 10
106.1749753264307
 20
129.7126428671965
 30
0.0
 11
106.1515380627375
 21
129.7071887311361
 31
0.0
  0
LINE
  5
2AC
330
E3
100
AcDbEntity
  8
0
  6
Continuous
100
AcDbLine
 10
106.1515380627375
 20
129.7071887311361
 30
0.0
 11
106.1249856968471
 21
129.7017309854556
 31
0.0
  0
LINE
  5
2AD
330
E3
100
AcDbEntity
  8
0
  6
Continuous
100
AcDbLine
 10
106.1249856968471
 20
129.7017309854556
 30
0.0
 11
106.0955167578681
 21
129.6962732397749
 31
0.0
  0
LINE
  5
2AE
330
E3
100
AcDbEntity
  8
0
  6
Continuous
100
AcDbLine
 10
106.0955167578681
 20
129.6962732397749
 30
0.0
 11
106.0633550422504
 21
129.6908191037145
 31
0.0
  0
LINE
  5
2AF
330
E3
100
AcDbEntity
  8
0
  6
Continuous
100
AcDbLine
 10
106.0633550422504
 20
129.6908191037145
 30
0.0
 11
106.0287496137849
 21
129.685361358034
 31
0.0
  0
LINE
  5
2B0
330
E3
100
AcDbEntity
  8
0
  6
Continuous
100
AcDbLine
 10
106.0287496137849
 20
129.685361358034
 30
0.0
 11
105.9919603651232
 21
129.6799036123534
 31
0.0
  0
LINE
  5
2B1
330
E3
100
AcDbEntity
  8
0
  6
Continuous
100
AcDbLine
 10
105.9919603651232
 20
129.6799036123534
 30
0.0
 11
105.9532724562579
 21
129.674449476293
 31
0.0
  0
LINE
  5
2B2
330
E3
100
AcDbEntity
  8
0
  6
Continuous
100
AcDbLine
 10
105.9532724562579
 20
129.674449476293
 30
0.0
 11
105.9129710471813
 21
129.6689917306124
 31
0.0
  0
LINE
  5
2B3
330
E3
100
AcDbEntity
  8
0
  6
Continuous
100
AcDbLine
 10
105.9129710471813
 20
129.6689917306124
 30
0.0
 11
105.8713701748476
 21
129.663537594552
 31
0.0
  0
LINE
  5
2B4
330
E3
100
AcDbEntity
  8
0
  6
Continuous
100
AcDbLine
 10
105.8713701748476
 20
129.663537594552
 30
0.0
 11
105.8287874858305
 21
129.6580798488714
 31
0.0
  0
LINE
  5
2B5
330
E3
100
AcDbEntity
  8
0
  6
Continuous
100
AcDbLine
 10
105.8287874858305
 20
129.6580798488714
 30
0.0
 11
105.7855406267041
 21
129.6526221031908
 31
0.0
  0
LINE
  5
2B6
330
E3
100
AcDbEntity
  8
0
  6
Continuous
100
AcDbLine
 10
105.7855406267041
 20
129.6526221031908
 30
0.0
 11
105.7419616825232
 21
129.6471679671304
 31
0.0
  0
LINE
  5
2B7
330
E3
100
AcDbEntity
  8
0
  6
Continuous
100
AcDbLine
 10
105.7419616825232
 20
129.6471679671304
 30
0.0
 11
105.6983827383422
 21
129.6417102214498
 31
0.0
  0
LINE
  5
2B8
330
E3
100
AcDbEntity
  8
0
  6
Continuous
100
AcDbLine
 10
105.6983827383422
 20
129.6417102214498
 30
0.0
 11
105.655139488836
 21
129.6362560853894
 31
0.0
  0
LINE
  5
2B9
330
E3
100
AcDbEntity
  8
0
  6
Continuous
100
AcDbLine
 10
105.655139488836
 20
129.6362560853894
 30
0.0
 11
105.6125531901988
 21
129.6307983397088
 31
0.0
  0
LINE
  5
2BA
330
E3
100
AcDbEntity
  8
0
  6
Continuous
100
AcDbLine
 10
105.6125531901988
 20
129.6307983397088
 30
0.0
 11
105.570952317865
 21
129.6253405940282
 31
0.0
  0
LINE
  5
2BB
330
E3
100
AcDbEntity
  8
0
  6
Continuous
100
AcDbLine
 10
105.570952317865
 20
129.6253405940282
 30
0.0
 11
105.5306545184086
 21
129.6198864579678
 31
0.0
  0
LINE
  5
2BC
330
E3
100
AcDbEntity
  8
0
  6
Continuous
100
AcDbLine
 10
105.5306545184086
 20
129.6198864579678
 30
0.0
 11
105.4919629999231
 21
129.6144287122872
 31
0.0
  0
LINE
  5
2BD
330
E3
100
AcDbEntity
  8
0
  6
Continuous
100
AcDbLine
 10
105.4919629999231
 20
129.6144287122872
 30
0.0
 11
105.4551737512614
 21
129.6089745762268
 31
0.0
  0
LINE
  5
2BE
330
E3
100
AcDbEntity
  8
0
  6
Continuous
100
AcDbLine
 10
105.4551737512614
 20
129.6089745762268
 30
0.0
 11
105.420568322796
 21
129.6035168305462
 31
0.0
  0
LINE
  5
2BF
330
E3
100
AcDbEntity
  8
0
  6
Continuous
100
AcDbLine
 10
105.420568322796
 20
129.6035168305462
 30
0.0
 11
105.3884102167984
 21
129.5980590848656
 31
0.0
  0
LINE
  5
2C0
330
E3
100
AcDbEntity
  8
0
  6
Continuous
100
AcDbLine
 10
105.3884102167984
 20
129.5980590848656
 30
0.0
 11
105.3589412778194
 21
129.5926049488052
 31
0.0
  0
LINE
  5
2C1
330
E3
100
AcDbEntity
  8
0
  6
Continuous
100
AcDbLine
 10
105.3589412778194
 20
129.5926049488052
 30
0.0
 11
105.3323853023088
 21
129.5871472031246
 31
0.0
  0
LINE
  5
2C2
330
E3
100
AcDbEntity
  8
0
  6
Continuous
100
AcDbLine
 10
105.3323853023088
 20
129.5871472031246
 30
0.0
 11
105.3089480386157
 21
129.581689457444
 31
0.0
  0
LINE
  5
2C3
330
E3
100
AcDbEntity
  8
0
  6
Continuous
100
AcDbLine
 10
105.3089480386157
 20
129.581689457444
 30
0.0
 11
105.2888063581278
 21
129.5762353213836
 31
0.0
  0
LINE
  5
2C4
330
E3
100
AcDbEntity
  8
0
  6
Continuous
100
AcDbLine
 10
105.2888063581278
 20
129.5762353213836
 30
0.0
 11
105.2721154745121
 21
129.5707775757031
 31
0.0
  0
LINE
  5
2C5
330
E3
100
AcDbEntity
  8
0
  6
Continuous
100
AcDbLine
 10
105.2721154745121
 20
129.5707775757031
 30
0.0
 11
105.2589981148539
 21
129.5653234396426
 31
0.0
  0
LINE
  5
2C6
330
E3
100
AcDbEntity
  8
0
  6
Continuous
100
AcDbLine
 10
105.2589981148539
 20
129.5653234396426
 30
0.0
 11
105.2495589581378
 21
129.5598656939621
 31
0.0
  0
LINE
  5
2C7
330
E3
100
AcDbEntity
  8
0
  6
Continuous
100
AcDbLine
 10
105.2495589581378
 20
129.5598656939621
 30
0.0
 11
105.2438646286877
 21
129.5544092814759
 31
0.0
  0
LINE
  5
2C8
330
E3
100
AcDbEntity
  8
0
  6
Continuous
100
AcDbLine
 10
105.2438646286877
 20
129.5544092814759
 30
0.0
 11
105.2419619777336
 21
129.5489529322695
 31
0.0
  0
LINE
  5
2C9
330
E3
100
AcDbEntity
  8
0
  6
Continuous
100
AcDbLine
 10
106.2419619777336
 20
129.352524360841
 30
0.0
 11
106.2400593267795
 21
129.3470680116346
 31
0.0
  0
LINE
  5
2CA
330
E3
100
AcDbEntity
  8
0
  6
Continuous
100
AcDbLine
 10
106.2400593267795
 20
129.3470680116346
 30
0.0
 11
106.2343658542397
 21
129.3416116624283
 31
0.0
  0
LINE
  5
2CB
330
E3
100
AcDbEntity
  8
0
  6
Continuous
100
AcDbLine
 10
106.2343658542397
 20
129.3416116624283
 30
0.0
 11
106.2249252501925
 21
129.3361558749808
 31
0.0
  0
LINE
  5
2CC
330
E3
100
AcDbEntity
  8
0
  6
Continuous
100
AcDbLine
 10
106.2249252501925
 20
129.3361558749808
 30
0.0
 11
106.2118078905342
 21
129.3306981293002
 31
0.0
  0
LINE
  5
2CD
330
E3
100
AcDbEntity
  8
0
  6
Continuous
100
AcDbLine
 10
106.2118078905342
 20
129.3306981293002
 30
0.0
 11
106.1951170069185
 21
129.3252439932398
 31
0.0
  0
LINE
  5
2CE
330
E3
100
AcDbEntity
  8
0
  6
Continuous
100
AcDbLine
 10
106.1951170069185
 20
129.3252439932398
 30
0.0
 11
106.1749753264307
 21
129.3197862475592
 31
0.0
  0
LINE
  5
2CF
330
E3
100
AcDbEntity
  8
0
  6
Continuous
100
AcDbLine
 10
106.1749753264307
 20
129.3197862475592
 30
0.0
 11
106.1515380627375
 21
129.3143285018786
 31
0.0
  0
LINE
  5
2D0
330
E3
100
AcDbEntity
  8
0
  6
Continuous
100
AcDbLine
 10
106.1515380627375
 20
129.3143285018786
 30
0.0
 11
106.1249856968471
 21
129.3088743658182
 31
0.0
  0
LINE
  5
2D1
330
E3
100
AcDbEntity
  8
0
  6
Continuous
100
AcDbLine
 10
106.1249856968471
 20
129.3088743658182
 30
0.0
 11
106.0955167578681
 21
129.3034166201376
 31
0.0
  0
LINE
  5
2D2
330
E3
100
AcDbEntity
  8
0
  6
Continuous
100
AcDbLine
 10
106.0955167578681
 20
129.3034166201376
 30
0.0
 11
106.0633550422504
 21
129.2979624840772
 31
0.0
  0
LINE
  5
2D3
330
E3
100
AcDbEntity
  8
0
  6
Continuous
100
AcDbLine
 10
106.0633550422504
 20
129.2979624840772
 30
0.0
 11
106.0287496137849
 21
129.2925047383966
 31
0.0
  0
LINE
  5
2D4
330
E3
100
AcDbEntity
  8
0
  6
Continuous
100
AcDbLine
 10
106.0287496137849
 20
129.2925047383966
 30
0.0
 11
105.9919603651232
 21
129.287046992716
 31
0.0
  0
LINE
  5
2D5
330
E3
100
AcDbEntity
  8
0
  6
Continuous
100
AcDbLine
 10
105.9919603651232
 20
129.287046992716
 30
0.0
 11
105.9532724562579
 21
129.2815928566556
 31
0.0
  0
LINE
  5
2D6
330
E3
100
AcDbEntity
  8
0
  6
Continuous
100
AcDbLine
 10
105.9532724562579
 20
129.2815928566556
 30
0.0
 11
105.9129710471813
 21
129.276135110975
 31
0.0
  0
LINE
  5
2D7
330
E3
100
AcDbEntity
  8
0
  6
Continuous
100
AcDbLine
 10
105.9129710471813
 20
129.276135110975
 30
0.0
 11
105.8713701748476
 21
129.2706773652945
 31
0.0
  0
LINE
  5
2D8
330
E3
100
AcDbEntity
  8
0
  6
Continuous
100
AcDbLine
 10
105.8713701748476
 20
129.2706773652945
 30
0.0
 11
105.8287874858305
 21
129.265223229234
 31
0.0
  0
LINE
  5
2D9
330
E3
100
AcDbEntity
  8
0
  6
Continuous
100
AcDbLine
 10
105.8287874858305
 20
129.265223229234
 30
0.0
 11
105.7855406267041
 21
129.2597654835535
 31
0.0
  0
LINE
  5
2DA
330
E3
100
AcDbEntity
  8
0
  6
Continuous
100
AcDbLine
 10
105.7855406267041
 20
129.2597654835535
 30
0.0
 11
105.7419616825232
 21
129.2543113474931
 31
0.0
  0
LINE
  5
2DB
330
E3
100
AcDbEntity
  8
0
  6
Continuous
100
AcDbLine
 10
105.7419616825232
 20
129.2543113474931
 30
0.0
 11
105.6983827383422
 21
129.2488536018125
 31
0.0
  0
LINE
  5
2DC
330
E3
100
AcDbEntity
  8
0
  6
Continuous
100
AcDbLine
 10
105.6983827383422
 20
129.2488536018125
 30
0.0
 11
105.655139488836
 21
129.2433958561319
 31
0.0
  0
LINE
  5
2DD
330
E3
100
AcDbEntity
  8
0
  6
Continuous
100
AcDbLine
 10
105.655139488836
 20
129.2433958561319
 30
0.0
 11
105.6125531901988
 21
129.2379417200715
 31
0.0
  0
LINE
  5
2DE
330
E3
100
AcDbEntity
  8
0
  6
Continuous
100
AcDbLine
 10
105.6125531901988
 20
129.2379417200715
 30
0.0
 11
105.570952317865
 21
129.2324839743909
 31
0.0
  0
LINE
  5
2DF
330
E3
100
AcDbEntity
  8
0
  6
Continuous
100
AcDbLine
 10
105.570952317865
 20
129.2324839743909
 30
0.0
 11
105.5306545184086
 21
129.2270298383305
 31
0.0
  0
LINE
  5
2E0
330
E3
100
AcDbEntity
  8
0
  6
Continuous
100
AcDbLine
 10
105.5306545184086
 20
129.2270298383305
 30
0.0
 11
105.4919629999231
 21
129.2215720926499
 31
0.0
  0
LINE
  5
2E1
330
E3
100
AcDbEntity
  8
0
  6
Continuous
100
AcDbLine
 10
105.4919629999231
 20
129.2215720926499
 30
0.0
 11
105.4551737512614
 21
129.2161143469693
 31
0.0
  0
LINE
  5
2E2
330
E3
100
AcDbEntity
  8
0
  6
Continuous
100
AcDbLine
 10
105.4551737512614
 20
129.2161143469693
 30
0.0
 11
105.420568322796
 21
129.2106602109089
 31
0.0
  0
LINE
  5
2E3
330
E3
100
AcDbEntity
  8
0
  6
Continuous
100
AcDbLine
 10
105.420568322796
 20
129.2106602109089
 30
0.0
 11
105.3884102167984
 21
129.2052024652283
 31
0.0
  0
LINE
  5
2E4
330
E3
100
AcDbEntity
  8
0
  6
Continuous
100
AcDbLine
 10
105.3884102167984
 20
129.2052024652283
 30
0.0
 11
105.3589412778194
 21
129.1997483291679
 31
0.0
  0
LINE
  5
2E5
330
E3
100
AcDbEntity
  8
0
  6
Continuous
100
AcDbLine
 10
105.3589412778194
 20
129.1997483291679
 30
0.0
 11
105.3323853023088
 21
129.1942905834873
 31
0.0
  0
LINE
  5
2E6
330
E3
100
AcDbEntity
  8
0
  6
Continuous
100
AcDbLine
 10
105.3323853023088
 20
129.1942905834873
 30
0.0
 11
105.3089480386157
 21
129.1888328378067
 31
0.0
  0
LINE
  5
2E7
330
E3
100
AcDbEntity
  8
0
  6
Continuous
100
AcDbLine
 10
105.3089480386157
 20
129.1888328378067
 30
0.0
 11
105.2888063581278
 21
129.1833787017463
 31
0.0
  0
LINE
  5
2E8
330
E3
100
AcDbEntity
  8
0
  6
Continuous
100
AcDbLine
 10
105.2888063581278
 20
129.1833787017463
 30
0.0
 11
105.2721154745121
 21
129.1779209560657
 31
0.0
  0
LINE
  5
2E9
330
E3
100
AcDbEntity
  8
0
  6
Continuous
100
AcDbLine
 10
105.2721154745121
 20
129.1779209560657
 30
0.0
 11
105.2589981148539
 21
129.1724632103851
 31
0.0
  0
LINE
  5
2EA
330
E3
100
AcDbEntity
  8
0
  6
Continuous
100
AcDbLine
 10
105.2589981148539
 20
129.1724632103851
 30
0.0
 11
105.2495589581378
 21
129.1670090743247
 31
0.0
  0
LINE
  5
2EB
330
E3
100
AcDbEntity
  8
0
  6
Continuous
100
AcDbLine
 10
105.2495589581378
 20
129.1670090743247
 30
0.0
 11
105.2438646286877
 21
129.1615521386188
 31
0.0
  0
LINE
  5
2EC
330
E3
100
AcDbEntity
  8
0
  6
Continuous
100
AcDbLine
 10
105.2438646286877
 20
129.1615521386188
 30
0.0
 11
105.2419619777336
 21
129.1560957894124
 31
0.0
  0
LINE
  5
2ED
330
E3
100
AcDbEntity
  8
0
  6
Continuous
100
AcDbLine
 10
106.2419619777336
 20
128.9596672179838
 30
0.0
 11
106.2400593267795
 21
128.9542108687775
 31
0.0
  0
LINE
  5
2EE
330
E3
100
AcDbEntity
  8
0
  6
Continuous
100
AcDbLine
 10
106.2400593267795
 20
128.9542108687775
 30
0.0
 11
106.2343658542397
 21
128.9487545195712
 31
0.0
  0
LINE
  5
2EF
330
E3
100
AcDbEntity
  8
0
  6
Continuous
100
AcDbLine
 10
106.2343658542397
 20
128.9487545195712
 30
0.0
 11
106.2249252501925
 21
128.9432992553434
 31
0.0
  0
LINE
  5
2F0
330
E3
100
AcDbEntity
  8
0
  6
Continuous
100
AcDbLine
 10
106.2249252501925
 20
128.9432992553434
 30
0.0
 11
106.2118078905342
 21
128.9378415096629
 31
0.0
  0
LINE
  5
2F1
330
E3
100
AcDbEntity
  8
0
  6
Continuous
100
AcDbLine
 10
106.2118078905342
 20
128.9378415096629
 30
0.0
 11
106.1951170069185
 21
128.9323837639823
 31
0.0
  0
LINE
  5
2F2
330
E3
100
AcDbEntity
  8
0
  6
Continuous
100
AcDbLine
 10
106.1951170069185
 20
128.9323837639823
 30
0.0
 11
106.1749753264307
 21
128.9269296279219
 31
0.0
  0
LINE
  5
2F3
330
E3
100
AcDbEntity
  8
0
  6
Continuous
100
AcDbLine
 10
106.1749753264307
 20
128.9269296279219
 30
0.0
 11
106.1515380627375
 21
128.9214718822413
 31
0.0
  0
LINE
  5
2F4
330
E3
100
AcDbEntity
  8
0
  6
Continuous
100
AcDbLine
 10
106.1515380627375
 20
128.9214718822413
 30
0.0
 11
106.1249856968471
 21
128.9160177461809
 31
0.0
  0
LINE
  5
2F5
330
E3
100
AcDbEntity
  8
0
  6
Continuous
100
AcDbLine
 10
106.1249856968471
 20
128.9160177461809
 30
0.0
 11
106.0955167578681
 21
128.9105600005003
 31
0.0
  0
LINE
  5
2F6
330
E3
100
AcDbEntity
  8
0
  6
Continuous
100
AcDbLine
 10
106.0955167578681
 20
128.9105600005003
 30
0.0
 11
106.0633550422504
 21
128.9051022548197
 31
0.0
  0
LINE
  5
2F7
330
E3
100
AcDbEntity
  8
0
  6
Continuous
100
AcDbLine
 10
106.0633550422504
 20
128.9051022548197
 30
0.0
 11
106.0287496137849
 21
128.8996481187593
 31
0.0
  0
LINE
  5
2F8
330
E3
100
AcDbEntity
  8
0
  6
Continuous
100
AcDbLine
 10
106.0287496137849
 20
128.8996481187593
 30
0.0
 11
105.9919603651232
 21
128.8941903730787
 31
0.0
  0
LINE
  5
2F9
330
E3
100
AcDbEntity
  8
0
  6
Continuous
100
AcDbLine
 10
105.9919603651232
 20
128.8941903730787
 30
0.0
 11
105.9532724562579
 21
128.8887362370183
 31
0.0
  0
LINE
  5
2FA
330
E3
100
AcDbEntity
  8
0
  6
Continuous
100
AcDbLine
 10
105.9532724562579
 20
128.8887362370183
 30
0.0
 11
105.9129710471813
 21
128.8832784913377
 31
0.0
  0
LINE
  5
2FB
330
E3
100
AcDbEntity
  8
0
  6
Continuous
100
AcDbLine
 10
105.9129710471813
 20
128.8832784913377
 30
0.0
 11
105.8713701748476
 21
128.8778207456571
 31
0.0
  0
LINE
  5
2FC
330
E3
100
AcDbEntity
  8
0
  6
Continuous
100
AcDbLine
 10
105.8713701748476
 20
128.8778207456571
 30
0.0
 11
105.8287874858305
 21
128.8723666095967
 31
0.0
  0
LINE
  5
2FD
330
E3
100
AcDbEntity
  8
0
  6
Continuous
100
AcDbLine
 10
105.8287874858305
 20
128.8723666095967
 30
0.0
 11
105.7855406267041
 21
128.8669088639161
 31
0.0
  0
LINE
  5
2FE
330
E3
100
AcDbEntity
  8
0
  6
Continuous
100
AcDbLine
 10
105.7855406267041
 20
128.8669088639161
 30
0.0
 11
105.7419616825232
 21
128.8614547278557
 31
0.0
  0
LINE
  5
2FF
330
E3
100
AcDbEntity
  8
0
  6
Continuous
100
AcDbLine
 10
105.7419616825232
 20
128.8614547278557
 30
0.0
 11
105.6983827383422
 21
128.8559969821751
 31
0.0
  0
LINE
  5
300
330
E3
100
AcDbEntity
  8
0
  6
Continuous
100
AcDbLine
 10
105.6983827383422
 20
128.8559969821751
 30
0.0
 11
105.655139488836
 21
128.8505392364945
 31
0.0
  0
LINE
  5
301
330
E3
100
AcDbEntity
  8
0
  6
Continuous
100
AcDbLine
 10
105.655139488836
 20
128.8505392364945
 30
0.0
 11
105.6125531901988
 21
128.8450851004341
 31
0.0
  0
LINE
  5
302
330
E3
100
AcDbEntity
  8
0
  6
Continuous
100
AcDbLine
 10
105.6125531901988
 20
128.8450851004341
 30
0.0
 11
105.570952317865
 21
128.8396273547535
 31
0.0
  0
LINE
  5
303
330
E3
100
AcDbEntity
  8
0
  6
Continuous
100
AcDbLine
 10
105.570952317865
 20
128.8396273547535
 30
0.0
 11
105.5306545184086
 21
128.8341696090729
 31
0.0
  0
LINE
  5
304
330
E3
100
AcDbEntity
  8
0
  6
Continuous
100
AcDbLine
 10
105.5306545184086
 20
128.8341696090729
 30
0.0
 11
105.4919629999231
 21
128.8287154730126
 31
0.0
  0
LINE
  5
305
330
E3
100
AcDbEntity
  8
0
  6
Continuous
100
AcDbLine
 10
105.4919629999231
 20
128.8287154730126
 30
0.0
 11
105.4551737512614
 21
128.8232577273319
 31
0.0
  0
LINE
  5
306
330
E3
100
AcDbEntity
  8
0
  6
Continuous
100
AcDbLine
 10
105.4551737512614
 20
128.8232577273319
 30
0.0
 11
105.420568322796
 21
128.8178035912715
 31
0.0
  0
LINE
  5
307
330
E3
100
AcDbEntity
  8
0
  6
Continuous
100
AcDbLine
 10
105.420568322796
 20
128.8178035912715
 30
0.0
 11
105.3884102167984
 21
128.812345845591
 31
0.0
  0
LINE
  5
308
330
E3
100
AcDbEntity
  8
0
  6
Continuous
100
AcDbLine
 10
105.3884102167984
 20
128.812345845591
 30
0.0
 11
105.3589412778194
 21
128.8068880999104
 31
0.0
  0
LINE
  5
309
330
E3
100
AcDbEntity
  8
0
  6
Continuous
100
AcDbLine
 10
105.3589412778194
 20
128.8068880999104
 30
0.0
 11
105.3323853023088
 21
128.80143396385
 31
0.0
  0
LINE
  5
30A
330
E3
100
AcDbEntity
  8
0
  6
Continuous
100
AcDbLine
 10
105.3323853023088
 20
128.80143396385
 30
0.0
 11
105.3089480386157
 21
128.7959762181694
 31
0.0
  0
LINE
  5
30B
330
E3
100
AcDbEntity
  8
0
  6
Continuous
100
AcDbLine
 10
105.3089480386157
 20
128.7959762181694
 30
0.0
 11
105.2888063581278
 21
128.7905220821089
 31
0.0
  0
LINE
  5
30C
330
E3
100
AcDbEntity
  8
0
  6
Continuous
100
AcDbLine
 10
105.2888063581278
 20
128.7905220821089
 30
0.0
 11
105.2721154745121
 21
128.7850643364284
 31
0.0
  0
LINE
  5
30D
330
E3
100
AcDbEntity
  8
0
  6
Continuous
100
AcDbLine
 10
105.2721154745121
 20
128.7850643364284
 30
0.0
 11
105.2589981148539
 21
128.7796065907478
 31
0.0
  0
LINE
  5
30E
330
E3
100
AcDbEntity
  8
0
  6
Continuous
100
AcDbLine
 10
105.2589981148539
 20
128.7796065907478
 30
0.0
 11
105.2495589581378
 21
128.7741524546874
 31
0.0
  0
LINE
  5
30F
330
E3
100
AcDbEntity
  8
0
  6
Continuous
100
AcDbLine
 10
105.2495589581378
 20
128.7741524546874
 30
0.0
 11
105.2438646286877
 21
128.7686949957616
 31
0.0
  0
LINE
  5
310
330
E3
100
AcDbEntity
  8
0
  6
Continuous
100
AcDbLine
 10
105.2438646286877
 20
128.7686949957616
 30
0.0
 11
105.2419619777336
 21
128.7632386465553
 31
0.0
  0
LINE
  5
311
330
E3
100
AcDbEntity
  8
0
  6
Continuous
100
AcDbLine
 10
106.2419619777336
 20
128.5668100751267
 30
0.0
 11
106.2400593267795
 21
128.5613537259204
 31
0.0
  0
LINE
  5
312
330
E3
100
AcDbEntity
  8
0
  6
Continuous
100
AcDbLine
 10
106.2400593267795
 20
128.5613537259204
 30
0.0
 11
106.2343658542397
 21
128.555897376714
 31
0.0
  0
LINE
  5
313
330
E3
100
AcDbEntity
  8
0
  6
Continuous
100
AcDbLine
 10
106.2343658542397
 20
128.555897376714
 30
0.0
 11
106.2249252501925
 21
128.5504426357061
 31
0.0
  0
LINE
  5
314
330
E3
100
AcDbEntity
  8
0
  6
Continuous
100
AcDbLine
 10
106.2249252501925
 20
128.5504426357061
 30
0.0
 11
106.2118078905342
 21
128.5449848900255
 31
0.0
  0
LINE
  5
315
330
E3
100
AcDbEntity
  8
0
  6
Continuous
100
AcDbLine
 10
106.2118078905342
 20
128.5449848900255
 30
0.0
 11
106.1951170069185
 21
128.539527144345
 31
0.0
  0
LINE
  5
316
330
E3
100
AcDbEntity
  8
0
  6
Continuous
100
AcDbLine
 10
106.1951170069185
 20
128.539527144345
 30
0.0
 11
106.1749753264307
 21
128.5340730082845
 31
0.0
  0
LINE
  5
317
330
E3
100
AcDbEntity
  8
0
  6
Continuous
100
AcDbLine
 10
106.1749753264307
 20
128.5340730082845
 30
0.0
 11
106.1515380627375
 21
128.5286152626039
 31
0.0
  0
LINE
  5
318
330
E3
100
AcDbEntity
  8
0
  6
Continuous
100
AcDbLine
 10
106.1515380627375
 20
128.5286152626039
 30
0.0
 11
106.1249856968471
 21
128.5231575169234
 31
0.0
  0
LINE
  5
319
330
E3
100
AcDbEntity
  8
0
  6
Continuous
100
AcDbLine
 10
106.1249856968471
 20
128.5231575169234
 30
0.0
 11
106.0955167578681
 21
128.517703380863
 31
0.0
  0
LINE
  5
31A
330
E3
100
AcDbEntity
  8
0
  6
Continuous
100
AcDbLine
 10
106.0955167578681
 20
128.517703380863
 30
0.0
 11
106.0633550422504
 21
128.5122456351824
 31
0.0
  0
LINE
  5
31B
330
E3
100
AcDbEntity
  8
0
  6
Continuous
100
AcDbLine
 10
106.0633550422504
 20
128.5122456351824
 30
0.0
 11
106.0287496137849
 21
128.506791499122
 31
0.0
  0
LINE
  5
31C
330
E3
100
AcDbEntity
  8
0
  6
Continuous
100
AcDbLine
 10
106.0287496137849
 20
128.506791499122
 30
0.0
 11
105.9919603651232
 21
128.5013337534414
 31
0.0
  0
LINE
  5
31D
330
E3
100
AcDbEntity
  8
0
  6
Continuous
100
AcDbLine
 10
105.9919603651232
 20
128.5013337534414
 30
0.0
 11
105.9532724562579
 21
128.4958760077608
 31
0.0
  0
LINE
  5
31E
330
E3
100
AcDbEntity
  8
0
  6
Continuous
100
AcDbLine
 10
105.9532724562579
 20
128.4958760077608
 30
0.0
 11
105.9129710471813
 21
128.4904218717004
 31
0.0
  0
LINE
  5
31F
330
E3
100
AcDbEntity
  8
0
  6
Continuous
100
AcDbLine
 10
105.9129710471813
 20
128.4904218717004
 30
0.0
 11
105.8713701748476
 21
128.4849641260198
 31
0.0
  0
LINE
  5
320
330
E3
100
AcDbEntity
  8
0
  6
Continuous
100
AcDbLine
 10
105.8713701748476
 20
128.4849641260198
 30
0.0
 11
105.8287874858305
 21
128.4795099899594
 31
0.0
  0
LINE
  5
321
330
E3
100
AcDbEntity
  8
0
  6
Continuous
100
AcDbLine
 10
105.8287874858305
 20
128.4795099899594
 30
0.0
 11
105.7855406267041
 21
128.4740522442788
 31
0.0
  0
LINE
  5
322
330
E3
100
AcDbEntity
  8
0
  6
Continuous
100
AcDbLine
 10
105.7855406267041
 20
128.4740522442788
 30
0.0
 11
105.7419616825232
 21
128.4685944985982
 31
0.0
  0
LINE
  5
323
330
E3
100
AcDbEntity
  8
0
  6
Continuous
100
AcDbLine
 10
105.7419616825232
 20
128.4685944985982
 30
0.0
 11
105.6983827383422
 21
128.4631403625378
 31
0.0
  0
LINE
  5
324
330
E3
100
AcDbEntity
  8
0
  6
Continuous
100
AcDbLine
 10
105.6983827383422
 20
128.4631403625378
 30
0.0
 11
105.655139488836
 21
128.4576826168572
 31
0.0
  0
LINE
  5
325
330
E3
100
AcDbEntity
  8
0
  6
Continuous
100
AcDbLine
 10
105.655139488836
 20
128.4576826168572
 30
0.0
 11
105.6125531901988
 21
128.4522284807968
 31
0.0
  0
LINE
  5
326
330
E3
100
AcDbEntity
  8
0
  6
Continuous
100
AcDbLine
 10
105.6125531901988
 20
128.4522284807968
 30
0.0
 11
105.570952317865
 21
128.4467707351162
 31
0.0
  0
LINE
  5
327
330
E3
100
AcDbEntity
  8
0
  6
Continuous
100
AcDbLine
 10
105.570952317865
 20
128.4467707351162
 30
0.0
 11
105.5306545184086
 21
128.4413129894356
 31
0.0
  0
LINE
  5
328
330
E3
100
AcDbEntity
  8
0
  6
Continuous
100
AcDbLine
 10
105.5306545184086
 20
128.4413129894356
 30
0.0
 11
105.4919629999231
 21
128.4358588533752
 31
0.0
  0
LINE
  5
329
330
E3
100
AcDbEntity
  8
0
  6
Continuous
100
AcDbLine
 10
105.4919629999231
 20
128.4358588533752
 30
0.0
 11
105.4551737512614
 21
128.4304011076946
 31
0.0
  0
LINE
  5
32A
330
E3
100
AcDbEntity
  8
0
  6
Continuous
100
AcDbLine
 10
105.4551737512614
 20
128.4304011076946
 30
0.0
 11
105.420568322796
 21
128.424943362014
 31
0.0
  0
LINE
  5
32B
330
E3
100
AcDbEntity
  8
0
  6
Continuous
100
AcDbLine
 10
105.420568322796
 20
128.424943362014
 30
0.0
 11
105.3884102167984
 21
128.4194892259536
 31
0.0
  0
LINE
  5
32C
330
E3
100
AcDbEntity
  8
0
  6
Continuous
100
AcDbLine
 10
105.3884102167984
 20
128.4194892259536
 30
0.0
 11
105.3589412778194
 21
128.4140314802731
 31
0.0
  0
LINE
  5
32D
330
E3
100
AcDbEntity
  8
0
  6
Continuous
100
AcDbLine
 10
105.3589412778194
 20
128.4140314802731
 30
0.0
 11
105.3323853023088
 21
128.4085773442126
 31
0.0
  0
LINE
  5
32E
330
E3
100
AcDbEntity
  8
0
  6
Continuous
100
AcDbLine
 10
105.3323853023088
 20
128.4085773442126
 30
0.0
 11
105.3089480386157
 21
128.403119598532
 31
0.0
  0
LINE
  5
32F
330
E3
100
AcDbEntity
  8
0
  6
Continuous
100
AcDbLine
 10
105.3089480386157
 20
128.403119598532
 30
0.0
 11
105.2888063581278
 21
128.3976618528515
 31
0.0
  0
LINE
  5
330
330
E3
100
AcDbEntity
  8
0
  6
Continuous
100
AcDbLine
 10
105.2888063581278
 20
128.3976618528515
 30
0.0
 11
105.2721154745121
 21
128.3922077167911
 31
0.0
  0
LINE
  5
331
330
E3
100
AcDbEntity
  8
0
  6
Continuous
100
AcDbLine
 10
105.2721154745121
 20
128.3922077167911
 30
0.0
 11
105.2589981148539
 21
128.3867499711105
 31
0.0
  0
LINE
  5
332
330
E3
100
AcDbEntity
  8
0
  6
Continuous
100
AcDbLine
 10
105.2589981148539
 20
128.3867499711105
 30
0.0
 11
105.2495589581378
 21
128.38129583505
 31
0.0
  0
LINE
  5
333
330
E3
100
AcDbEntity
  8
0
  6
Continuous
100
AcDbLine
 10
105.2495589581378
 20
128.38129583505
 30
0.0
 11
105.2438646286877
 21
128.3758378529045
 31
0.0
  0
LINE
  5
334
330
E3
100
AcDbEntity
  8
0
  6
Continuous
100
AcDbLine
 10
105.2438646286877
 20
128.3758378529045
 30
0.0
 11
105.2419619777336
 21
128.3703815036981
 31
0.0
  0
LINE
  5
335
330
E3
100
AcDbEntity
  8
0
  6
Continuous
100
AcDbLine
 10
106.2419619777336
 20
128.1739529322696
 30
0.0
 11
106.2400593267795
 21
128.1684965830632
 31
0.0
  0
LINE
  5
336
330
E3
100
AcDbEntity
  8
0
  6
Continuous
100
AcDbLine
 10
106.2400593267795
 20
128.1684965830632
 30
0.0
 11
106.2343658542397
 21
128.1630402338569
 31
0.0
  0
LINE
  5
337
330
E3
100
AcDbEntity
  8
0
  6
Continuous
100
AcDbLine
 10
106.2343658542397
 20
128.1630402338569
 30
0.0
 11
106.2249252501925
 21
128.1575824064487
 31
0.0
  0
LINE
  5
338
330
E3
100
AcDbEntity
  8
0
  6
Continuous
100
AcDbLine
 10
106.2249252501925
 20
128.1575824064487
 30
0.0
 11
106.2118078905342
 21
128.1521282703882
 31
0.0
  0
LINE
  5
339
330
E3
100
AcDbEntity
  8
0
  6
Continuous
100
AcDbLine
 10
106.2118078905342
 20
128.1521282703882
 30
0.0
 11
106.1951170069185
 21
128.1466705247076
 31
0.0
  0
LINE
  5
33A
330
E3
100
AcDbEntity
  8
0
  6
Continuous
100
AcDbLine
 10
106.1951170069185
 20
128.1466705247076
 30
0.0
 11
106.1749753264307
 21
128.1412163886472
 31
0.0
  0
LINE
  5
33B
330
E3
100
AcDbEntity
  8
0
  6
Continuous
100
AcDbLine
 10
106.1749753264307
 20
128.1412163886472
 30
0.0
 11
106.1515380627375
 21
128.1357586429666
 31
0.0
  0
LINE
  5
33C
330
E3
100
AcDbEntity
  8
0
  6
Continuous
100
AcDbLine
 10
106.1515380627375
 20
128.1357586429666
 30
0.0
 11
106.1249856968471
 21
128.130300897286
 31
0.0
  0
LINE
  5
33D
330
E3
100
AcDbEntity
  8
0
  6
Continuous
100
AcDbLine
 10
106.1249856968471
 20
128.130300897286
 30
0.0
 11
106.0955167578681
 21
128.1248467612256
 31
0.0
  0
LINE
  5
33E
330
E3
100
AcDbEntity
  8
0
  6
Continuous
100
AcDbLine
 10
106.0955167578681
 20
128.1248467612256
 30
0.0
 11
106.0633550422504
 21
128.119389015545
 31
0.0
  0
LINE
  5
33F
330
E3
100
AcDbEntity
  8
0
  6
Continuous
100
AcDbLine
 10
106.0633550422504
 20
128.119389015545
 30
0.0
 11
106.0287496137849
 21
128.1139348794846
 31
0.0
  0
LINE
  5
340
330
E3
100
AcDbEntity
  8
0
  6
Continuous
100
AcDbLine
 10
106.0287496137849
 20
128.1139348794846
 30
0.0
 11
105.9919603651232
 21
128.108477133804
 31
0.0
  0
LINE
  5
341
330
E3
100
AcDbEntity
  8
0
  6
Continuous
100
AcDbLine
 10
105.9919603651232
 20
128.108477133804
 30
0.0
 11
105.9532724562579
 21
128.1030193881235
 31
0.0
  0
LINE
  5
342
330
E3
100
AcDbEntity
  8
0
  6
Continuous
100
AcDbLine
 10
105.9532724562579
 20
128.1030193881235
 30
0.0
 11
105.9129710471813
 21
128.097565252063
 31
0.0
  0
LINE
  5
343
330
E3
100
AcDbEntity
  8
0
  6
Continuous
100
AcDbLine
 10
105.9129710471813
 20
128.097565252063
 30
0.0
 11
105.8713701748476
 21
128.0921075063824
 31
0.0
  0
LINE
  5
344
330
E3
100
AcDbEntity
  8
0
  6
Continuous
100
AcDbLine
 10
105.8713701748476
 20
128.0921075063824
 30
0.0
 11
105.8287874858305
 21
128.0866497607019
 31
0.0
  0
LINE
  5
345
330
E3
100
AcDbEntity
  8
0
  6
Continuous
100
AcDbLine
 10
105.8287874858305
 20
128.0866497607019
 30
0.0
 11
105.7855406267041
 21
128.0811956246415
 31
0.0
  0
LINE
  5
346
330
E3
100
AcDbEntity
  8
0
  6
Continuous
100
AcDbLine
 10
105.7855406267041
 20
128.0811956246415
 30
0.0
 11
105.7419616825232
 21
128.0757378789609
 31
0.0
  0
LINE
  5
347
330
E3
100
AcDbEntity
  8
0
  6
Continuous
100
AcDbLine
 10
105.7419616825232
 20
128.0757378789609
 30
0.0
 11
105.6983827383422
 21
128.0702837429005
 31
0.0
  0
LINE
  5
348
330
E3
100
AcDbEntity
  8
0
  6
Continuous
100
AcDbLine
 10
105.6983827383422
 20
128.0702837429005
 30
0.0
 11
105.655139488836
 21
128.0648259972199
 31
0.0
  0
LINE
  5
349
330
E3
100
AcDbEntity
  8
0
  6
Continuous
100
AcDbLine
 10
105.655139488836
 20
128.0648259972199
 30
0.0
 11
105.6125531901988
 21
128.0593682515393
 31
0.0
  0
LINE
  5
34A
330
E3
100
AcDbEntity
  8
0
  6
Continuous
100
AcDbLine
 10
105.6125531901988
 20
128.0593682515393
 30
0.0
 11
105.570952317865
 21
128.0539141154789
 31
0.0
  0
LINE
  5
34B
330
E3
100
AcDbEntity
  8
0
  6
Continuous
100
AcDbLine
 10
105.570952317865
 20
128.0539141154789
 30
0.0
 11
105.5306545184086
 21
128.0484563697983
 31
0.0
  0
LINE
  5
34C
330
E3
100
AcDbEntity
  8
0
  6
Continuous
100
AcDbLine
 10
105.5306545184086
 20
128.0484563697983
 30
0.0
 11
105.4919629999231
 21
128.0430022337379
 31
0.0
  0
LINE
  5
34D
330
E3
100
AcDbEntity
  8
0
  6
Continuous
100
AcDbLine
 10
105.4919629999231
 20
128.0430022337379
 30
0.0
 11
105.4551737512614
 21
128.0375444880573
 31
0.0
  0
LINE
  5
34E
330
E3
100
AcDbEntity
  8
0
  6
Continuous
100
AcDbLine
 10
105.4551737512614
 20
128.0375444880573
 30
0.0
 11
105.420568322796
 21
128.0320867423767
 31
0.0
  0
LINE
  5
34F
330
E3
100
AcDbEntity
  8
0
  6
Continuous
100
AcDbLine
 10
105.420568322796
 20
128.0320867423767
 30
0.0
 11
105.3884102167984
 21
128.0266326063163
 31
0.0
  0
LINE
  5
350
330
E3
100
AcDbEntity
  8
0
  6
Continuous
100
AcDbLine
 10
105.3884102167984
 20
128.0266326063163
 30
0.0
 11
105.3589412778194
 21
128.0211748606357
 31
0.0
  0
LINE
  5
351
330
E3
100
AcDbEntity
  8
0
  6
Continuous
100
AcDbLine
 10
105.3589412778194
 20
128.0211748606357
 30
0.0
 11
105.3323853023088
 21
128.0157171149551
 31
0.0
  0
LINE
  5
352
330
E3
100
AcDbEntity
  8
0
  6
Continuous
100
AcDbLine
 10
105.3323853023088
 20
128.0157171149551
 30
0.0
 11
105.3089480386157
 21
128.0102629788947
 31
0.0
  0
LINE
  5
353
330
E3
100
AcDbEntity
  8
0
  6
Continuous
100
AcDbLine
 10
105.3089480386157
 20
128.0102629788947
 30
0.0
 11
105.2888063581278
 21
128.0048052332141
 31
0.0
  0
LINE
  5
354
330
E3
100
AcDbEntity
  8
0
  6
Continuous
100
AcDbLine
 10
105.2888063581278
 20
128.0048052332141
 30
0.0
 11
105.2721154745121
 21
127.9993510971537
 31
0.0
  0
LINE
  5
355
330
E3
100
AcDbEntity
  8
0
  6
Continuous
100
AcDbLine
 10
105.2721154745121
 20
127.9993510971537
 30
0.0
 11
105.2589981148539
 21
127.9938933514731
 31
0.0
  0
LINE
  5
356
330
E3
100
AcDbEntity
  8
0
  6
Continuous
100
AcDbLine
 10
105.2589981148539
 20
127.9938933514731
 30
0.0
 11
105.2495589581378
 21
127.9884356057925
 31
0.0
  0
LINE
  5
357
330
E3
100
AcDbEntity
  8
0
  6
Continuous
100
AcDbLine
 10
105.2495589581378
 20
127.9884356057925
 30
0.0
 11
105.2438646286877
 21
127.9829807100473
 31
0.0
  0
LINE
  5
358
330
E3
100
AcDbEntity
  8
0
  6
Continuous
100
AcDbLine
 10
105.2438646286877
 20
127.9829807100473
 30
0.0
 11
105.2419619777336
 21
127.977524360841
 31
0.0
  0
LINE
  5
359
330
E3
100
AcDbEntity
  8
0
  6
Continuous
100
AcDbLine
 10
106.2419619777336
 20
127.7810957894124
 30
0.0
 11
106.2400593267795
 21
127.7756394402061
 31
0.0
  0
LINE
  5
35A
330
E3
100
AcDbEntity
  8
0
  6
Continuous
100
AcDbLine
 10
106.2400593267795
 20
127.7756394402061
 30
0.0
 11
106.2343658542397
 21
127.7701830909997
 31
0.0
  0
LINE
  5
35B
330
E3
100
AcDbEntity
  8
0
  6
Continuous
100
AcDbLine
 10
106.2343658542397
 20
127.7701830909997
 30
0.0
 11
106.2249252501925
 21
127.7647257868113
 31
0.0
  0
LINE
  5
35C
330
E3
100
AcDbEntity
  8
0
  6
Continuous
100
AcDbLine
 10
106.2249252501925
 20
127.7647257868113
 30
0.0
 11
106.2118078905342
 21
127.7592716507508
 31
0.0
  0
LINE
  5
35D
330
E3
100
AcDbEntity
  8
0
  6
Continuous
100
AcDbLine
 10
106.2118078905342
 20
127.7592716507508
 30
0.0
 11
106.1951170069185
 21
127.7538139050703
 31
0.0
  0
LINE
  5
35E
330
E3
100
AcDbEntity
  8
0
  6
Continuous
100
AcDbLine
 10
106.1951170069185
 20
127.7538139050703
 30
0.0
 11
106.1749753264307
 21
127.7483561593897
 31
0.0
  0
LINE
  5
35F
330
E3
100
AcDbEntity
  8
0
  6
Continuous
100
AcDbLine
 10
106.1749753264307
 20
127.7483561593897
 30
0.0
 11
106.1515380627375
 21
127.7429020233293
 31
0.0
  0
LINE
  5
360
330
E3
100
AcDbEntity
  8
0
  6
Continuous
100
AcDbLine
 10
106.1515380627375
 20
127.7429020233293
 30
0.0
 11
106.1249856968471
 21
127.7374442776487
 31
0.0
  0
LINE
  5
361
330
E3
100
AcDbEntity
  8
0
  6
Continuous
100
AcDbLine
 10
106.1249856968471
 20
127.7374442776487
 30
0.0
 11
106.0955167578681
 21
127.7319901415883
 31
0.0
  0
LINE
  5
362
330
E3
100
AcDbEntity
  8
0
  6
Continuous
100
AcDbLine
 10
106.0955167578681
 20
127.7319901415883
 30
0.0
 11
106.0633550422504
 21
127.7265323959077
 31
0.0
  0
LINE
  5
363
330
E3
100
AcDbEntity
  8
0
  6
Continuous
100
AcDbLine
 10
106.0633550422504
 20
127.7265323959077
 30
0.0
 11
106.0287496137849
 21
127.7210746502271
 31
0.0
  0
LINE
  5
364
330
E3
100
AcDbEntity
  8
0
  6
Continuous
100
AcDbLine
 10
106.0287496137849
 20
127.7210746502271
 30
0.0
 11
105.9919603651232
 21
127.7156205141667
 31
0.0
  0
LINE
  5
365
330
E3
100
AcDbEntity
  8
0
  6
Continuous
100
AcDbLine
 10
105.9919603651232
 20
127.7156205141667
 30
0.0
 11
105.9532724562579
 21
127.7101627684861
 31
0.0
  0
LINE
  5
366
330
E3
100
AcDbEntity
  8
0
  6
Continuous
100
AcDbLine
 10
105.9532724562579
 20
127.7101627684861
 30
0.0
 11
105.9129710471813
 21
127.7047086324257
 31
0.0
  0
LINE
  5
367
330
E3
100
AcDbEntity
  8
0
  6
Continuous
100
AcDbLine
 10
105.9129710471813
 20
127.7047086324257
 30
0.0
 11
105.8713701748476
 21
127.6992508867451
 31
0.0
  0
LINE
  5
368
330
E3
100
AcDbEntity
  8
0
  6
Continuous
100
AcDbLine
 10
105.8713701748476
 20
127.6992508867451
 30
0.0
 11
105.8287874858305
 21
127.6937931410645
 31
0.0
  0
LINE
  5
369
330
E3
100
AcDbEntity
  8
0
  6
Continuous
100
AcDbLine
 10
105.8287874858305
 20
127.6937931410645
 30
0.0
 11
105.7855406267041
 21
127.6883390050042
 31
0.0
  0
LINE
  5
36A
330
E3
100
AcDbEntity
  8
0
  6
Continuous
100
AcDbLine
 10
105.7855406267041
 20
127.6883390050042
 30
0.0
 11
105.7419616825232
 21
127.6828812593235
 31
0.0
  0
LINE
  5
36B
330
E3
100
AcDbEntity
  8
0
  6
Continuous
100
AcDbLine
 10
105.7419616825232
 20
127.6828812593235
 30
0.0
 11
105.6983827383422
 21
127.677423513643
 31
0.0
  0
LINE
  5
36C
330
E3
100
AcDbEntity
  8
0
  6
Continuous
100
AcDbLine
 10
105.6983827383422
 20
127.677423513643
 30
0.0
 11
105.655139488836
 21
127.6719693775825
 31
0.0
  0
LINE
  5
36D
330
E3
100
AcDbEntity
  8
0
  6
Continuous
100
AcDbLine
 10
105.655139488836
 20
127.6719693775825
 30
0.0
 11
105.6125531901988
 21
127.666511631902
 31
0.0
  0
LINE
  5
36E
330
E3
100
AcDbEntity
  8
0
  6
Continuous
100
AcDbLine
 10
105.6125531901988
 20
127.666511631902
 30
0.0
 11
105.570952317865
 21
127.6610574958416
 31
0.0
  0
LINE
  5
36F
330
E3
100
AcDbEntity
  8
0
  6
Continuous
100
AcDbLine
 10
105.570952317865
 20
127.6610574958416
 30
0.0
 11
105.5306545184086
 21
127.6555997501609
 31
0.0
  0
LINE
  5
370
330
E3
100
AcDbEntity
  8
0
  6
Continuous
100
AcDbLine
 10
105.5306545184086
 20
127.6555997501609
 30
0.0
 11
105.4919629999231
 21
127.6501420044804
 31
0.0
  0
LINE
  5
371
330
E3
100
AcDbEntity
  8
0
  6
Continuous
100
AcDbLine
 10
105.4919629999231
 20
127.6501420044804
 30
0.0
 11
105.4551737512614
 21
127.64468786842
 31
0.0
  0
LINE
  5
372
330
E3
100
AcDbEntity
  8
0
  6
Continuous
100
AcDbLine
 10
105.4551737512614
 20
127.64468786842
 30
0.0
 11
105.420568322796
 21
127.6392301227394
 31
0.0
  0
LINE
  5
373
330
E3
100
AcDbEntity
  8
0
  6
Continuous
100
AcDbLine
 10
105.420568322796
 20
127.6392301227394
 30
0.0
 11
105.3884102167984
 21
127.633775986679
 31
0.0
  0
LINE
  5
374
330
E3
100
AcDbEntity
  8
0
  6
Continuous
100
AcDbLine
 10
105.3884102167984
 20
127.633775986679
 30
0.0
 11
105.3589412778194
 21
127.6283182409984
 31
0.0
  0
LINE
  5
375
330
E3
100
AcDbEntity
  8
0
  6
Continuous
100
AcDbLine
 10
105.3589412778194
 20
127.6283182409984
 30
0.0
 11
105.3323853023088
 21
127.6228604953178
 31
0.0
  0
LINE
  5
376
330
E3
100
AcDbEntity
  8
0
  6
Continuous
100
AcDbLine
 10
105.3323853023088
 20
127.6228604953178
 30
0.0
 11
105.3089480386157
 21
127.6174063592574
 31
0.0
  0
LINE
  5
377
330
E3
100
AcDbEntity
  8
0
  6
Continuous
100
AcDbLine
 10
105.3089480386157
 20
127.6174063592574
 30
0.0
 11
105.2888063581278
 21
127.6119486135768
 31
0.0
  0
LINE
  5
378
330
E3
100
AcDbEntity
  8
0
  6
Continuous
100
AcDbLine
 10
105.2888063581278
 20
127.6119486135768
 30
0.0
 11
105.2721154745121
 21
127.6064908678962
 31
0.0
  0
LINE
  5
379
330
E3
100
AcDbEntity
  8
0
  6
Continuous
100
AcDbLine
 10
105.2721154745121
 20
127.6064908678962
 30
0.0
 11
105.2589981148539
 21
127.6010367318358
 31
0.0
  0
LINE
  5
37A
330
E3
100
AcDbEntity
  8
0
  6
Continuous
100
AcDbLine
 10
105.2589981148539
 20
127.6010367318358
 30
0.0
 11
105.2495589581378
 21
127.5955789861552
 31
0.0
  0
LINE
  5
37B
330
E3
100
AcDbEntity
  8
0
  6
Continuous
100
AcDbLine
 10
105.2495589581378
 20
127.5955789861552
 30
0.0
 11
105.2438646286877
 21
127.5901235671902
 31
0.0
  0
LINE
  5
37C
330
E3
100
AcDbEntity
  8
0
  6
Continuous
100
AcDbLine
 10
105.2438646286877
 20
127.5901235671902
 30
0.0
 11
105.2419619777336
 21
127.5846672179838
 31
0.0
  0
LINE
  5
37D
330
E3
100
AcDbEntity
  8
0
  6
Continuous
100
AcDbLine
 10
106.2419619777336
 20
127.3882386465553
 30
0.0
 11
106.2400593267795
 21
127.3827822973489
 31
0.0
  0
LINE
  5
37E
330
E3
100
AcDbEntity
  8
0
  6
Continuous
100
AcDbLine
 10
106.2400593267795
 20
127.3827822973489
 30
0.0
 11
106.2343658542397
 21
127.3773259481426
 31
0.0
  0
LINE
  5
37F
330
E3
100
AcDbEntity
  8
0
  6
Continuous
100
AcDbLine
 10
106.2343658542397
 20
127.3773259481426
 30
0.0
 11
106.2249252501925
 21
127.371869167174
 31
0.0
  0
LINE
  5
380
330
E3
100
AcDbEntity
  8
0
  6
Continuous
100
AcDbLine
 10
106.2249252501925
 20
127.371869167174
 30
0.0
 11
106.2118078905342
 21
127.3664150311135
 31
0.0
  0
LINE
  5
381
330
E3
100
AcDbEntity
  8
0
  6
Continuous
100
AcDbLine
 10
106.2118078905342
 20
127.3664150311135
 30
0.0
 11
106.1951170069185
 21
127.3609572854329
 31
0.0
  0
LINE
  5
382
330
E3
100
AcDbEntity
  8
0
  6
Continuous
100
AcDbLine
 10
106.1951170069185
 20
127.3609572854329
 30
0.0
 11
106.1749753264307
 21
127.3554995397524
 31
0.0
  0
LINE
  5
383
330
E3
100
AcDbEntity
  8
0
  6
Continuous
100
AcDbLine
 10
106.1749753264307
 20
127.3554995397524
 30
0.0
 11
106.1515380627375
 21
127.350045403692
 31
0.0
  0
LINE
  5
384
330
E3
100
AcDbEntity
  8
0
  6
Continuous
100
AcDbLine
 10
106.1515380627375
 20
127.350045403692
 30
0.0
 11
106.1249856968471
 21
127.3445876580114
 31
0.0
  0
LINE
  5
385
330
E3
100
AcDbEntity
  8
0
  6
Continuous
100
AcDbLine
 10
106.1249856968471
 20
127.3445876580114
 30
0.0
 11
106.0955167578681
 21
127.3391299123308
 31
0.0
  0
LINE
  5
386
330
E3
100
AcDbEntity
  8
0
  6
Continuous
100
AcDbLine
 10
106.0955167578681
 20
127.3391299123308
 30
0.0
 11
106.0633550422504
 21
127.3336757762704
 31
0.0
  0
LINE
  5
387
330
E3
100
AcDbEntity
  8
0
  6
Continuous
100
AcDbLine
 10
106.0633550422504
 20
127.3336757762704
 30
0.0
 11
106.0287496137849
 21
127.3282180305898
 31
0.0
  0
LINE
  5
388
330
E3
100
AcDbEntity
  8
0
  6
Continuous
100
AcDbLine
 10
106.0287496137849
 20
127.3282180305898
 30
0.0
 11
105.9919603651232
 21
127.3227638945294
 31
0.0
  0
LINE
  5
389
330
E3
100
AcDbEntity
  8
0
  6
Continuous
100
AcDbLine
 10
105.9919603651232
 20
127.3227638945294
 30
0.0
 11
105.9532724562579
 21
127.3173061488488
 31
0.0
  0
LINE
  5
38A
330
E3
100
AcDbEntity
  8
0
  6
Continuous
100
AcDbLine
 10
105.9532724562579
 20
127.3173061488488
 30
0.0
 11
105.9129710471813
 21
127.3118484031682
 31
0.0
  0
LINE
  5
38B
330
E3
100
AcDbEntity
  8
0
  6
Continuous
100
AcDbLine
 10
105.9129710471813
 20
127.3118484031682
 30
0.0
 11
105.8713701748476
 21
127.3063942671078
 31
0.0
  0
LINE
  5
38C
330
E3
100
AcDbEntity
  8
0
  6
Continuous
100
AcDbLine
 10
105.8713701748476
 20
127.3063942671078
 30
0.0
 11
105.8287874858305
 21
127.3009365214272
 31
0.0
  0
LINE
  5
38D
330
E3
100
AcDbEntity
  8
0
  6
Continuous
100
AcDbLine
 10
105.8287874858305
 20
127.3009365214272
 30
0.0
 11
105.7855406267041
 21
127.2954823853668
 31
0.0
  0
LINE
  5
38E
330
E3
100
AcDbEntity
  8
0
  6
Continuous
100
AcDbLine
 10
105.7855406267041
 20
127.2954823853668
 30
0.0
 11
105.7419616825232
 21
127.2900246396862
 31
0.0
  0
LINE
  5
38F
330
E3
100
AcDbEntity
  8
0
  6
Continuous
100
AcDbLine
 10
105.7419616825232
 20
127.2900246396862
 30
0.0
 11
105.6983827383422
 21
127.2845668940056
 31
0.0
  0
LINE
  5
390
330
E3
100
AcDbEntity
  8
0
  6
Continuous
100
AcDbLine
 10
105.6983827383422
 20
127.2845668940056
 30
0.0
 11
105.655139488836
 21
127.2791127579452
 31
0.0
  0
LINE
  5
391
330
E3
100
AcDbEntity
  8
0
  6
Continuous
100
AcDbLine
 10
105.655139488836
 20
127.2791127579452
 30
0.0
 11
105.6125531901988
 21
127.2736550122646
 31
0.0
  0
LINE
  5
392
330
E3
100
AcDbEntity
  8
0
  6
Continuous
100
AcDbLine
 10
105.6125531901988
 20
127.2736550122646
 30
0.0
 11
105.570952317865
 21
127.2681972665841
 31
0.0
  0
LINE
  5
393
330
E3
100
AcDbEntity
  8
0
  6
Continuous
100
AcDbLine
 10
105.570952317865
 20
127.2681972665841
 30
0.0
 11
105.5306545184086
 21
127.2627431305236
 31
0.0
  0
LINE
  5
394
330
E3
100
AcDbEntity
  8
0
  6
Continuous
100
AcDbLine
 10
105.5306545184086
 20
127.2627431305236
 30
0.0
 11
105.4919629999231
 21
127.257285384843
 31
0.0
  0
LINE
  5
395
330
E3
100
AcDbEntity
  8
0
  6
Continuous
100
AcDbLine
 10
105.4919629999231
 20
127.257285384843
 30
0.0
 11
105.4551737512614
 21
127.2518312487826
 31
0.0
  0
LINE
  5
396
330
E3
100
AcDbEntity
  8
0
  6
Continuous
100
AcDbLine
 10
105.4551737512614
 20
127.2518312487826
 30
0.0
 11
105.420568322796
 21
127.246373503102
 31
0.0
  0
LINE
  5
397
330
E3
100
AcDbEntity
  8
0
  6
Continuous
100
AcDbLine
 10
105.420568322796
 20
127.246373503102
 30
0.0
 11
105.3884102167984
 21
127.2409157574215
 31
0.0
  0
LINE
  5
398
330
E3
100
AcDbEntity
  8
0
  6
Continuous
100
AcDbLine
 10
105.3884102167984
 20
127.2409157574215
 30
0.0
 11
105.3589412778194
 21
127.235461621361
 31
0.0
  0
LINE
  5
399
330
E3
100
AcDbEntity
  8
0
  6
Continuous
100
AcDbLine
 10
105.3589412778194
 20
127.235461621361
 30
0.0
 11
105.3323853023088
 21
127.2300038756805
 31
0.0
  0
LINE
  5
39A
330
E3
100
AcDbEntity
  8
0
  6
Continuous
100
AcDbLine
 10
105.3323853023088
 20
127.2300038756805
 30
0.0
 11
105.3089480386157
 21
127.22454973962
 31
0.0
  0
LINE
  5
39B
330
E3
100
AcDbEntity
  8
0
  6
Continuous
100
AcDbLine
 10
105.3089480386157
 20
127.22454973962
 30
0.0
 11
105.2888063581278
 21
127.2190919939395
 31
0.0
  0
LINE
  5
39C
330
E3
100
AcDbEntity
  8
0
  6
Continuous
100
AcDbLine
 10
105.2888063581278
 20
127.2190919939395
 30
0.0
 11
105.2721154745121
 21
127.2136342482589
 31
0.0
  0
LINE
  5
39D
330
E3
100
AcDbEntity
  8
0
  6
Continuous
100
AcDbLine
 10
105.2721154745121
 20
127.2136342482589
 30
0.0
 11
105.2589981148539
 21
127.2081801121985
 31
0.0
  0
LINE
  5
39E
330
E3
100
AcDbEntity
  8
0
  6
Continuous
100
AcDbLine
 10
105.2589981148539
 20
127.2081801121985
 30
0.0
 11
105.2495589581378
 21
127.2027223665179
 31
0.0
  0
LINE
  5
39F
330
E3
100
AcDbEntity
  8
0
  6
Continuous
100
AcDbLine
 10
105.2495589581378
 20
127.2027223665179
 30
0.0
 11
105.2438646286877
 21
127.197266424333
 31
0.0
  0
LINE
  5
3A0
330
E3
100
AcDbEntity
  8
0
  6
Continuous
100
AcDbLine
 10
105.2438646286877
 20
127.197266424333
 30
0.0
 11
105.2419619777336
 21
127.1918100751267
 31
0.0
  0
LINE
  5
3A1
330
E3
100
AcDbEntity
  8
0
  6
Continuous
100
AcDbLine
 10
106.2419619777336
 20
126.9953815036981
 30
0.0
 11
106.2400593267795
 21
126.9899251544918
 31
0.0
  0
LINE
  5
3A2
330
E3
100
AcDbEntity
  8
0
  6
Continuous
100
AcDbLine
 10
106.2400593267795
 20
126.9899251544918
 30
0.0
 11
106.2343658542397
 21
126.9844688052854
 31
0.0
  0
LINE
  5
3A3
330
E3
100
AcDbEntity
  8
0
  6
Continuous
100
AcDbLine
 10
106.2343658542397
 20
126.9844688052854
 30
0.0
 11
106.2249252501925
 21
126.9790125475366
 31
0.0
  0
LINE
  5
3A4
330
E3
100
AcDbEntity
  8
0
  6
Continuous
100
AcDbLine
 10
106.2249252501925
 20
126.9790125475366
 30
0.0
 11
106.2118078905342
 21
126.973554801856
 31
0.0
  0
LINE
  5
3A5
330
E3
100
AcDbEntity
  8
0
  6
Continuous
100
AcDbLine
 10
106.2118078905342
 20
126.973554801856
 30
0.0
 11
106.1951170069185
 21
126.9681006657956
 31
0.0
  0
LINE
  5
3A6
330
E3
100
AcDbEntity
  8
0
  6
Continuous
100
AcDbLine
 10
106.1951170069185
 20
126.9681006657956
 30
0.0
 11
106.1749753264307
 21
126.9626429201151
 31
0.0
  0
LINE
  5
3A7
330
E3
100
AcDbEntity
  8
0
  6
Continuous
100
AcDbLine
 10
106.1749753264307
 20
126.9626429201151
 30
0.0
 11
106.1515380627375
 21
126.9571887840546
 31
0.0
  0
LINE
  5
3A8
330
E3
100
AcDbEntity
  8
0
  6
Continuous
100
AcDbLine
 10
106.1515380627375
 20
126.9571887840546
 30
0.0
 11
106.1249856968471
 21
126.951731038374
 31
0.0
  0
LINE
  5
3A9
330
E3
100
AcDbEntity
  8
0
  6
Continuous
100
AcDbLine
 10
106.1249856968471
 20
126.951731038374
 30
0.0
 11
106.0955167578681
 21
126.9462732926934
 31
0.0
  0
LINE
  5
3AA
330
E3
100
AcDbEntity
  8
0
  6
Continuous
100
AcDbLine
 10
106.0955167578681
 20
126.9462732926934
 30
0.0
 11
106.0633550422504
 21
126.940819156633
 31
0.0
  0
LINE
  5
3AB
330
E3
100
AcDbEntity
  8
0
  6
Continuous
100
AcDbLine
 10
106.0633550422504
 20
126.940819156633
 30
0.0
 11
106.0287496137849
 21
126.9353614109525
 31
0.0
  0
LINE
  5
3AC
330
E3
100
AcDbEntity
  8
0
  6
Continuous
100
AcDbLine
 10
106.0287496137849
 20
126.9353614109525
 30
0.0
 11
105.9919603651232
 21
126.9299036652719
 31
0.0
  0
LINE
  5
3AD
330
E3
100
AcDbEntity
  8
0
  6
Continuous
100
AcDbLine
 10
105.9919603651232
 20
126.9299036652719
 30
0.0
 11
105.9532724562579
 21
126.9244495292114
 31
0.0
  0
LINE
  5
3AE
330
E3
100
AcDbEntity
  8
0
  6
Continuous
100
AcDbLine
 10
105.9532724562579
 20
126.9244495292114
 30
0.0
 11
105.9129710471813
 21
126.9189917835309
 31
0.0
  0
LINE
  5
3AF
330
E3
100
AcDbEntity
  8
0
  6
Continuous
100
AcDbLine
 10
105.9129710471813
 20
126.9189917835309
 30
0.0
 11
105.8713701748476
 21
126.9135376474705
 31
0.0
  0
LINE
  5
3B0
330
E3
100
AcDbEntity
  8
0
  6
Continuous
100
AcDbLine
 10
105.8713701748476
 20
126.9135376474705
 30
0.0
 11
105.8287874858305
 21
126.9080799017899
 31
0.0
  0
LINE
  5
3B1
330
E3
100
AcDbEntity
  8
0
  6
Continuous
100
AcDbLine
 10
105.8287874858305
 20
126.9080799017899
 30
0.0
 11
105.7855406267041
 21
126.9026221561093
 31
0.0
  0
LINE
  5
3B2
330
E3
100
AcDbEntity
  8
0
  6
Continuous
100
AcDbLine
 10
105.7855406267041
 20
126.9026221561093
 30
0.0
 11
105.7419616825232
 21
126.8971680200489
 31
0.0
  0
LINE
  5
3B3
330
E3
100
AcDbEntity
  8
0
  6
Continuous
100
AcDbLine
 10
105.7419616825232
 20
126.8971680200489
 30
0.0
 11
105.6983827383422
 21
126.8917102743683
 31
0.0
  0
LINE
  5
3B4
330
E3
100
AcDbEntity
  8
0
  6
Continuous
100
AcDbLine
 10
105.6983827383422
 20
126.8917102743683
 30
0.0
 11
105.655139488836
 21
126.8862561383079
 31
0.0
  0
LINE
  5
3B5
330
E3
100
AcDbEntity
  8
0
  6
Continuous
100
AcDbLine
 10
105.655139488836
 20
126.8862561383079
 30
0.0
 11
105.6125531901988
 21
126.8807983926273
 31
0.0
  0
LINE
  5
3B6
330
E3
100
AcDbEntity
  8
0
  6
Continuous
100
AcDbLine
 10
105.6125531901988
 20
126.8807983926273
 30
0.0
 11
105.570952317865
 21
126.8753406469467
 31
0.0
  0
LINE
  5
3B7
330
E3
100
AcDbEntity
  8
0
  6
Continuous
100
AcDbLine
 10
105.570952317865
 20
126.8753406469467
 30
0.0
 11
105.5306545184086
 21
126.8698865108863
 31
0.0
  0
LINE
  5
3B8
330
E3
100
AcDbEntity
  8
0
  6
Continuous
100
AcDbLine
 10
105.5306545184086
 20
126.8698865108863
 30
0.0
 11
105.4919629999231
 21
126.8644287652057
 31
0.0
  0
LINE
  5
3B9
330
E3
100
AcDbEntity
  8
0
  6
Continuous
100
AcDbLine
 10
105.4919629999231
 20
126.8644287652057
 30
0.0
 11
105.4551737512614
 21
126.8589710195251
 31
0.0
  0
LINE
  5
3BA
330
E3
100
AcDbEntity
  8
0
  6
Continuous
100
AcDbLine
 10
105.4551737512614
 20
126.8589710195251
 30
0.0
 11
105.420568322796
 21
126.8535168834647
 31
0.0
  0
LINE
  5
3BB
330
E3
100
AcDbEntity
  8
0
  6
Continuous
100
AcDbLine
 10
105.420568322796
 20
126.8535168834647
 30
0.0
 11
105.3884102167984
 21
126.8480591377841
 31
0.0
  0
LINE
  5
3BC
330
E3
100
AcDbEntity
  8
0
  6
Continuous
100
AcDbLine
 10
105.3884102167984
 20
126.8480591377841
 30
0.0
 11
105.3589412778194
 21
126.8426050017237
 31
0.0
  0
LINE
  5
3BD
330
E3
100
AcDbEntity
  8
0
  6
Continuous
100
AcDbLine
 10
105.3589412778194
 20
126.8426050017237
 30
0.0
 11
105.3323853023088
 21
126.8371472560431
 31
0.0
  0
LINE
  5
3BE
330
E3
100
AcDbEntity
  8
0
  6
Continuous
100
AcDbLine
 10
105.3323853023088
 20
126.8371472560431
 30
0.0
 11
105.3089480386157
 21
126.8316895103626
 31
0.0
  0
LINE
  5
3BF
330
E3
100
AcDbEntity
  8
0
  6
Continuous
100
AcDbLine
 10
105.3089480386157
 20
126.8316895103626
 30
0.0
 11
105.2888063581278
 21
126.8262353743021
 31
0.0
  0
LINE
  5
3C0
330
E3
100
AcDbEntity
  8
0
  6
Continuous
100
AcDbLine
 10
105.2888063581278
 20
126.8262353743021
 30
0.0
 11
105.2721154745121
 21
126.8207776286215
 31
0.0
  0
LINE
  5
3C1
330
E3
100
AcDbEntity
  8
0
  6
Continuous
100
AcDbLine
 10
105.2721154745121
 20
126.8207776286215
 30
0.0
 11
105.2589981148539
 21
126.8153234925611
 31
0.0
  0
LINE
  5
3C2
330
E3
100
AcDbEntity
  8
0
  6
Continuous
100
AcDbLine
 10
105.2589981148539
 20
126.8153234925611
 30
0.0
 11
105.2495589581378
 21
126.8098657468805
 31
0.0
  0
LINE
  5
3C3
330
E3
100
AcDbEntity
  8
0
  6
Continuous
100
AcDbLine
 10
105.2495589581378
 20
126.8098657468805
 30
0.0
 11
105.2438646286877
 21
126.8044092814759
 31
0.0
  0
LINE
  5
3C4
330
E3
100
AcDbEntity
  8
0
  6
Continuous
100
AcDbLine
 10
105.2438646286877
 20
126.8044092814759
 30
0.0
 11
105.2419619777336
 21
126.7989529322696
 31
0.0
  0
LINE
  5
3C5
330
E3
100
AcDbEntity
  8
0
  6
Continuous
100
AcDbLine
 10
106.2419619777336
 20
126.602524360841
 30
0.0
 11
106.2400593267795
 21
126.5970680116346
 31
0.0
  0
LINE
  5
3C6
330
E3
100
AcDbEntity
  8
0
  6
Continuous
100
AcDbLine
 10
106.2400593267795
 20
126.5970680116346
 30
0.0
 11
106.2343658542397
 21
126.5916116624283
 31
0.0
  0
LINE
  5
3C7
330
E3
100
AcDbEntity
  8
0
  6
Continuous
100
AcDbLine
 10
106.2343658542397
 20
126.5916116624283
 30
0.0
 11
106.2249252501925
 21
126.5861559278993
 31
0.0
  0
LINE
  5
3C8
330
E3
100
AcDbEntity
  8
0
  6
Continuous
100
AcDbLine
 10
106.2249252501925
 20
126.5861559278993
 30
0.0
 11
106.2118078905342
 21
126.5806981822187
 31
0.0
  0
LINE
  5
3C9
330
E3
100
AcDbEntity
  8
0
  6
Continuous
100
AcDbLine
 10
106.2118078905342
 20
126.5806981822187
 30
0.0
 11
106.1951170069185
 21
126.5752440461583
 31
0.0
  0
LINE
  5
3CA
330
E3
100
AcDbEntity
  8
0
  6
Continuous
100
AcDbLine
 10
106.1951170069185
 20
126.5752440461583
 30
0.0
 11
106.1749753264307
 21
126.5697863004777
 31
0.0
  0
LINE
  5
3CB
330
E3
100
AcDbEntity
  8
0
  6
Continuous
100
AcDbLine
 10
106.1749753264307
 20
126.5697863004777
 30
0.0
 11
106.1515380627375
 21
126.5643285547971
 31
0.0
  0
LINE
  5
3CC
330
E3
100
AcDbEntity
  8
0
  6
Continuous
100
AcDbLine
 10
106.1515380627375
 20
126.5643285547971
 30
0.0
 11
106.1249856968471
 21
126.5588744187367
 31
0.0
  0
LINE
  5
3CD
330
E3
100
AcDbEntity
  8
0
  6
Continuous
100
AcDbLine
 10
106.1249856968471
 20
126.5588744187367
 30
0.0
 11
106.0955167578681
 21
126.5534166730561
 31
0.0
  0
LINE
  5
3CE
330
E3
100
AcDbEntity
  8
0
  6
Continuous
100
AcDbLine
 10
106.0955167578681
 20
126.5534166730561
 30
0.0
 11
106.0633550422504
 21
126.5479625369957
 31
0.0
  0
LINE
  5
3CF
330
E3
100
AcDbEntity
  8
0
  6
Continuous
100
AcDbLine
 10
106.0633550422504
 20
126.5479625369957
 30
0.0
 11
106.0287496137849
 21
126.5425047913151
 31
0.0
  0
LINE
  5
3D0
330
E3
100
AcDbEntity
  8
0
  6
Continuous
100
AcDbLine
 10
106.0287496137849
 20
126.5425047913151
 30
0.0
 11
105.9919603651232
 21
126.5370470456346
 31
0.0
  0
LINE
  5
3D1
330
E3
100
AcDbEntity
  8
0
  6
Continuous
100
AcDbLine
 10
105.9919603651232
 20
126.5370470456346
 30
0.0
 11
105.9532724562579
 21
126.5315929095741
 31
0.0
  0
LINE
  5
3D2
330
E3
100
AcDbEntity
  8
0
  6
Continuous
100
AcDbLine
 10
105.9532724562579
 20
126.5315929095741
 30
0.0
 11
105.9129710471813
 21
126.5261351638935
 31
0.0
  0
LINE
  5
3D3
330
E3
100
AcDbEntity
  8
0
  6
Continuous
100
AcDbLine
 10
105.9129710471813
 20
126.5261351638935
 30
0.0
 11
105.8713701748476
 21
126.520677418213
 31
0.0
  0
LINE
  5
3D4
330
E3
100
AcDbEntity
  8
0
  6
Continuous
100
AcDbLine
 10
105.8713701748476
 20
126.520677418213
 30
0.0
 11
105.8287874858305
 21
126.5152232821525
 31
0.0
  0
LINE
  5
3D5
330
E3
100
AcDbEntity
  8
0
  6
Continuous
100
AcDbLine
 10
105.8287874858305
 20
126.5152232821525
 30
0.0
 11
105.7855406267041
 21
126.509765536472
 31
0.0
  0
LINE
  5
3D6
330
E3
100
AcDbEntity
  8
0
  6
Continuous
100
AcDbLine
 10
105.7855406267041
 20
126.509765536472
 30
0.0
 11
105.7419616825232
 21
126.5043114004115
 31
0.0
  0
LINE
  5
3D7
330
E3
100
AcDbEntity
  8
0
  6
Continuous
100
AcDbLine
 10
105.7419616825232
 20
126.5043114004115
 30
0.0
 11
105.6983827383422
 21
126.498853654731
 31
0.0
  0
LINE
  5
3D8
330
E3
100
AcDbEntity
  8
0
  6
Continuous
100
AcDbLine
 10
105.6983827383422
 20
126.498853654731
 30
0.0
 11
105.655139488836
 21
126.4933959090504
 31
0.0
  0
LINE
  5
3D9
330
E3
100
AcDbEntity
  8
0
  6
Continuous
100
AcDbLine
 10
105.655139488836
 20
126.4933959090504
 30
0.0
 11
105.6125531901988
 21
126.4879417729899
 31
0.0
  0
LINE
  5
3DA
330
E3
100
AcDbEntity
  8
0
  6
Continuous
100
AcDbLine
 10
105.6125531901988
 20
126.4879417729899
 30
0.0
 11
105.570952317865
 21
126.4824840273094
 31
0.0
  0
LINE
  5
3DB
330
E3
100
AcDbEntity
  8
0
  6
Continuous
100
AcDbLine
 10
105.570952317865
 20
126.4824840273094
 30
0.0
 11
105.5306545184086
 21
126.477029891249
 31
0.0
  0
LINE
  5
3DC
330
E3
100
AcDbEntity
  8
0
  6
Continuous
100
AcDbLine
 10
105.5306545184086
 20
126.477029891249
 30
0.0
 11
105.4919629999231
 21
126.4715721455684
 31
0.0
  0
LINE
  5
3DD
330
E3
100
AcDbEntity
  8
0
  6
Continuous
100
AcDbLine
 10
105.4919629999231
 20
126.4715721455684
 30
0.0
 11
105.4551737512614
 21
126.4661143998878
 31
0.0
  0
LINE
  5
3DE
330
E3
100
AcDbEntity
  8
0
  6
Continuous
100
AcDbLine
 10
105.4551737512614
 20
126.4661143998878
 30
0.0
 11
105.420568322796
 21
126.4606602638274
 31
0.0
  0
LINE
  5
3DF
330
E3
100
AcDbEntity
  8
0
  6
Continuous
100
AcDbLine
 10
105.420568322796
 20
126.4606602638274
 30
0.0
 11
105.3884102167984
 21
126.4552025181468
 31
0.0
  0
LINE
  5
3E0
330
E3
100
AcDbEntity
  8
0
  6
Continuous
100
AcDbLine
 10
105.3884102167984
 20
126.4552025181468
 30
0.0
 11
105.3589412778194
 21
126.4497483820864
 31
0.0
  0
LINE
  5
3E1
330
E3
100
AcDbEntity
  8
0
  6
Continuous
100
AcDbLine
 10
105.3589412778194
 20
126.4497483820864
 30
0.0
 11
105.3323853023088
 21
126.4442906364058
 31
0.0
  0
LINE
  5
3E2
330
E3
100
AcDbEntity
  8
0
  6
Continuous
100
AcDbLine
 10
105.3323853023088
 20
126.4442906364058
 30
0.0
 11
105.3089480386157
 21
126.4388328907252
 31
0.0
  0
LINE
  5
3E3
330
E3
100
AcDbEntity
  8
0
  6
Continuous
100
AcDbLine
 10
105.3089480386157
 20
126.4388328907252
 30
0.0
 11
105.2888063581278
 21
126.4333787546648
 31
0.0
  0
LINE
  5
3E4
330
E3
100
AcDbEntity
  8
0
  6
Continuous
100
AcDbLine
 10
105.2888063581278
 20
126.4333787546648
 30
0.0
 11
105.2721154745121
 21
126.4279210089842
 31
0.0
  0
LINE
  5
3E5
330
E3
100
AcDbEntity
  8
0
  6
Continuous
100
AcDbLine
 10
105.2721154745121
 20
126.4279210089842
 30
0.0
 11
105.2589981148539
 21
126.4224632633036
 31
0.0
  0
LINE
  5
3E6
330
E3
100
AcDbEntity
  8
0
  6
Continuous
100
AcDbLine
 10
105.2589981148539
 20
126.4224632633036
 30
0.0
 11
105.2495589581378
 21
126.4170091272432
 31
0.0
  0
LINE
  5
3E7
330
E3
100
AcDbEntity
  8
0
  6
Continuous
100
AcDbLine
 10
105.2495589581378
 20
126.4170091272432
 30
0.0
 11
105.2438646286877
 21
126.4115521386188
 31
0.0
  0
LINE
  5
3E8
330
E3
100
AcDbEntity
  8
0
  6
Continuous
100
AcDbLine
 10
105.2438646286877
 20
126.4115521386188
 30
0.0
 11
105.2419619777336
 21
126.4060957894124
 31
0.0
  0
LINE
  5
3E9
330
E3
100
AcDbEntity
  8
0
  6
Continuous
100
AcDbLine
 10
106.2419619777336
 20
126.2096672179838
 30
0.0
 11
106.2400593267795
 21
126.2042108687775
 31
0.0
  0
LINE
  5
3EA
330
E3
100
AcDbEntity
  8
0
  6
Continuous
100
AcDbLine
 10
106.2400593267795
 20
126.2042108687775
 30
0.0
 11
106.2343658542397
 21
126.1987545195711
 31
0.0
  0
LINE
  5
3EB
330
E3
100
AcDbEntity
  8
0
  6
Continuous
100
AcDbLine
 10
106.2343658542397
 20
126.1987545195711
 30
0.0
 11
106.2249252501925
 21
126.193299308262
 31
0.0
  0
LINE
  5
3EC
330
E3
100
AcDbEntity
  8
0
  6
Continuous
100
AcDbLine
 10
106.2249252501925
 20
126.193299308262
 30
0.0
 11
106.2118078905342
 21
126.1878415625814
 31
0.0
  0
LINE
  5
3ED
330
E3
100
AcDbEntity
  8
0
  6
Continuous
100
AcDbLine
 10
106.2118078905342
 20
126.1878415625814
 30
0.0
 11
106.1951170069185
 21
126.1823838169008
 31
0.0
  0
LINE
  5
3EE
330
E3
100
AcDbEntity
  8
0
  6
Continuous
100
AcDbLine
 10
106.1951170069185
 20
126.1823838169008
 30
0.0
 11
106.1749753264307
 21
126.1769296808404
 31
0.0
  0
LINE
  5
3EF
330
E3
100
AcDbEntity
  8
0
  6
Continuous
100
AcDbLine
 10
106.1749753264307
 20
126.1769296808404
 30
0.0
 11
106.1515380627375
 21
126.1714719351598
 31
0.0
  0
LINE
  5
3F0
330
E3
100
AcDbEntity
  8
0
  6
Continuous
100
AcDbLine
 10
106.1515380627375
 20
126.1714719351598
 30
0.0
 11
106.1249856968471
 21
126.1660177990994
 31
0.0
  0
LINE
  5
3F1
330
E3
100
AcDbEntity
  8
0
  6
Continuous
100
AcDbLine
 10
106.1249856968471
 20
126.1660177990994
 30
0.0
 11
106.0955167578681
 21
126.1605600534188
 31
0.0
  0
LINE
  5
3F2
330
E3
100
AcDbEntity
  8
0
  6
Continuous
100
AcDbLine
 10
106.0955167578681
 20
126.1605600534188
 30
0.0
 11
106.0633550422504
 21
126.1551023077382
 31
0.0
  0
LINE
  5
3F3
330
E3
100
AcDbEntity
  8
0
  6
Continuous
100
AcDbLine
 10
106.0633550422504
 20
126.1551023077382
 30
0.0
 11
106.0287496137849
 21
126.1496481716778
 31
0.0
  0
LINE
  5
3F4
330
E3
100
AcDbEntity
  8
0
  6
Continuous
100
AcDbLine
 10
106.0287496137849
 20
126.1496481716778
 30
0.0
 11
105.9919603651232
 21
126.1441904259972
 31
0.0
  0
LINE
  5
3F5
330
E3
100
AcDbEntity
  8
0
  6
Continuous
100
AcDbLine
 10
105.9919603651232
 20
126.1441904259972
 30
0.0
 11
105.9532724562579
 21
126.1387362899368
 31
0.0
  0
LINE
  5
3F6
330
E3
100
AcDbEntity
  8
0
  6
Continuous
100
AcDbLine
 10
105.9532724562579
 20
126.1387362899368
 30
0.0
 11
105.9129710471813
 21
126.1332785442562
 31
0.0
  0
LINE
  5
3F7
330
E3
100
AcDbEntity
  8
0
  6
Continuous
100
AcDbLine
 10
105.9129710471813
 20
126.1332785442562
 30
0.0
 11
105.8713701748476
 21
126.1278207985756
 31
0.0
  0
LINE
  5
3F8
330
E3
100
AcDbEntity
  8
0
  6
Continuous
100
AcDbLine
 10
105.8713701748476
 20
126.1278207985756
 30
0.0
 11
105.8287874858305
 21
126.1223666625152
 31
0.0
  0
LINE
  5
3F9
330
E3
100
AcDbEntity
  8
0
  6
Continuous
100
AcDbLine
 10
105.8287874858305
 20
126.1223666625152
 30
0.0
 11
105.7855406267041
 21
126.1169089168346
 31
0.0
  0
LINE
  5
3FA
330
E3
100
AcDbEntity
  8
0
  6
Continuous
100
AcDbLine
 10
105.7855406267041
 20
126.1169089168346
 30
0.0
 11
105.7419616825232
 21
126.111451171154
 31
0.0
  0
LINE
  5
3FB
330
E3
100
AcDbEntity
  8
0
  6
Continuous
100
AcDbLine
 10
105.7419616825232
 20
126.111451171154
 30
0.0
 11
105.6983827383422
 21
126.1059970350936
 31
0.0
  0
LINE
  5
3FC
330
E3
100
AcDbEntity
  8
0
  6
Continuous
100
AcDbLine
 10
105.6983827383422
 20
126.1059970350936
 30
0.0
 11
105.655139488836
 21
126.1005392894131
 31
0.0
  0
LINE
  5
3FD
330
E3
100
AcDbEntity
  8
0
  6
Continuous
100
AcDbLine
 10
105.655139488836
 20
126.1005392894131
 30
0.0
 11
105.6125531901988
 21
126.0950851533526
 31
0.0
  0
LINE
  5
3FE
330
E3
100
AcDbEntity
  8
0
  6
Continuous
100
AcDbLine
 10
105.6125531901988
 20
126.0950851533526
 30
0.0
 11
105.570952317865
 21
126.089627407672
 31
0.0
  0
LINE
  5
3FF
330
E3
100
AcDbEntity
  8
0
  6
Continuous
100
AcDbLine
 10
105.570952317865
 20
126.089627407672
 30
0.0
 11
105.5306545184086
 21
126.0841696619915
 31
0.0
  0
LINE
  5
400
330
E3
100
AcDbEntity
  8
0
  6
Continuous
100
AcDbLine
 10
105.5306545184086
 20
126.0841696619915
 30
0.0
 11
105.4919629999231
 21
126.078715525931
 31
0.0
  0
LINE
  5
401
330
E3
100
AcDbEntity
  8
0
  6
Continuous
100
AcDbLine
 10
105.4919629999231
 20
126.078715525931
 30
0.0
 11
105.4551737512614
 21
126.0732577802505
 31
0.0
  0
LINE
  5
402
330
E3
100
AcDbEntity
  8
0
  6
Continuous
100
AcDbLine
 10
105.4551737512614
 20
126.0732577802505
 30
0.0
 11
105.420568322796
 21
126.06780364419
 31
0.0
  0
LINE
  5
403
330
E3
100
AcDbEntity
  8
0
  6
Continuous
100
AcDbLine
 10
105.420568322796
 20
126.06780364419
 30
0.0
 11
105.3884102167984
 21
126.0623458985094
 31
0.0
  0
LINE
  5
404
330
E3
100
AcDbEntity
  8
0
  6
Continuous
100
AcDbLine
 10
105.3884102167984
 20
126.0623458985094
 30
0.0
 11
105.3589412778194
 21
126.0568881528289
 31
0.0
  0
LINE
  5
405
330
E3
100
AcDbEntity
  8
0
  6
Continuous
100
AcDbLine
 10
105.3589412778194
 20
126.0568881528289
 30
0.0
 11
105.3323853023088
 21
126.0514340167685
 31
0.0
  0
LINE
  5
406
330
E3
100
AcDbEntity
  8
0
  6
Continuous
100
AcDbLine
 10
105.3323853023088
 20
126.0514340167685
 30
0.0
 11
105.3089480386157
 21
126.0459762710879
 31
0.0
  0
LINE
  5
407
330
E3
100
AcDbEntity
  8
0
  6
Continuous
100
AcDbLine
 10
105.3089480386157
 20
126.0459762710879
 30
0.0
 11
105.2888063581278
 21
126.0405221350274
 31
0.0
  0
LINE
  5
408
330
E3
100
AcDbEntity
  8
0
  6
Continuous
100
AcDbLine
 10
105.2888063581278
 20
126.0405221350274
 30
0.0
 11
105.2721154745121
 21
126.0350643893469
 31
0.0
  0
LINE
  5
409
330
E3
100
AcDbEntity
  8
0
  6
Continuous
100
AcDbLine
 10
105.2721154745121
 20
126.0350643893469
 30
0.0
 11
105.2589981148539
 21
126.0296066436663
 31
0.0
  0
LINE
  5
40A
330
E3
100
AcDbEntity
  8
0
  6
Continuous
100
AcDbLine
 10
105.2589981148539
 20
126.0296066436663
 30
0.0
 11
105.2495589581378
 21
126.0241525076059
 31
0.0
  0
LINE
  5
40B
330
E3
100
AcDbEntity
  8
0
  6
Continuous
100
AcDbLine
 10
105.2495589581378
 20
126.0241525076059
 30
0.0
 11
105.2438646286877
 21
126.0186949957616
 31
0.0
  0
LINE
  5
40C
330
E3
100
AcDbEntity
  8
0
  6
Continuous
100
AcDbLine
 10
105.2438646286877
 20
126.0186949957616
 30
0.0
 11
105.2419619777336
 21
126.0132386465553
 31
0.0
  0
LINE
  5
40D
330
E3
100
AcDbEntity
  8
0
  6
Continuous
100
AcDbLine
 10
106.2419619777336
 20
125.8168100751267
 30
0.0
 11
106.2400593267795
 21
125.8113537259203
 31
0.0
  0
LINE
  5
40E
330
E3
100
AcDbEntity
  8
0
  6
Continuous
100
AcDbLine
 10
106.2400593267795
 20
125.8113537259203
 30
0.0
 11
106.2343658542397
 21
125.805897376714
 31
0.0
  0
LINE
  5
40F
330
E3
100
AcDbEntity
  8
0
  6
Continuous
100
AcDbLine
 10
106.2343658542397
 20
125.805897376714
 30
0.0
 11
106.2249252501925
 21
125.8004426886246
 31
0.0
  0
LINE
  5
410
330
E3
100
AcDbEntity
  8
0
  6
Continuous
100
AcDbLine
 10
106.2249252501925
 20
125.8004426886246
 30
0.0
 11
106.2118078905342
 21
125.7949849429441
 31
0.0
  0
LINE
  5
411
330
E3
100
AcDbEntity
  8
0
  6
Continuous
100
AcDbLine
 10
106.2118078905342
 20
125.7949849429441
 30
0.0
 11
106.1951170069185
 21
125.7895271972634
 31
0.0
  0
LINE
  5
412
330
E3
100
AcDbEntity
  8
0
  6
Continuous
100
AcDbLine
 10
106.1951170069185
 20
125.7895271972634
 30
0.0
 11
106.1749753264307
 21
125.784073061203
 31
0.0
  0
LINE
  5
413
330
E3
100
AcDbEntity
  8
0
  6
Continuous
100
AcDbLine
 10
106.1749753264307
 20
125.784073061203
 30
0.0
 11
106.1515380627375
 21
125.7786153155225
 31
0.0
  0
LINE
  5
414
330
E3
100
AcDbEntity
  8
0
  6
Continuous
100
AcDbLine
 10
106.1515380627375
 20
125.7786153155225
 30
0.0
 11
106.1249856968471
 21
125.7731575698419
 31
0.0
  0
LINE
  5
415
330
E3
100
AcDbEntity
  8
0
  6
Continuous
100
AcDbLine
 10
106.1249856968471
 20
125.7731575698419
 30
0.0
 11
106.0955167578681
 21
125.7677034337815
 31
0.0
  0
LINE
  5
416
330
E3
100
AcDbEntity
  8
0
  6
Continuous
100
AcDbLine
 10
106.0955167578681
 20
125.7677034337815
 30
0.0
 11
106.0633550422504
 21
125.7622456881009
 31
0.0
  0
LINE
  5
417
330
E3
100
AcDbEntity
  8
0
  6
Continuous
100
AcDbLine
 10
106.0633550422504
 20
125.7622456881009
 30
0.0
 11
106.0287496137849
 21
125.7567915520405
 31
0.0
  0
LINE
  5
418
330
E3
100
AcDbEntity
  8
0
  6
Continuous
100
AcDbLine
 10
106.0287496137849
 20
125.7567915520405
 30
0.0
 11
105.9919603651232
 21
125.7513338063599
 31
0.0
  0
LINE
  5
419
330
E3
100
AcDbEntity
  8
0
  6
Continuous
100
AcDbLine
 10
105.9919603651232
 20
125.7513338063599
 30
0.0
 11
105.9532724562579
 21
125.7458760606793
 31
0.0
  0
LINE
  5
41A
330
E3
100
AcDbEntity
  8
0
  6
Continuous
100
AcDbLine
 10
105.9532724562579
 20
125.7458760606793
 30
0.0
 11
105.9129710471813
 21
125.7404219246189
 31
0.0
  0
LINE
  5
41B
330
E3
100
AcDbEntity
  8
0
  6
Continuous
100
AcDbLine
 10
105.9129710471813
 20
125.7404219246189
 30
0.0
 11
105.8713701748476
 21
125.7349641789383
 31
0.0
  0
LINE
  5
41C
330
E3
100
AcDbEntity
  8
0
  6
Continuous
100
AcDbLine
 10
105.8713701748476
 20
125.7349641789383
 30
0.0
 11
105.8287874858305
 21
125.7295100428779
 31
0.0
  0
LINE
  5
41D
330
E3
100
AcDbEntity
  8
0
  6
Continuous
100
AcDbLine
 10
105.8287874858305
 20
125.7295100428779
 30
0.0
 11
105.7855406267041
 21
125.7240522971973
 31
0.0
  0
LINE
  5
41E
330
E3
100
AcDbEntity
  8
0
  6
Continuous
100
AcDbLine
 10
105.7855406267041
 20
125.7240522971973
 30
0.0
 11
105.7419616825232
 21
125.7185945515167
 31
0.0
  0
LINE
  5
41F
330
E3
100
AcDbEntity
  8
0
  6
Continuous
100
AcDbLine
 10
105.7419616825232
 20
125.7185945515167
 30
0.0
 11
105.6983827383422
 21
125.7131404154563
 31
0.0
  0
LINE
  5
420
330
E3
100
AcDbEntity
  8
0
  6
Continuous
100
AcDbLine
 10
105.6983827383422
 20
125.7131404154563
 30
0.0
 11
105.655139488836
 21
125.7076826697757
 31
0.0
  0
LINE
  5
421
330
E3
100
AcDbEntity
  8
0
  6
Continuous
100
AcDbLine
 10
105.655139488836
 20
125.7076826697757
 30
0.0
 11
105.6125531901988
 21
125.7022285337153
 31
0.0
  0
LINE
  5
422
330
E3
100
AcDbEntity
  8
0
  6
Continuous
100
AcDbLine
 10
105.6125531901988
 20
125.7022285337153
 30
0.0
 11
105.570952317865
 21
125.6967707880347
 31
0.0
  0
LINE
  5
423
330
E3
100
AcDbEntity
  8
0
  6
Continuous
100
AcDbLine
 10
105.570952317865
 20
125.6967707880347
 30
0.0
 11
105.5306545184086
 21
125.6913130423541
 31
0.0
  0
LINE
  5
424
330
E3
100
AcDbEntity
  8
0
  6
Continuous
100
AcDbLine
 10
105.5306545184086
 20
125.6913130423541
 30
0.0
 11
105.4919629999231
 21
125.6858589062937
 31
0.0
  0
LINE
  5
425
330
E3
100
AcDbEntity
  8
0
  6
Continuous
100
AcDbLine
 10
105.4919629999231
 20
125.6858589062937
 30
0.0
 11
105.4551737512614
 21
125.6804011606131
 31
0.0
  0
LINE
  5
426
330
E3
100
AcDbEntity
  8
0
  6
Continuous
100
AcDbLine
 10
105.4551737512614
 20
125.6804011606131
 30
0.0
 11
105.420568322796
 21
125.6749434149325
 31
0.0
  0
LINE
  5
427
330
E3
100
AcDbEntity
  8
0
  6
Continuous
100
AcDbLine
 10
105.420568322796
 20
125.6749434149325
 30
0.0
 11
105.3884102167984
 21
125.6694892788721
 31
0.0
  0
LINE
  5
428
330
E3
100
AcDbEntity
  8
0
  6
Continuous
100
AcDbLine
 10
105.3884102167984
 20
125.6694892788721
 30
0.0
 11
105.3589412778194
 21
125.6640315331916
 31
0.0
  0
LINE
  5
429
330
E3
100
AcDbEntity
  8
0
  6
Continuous
100
AcDbLine
 10
105.3589412778194
 20
125.6640315331916
 30
0.0
 11
105.3323853023088
 21
125.6585773971311
 31
0.0
  0
LINE
  5
42A
330
E3
100
AcDbEntity
  8
0
  6
Continuous
100
AcDbLine
 10
105.3323853023088
 20
125.6585773971311
 30
0.0
 11
105.3089480386157
 21
125.6531196514505
 31
0.0
  0
LINE
  5
42B
330
E3
100
AcDbEntity
  8
0
  6
Continuous
100
AcDbLine
 10
105.3089480386157
 20
125.6531196514505
 30
0.0
 11
105.2888063581278
 21
125.64766190577
 31
0.0
  0
LINE
  5
42C
330
E3
100
AcDbEntity
  8
0
  6
Continuous
100
AcDbLine
 10
105.2888063581278
 20
125.64766190577
 30
0.0
 11
105.2721154745121
 21
125.6422077697095
 31
0.0
  0
LINE
  5
42D
330
E3
100
AcDbEntity
  8
0
  6
Continuous
100
AcDbLine
 10
105.2721154745121
 20
125.6422077697095
 30
0.0
 11
105.2589981148539
 21
125.636750024029
 31
0.0
  0
LINE
  5
42E
330
E3
100
AcDbEntity
  8
0
  6
Continuous
100
AcDbLine
 10
105.2589981148539
 20
125.636750024029
 30
0.0
 11
105.2495589581378
 21
125.6312958879685
 31
0.0
  0
LINE
  5
42F
330
E3
100
AcDbEntity
  8
0
  6
Continuous
100
AcDbLine
 10
105.2495589581378
 20
125.6312958879685
 30
0.0
 11
105.2438646286877
 21
125.6258378529045
 31
0.0
  0
LINE
  5
430
330
E3
100
AcDbEntity
  8
0
  6
Continuous
100
AcDbLine
 10
105.2438646286877
 20
125.6258378529045
 30
0.0
 11
105.2419619777336
 21
125.6203815036981
 31
0.0
  0
LINE
  5
431
330
E3
100
AcDbEntity
  8
0
  6
Continuous
100
AcDbLine
 10
106.2419619777336
 20
125.4239529322695
 30
0.0
 11
106.2400593267795
 21
125.4184965830632
 31
0.0
  0
LINE
  5
432
330
E3
100
AcDbEntity
  8
0
  6
Continuous
100
AcDbLine
 10
106.2400593267795
 20
125.4184965830632
 30
0.0
 11
106.2343658542397
 21
125.4130402338568
 31
0.0
  0
LINE
  5
433
330
E3
100
AcDbEntity
  8
0
  6
Continuous
100
AcDbLine
 10
106.2343658542397
 20
125.4130402338568
 30
0.0
 11
106.2249252501925
 21
125.4075824593671
 31
0.0
  0
LINE
  5
434
330
E3
100
AcDbEntity
  8
0
  6
Continuous
100
AcDbLine
 10
106.2249252501925
 20
125.4075824593671
 30
0.0
 11
106.2118078905342
 21
125.4021283233067
 31
0.0
  0
LINE
  5
435
330
E3
100
AcDbEntity
  8
0
  6
Continuous
100
AcDbLine
 10
106.2118078905342
 20
125.4021283233067
 30
0.0
 11
106.1951170069185
 21
125.3966705776261
 31
0.0
  0
LINE
  5
436
330
E3
100
AcDbEntity
  8
0
  6
Continuous
100
AcDbLine
 10
106.1951170069185
 20
125.3966705776261
 30
0.0
 11
106.1749753264307
 21
125.3912164415657
 31
0.0
  0
LINE
  5
437
330
E3
100
AcDbEntity
  8
0
  6
Continuous
100
AcDbLine
 10
106.1749753264307
 20
125.3912164415657
 30
0.0
 11
106.1515380627375
 21
125.3857586958851
 31
0.0
  0
LINE
  5
438
330
E3
100
AcDbEntity
  8
0
  6
Continuous
100
AcDbLine
 10
106.1515380627375
 20
125.3857586958851
 30
0.0
 11
106.1249856968471
 21
125.3803009502045
 31
0.0
  0
LINE
  5
439
330
E3
100
AcDbEntity
  8
0
  6
Continuous
100
AcDbLine
 10
106.1249856968471
 20
125.3803009502045
 30
0.0
 11
106.0955167578681
 21
125.3748468141441
 31
0.0
  0
LINE
  5
43A
330
E3
100
AcDbEntity
  8
0
  6
Continuous
100
AcDbLine
 10
106.0955167578681
 20
125.3748468141441
 30
0.0
 11
106.0633550422504
 21
125.3693890684636
 31
0.0
  0
LINE
  5
43B
330
E3
100
AcDbEntity
  8
0
  6
Continuous
100
AcDbLine
 10
106.0633550422504
 20
125.3693890684636
 30
0.0
 11
106.0287496137849
 21
125.3639313227829
 31
0.0
  0
LINE
  5
43C
330
E3
100
AcDbEntity
  8
0
  6
Continuous
100
AcDbLine
 10
106.0287496137849
 20
125.3639313227829
 30
0.0
 11
105.9919603651232
 21
125.3584771867226
 31
0.0
  0
LINE
  5
43D
330
E3
100
AcDbEntity
  8
0
  6
Continuous
100
AcDbLine
 10
105.9919603651232
 20
125.3584771867226
 30
0.0
 11
105.9532724562579
 21
125.353019441042
 31
0.0
  0
LINE
  5
43E
330
E3
100
AcDbEntity
  8
0
  6
Continuous
100
AcDbLine
 10
105.9532724562579
 20
125.353019441042
 30
0.0
 11
105.9129710471813
 21
125.3475653049815
 31
0.0
  0
LINE
  5
43F
330
E3
100
AcDbEntity
  8
0
  6
Continuous
100
AcDbLine
 10
105.9129710471813
 20
125.3475653049815
 30
0.0
 11
105.8713701748476
 21
125.342107559301
 31
0.0
  0
LINE
  5
440
330
E3
100
AcDbEntity
  8
0
  6
Continuous
100
AcDbLine
 10
105.8713701748476
 20
125.342107559301
 30
0.0
 11
105.8287874858305
 21
125.3366498136204
 31
0.0
  0
LINE
  5
441
330
E3
100
AcDbEntity
  8
0
  6
Continuous
100
AcDbLine
 10
105.8287874858305
 20
125.3366498136204
 30
0.0
 11
105.7855406267041
 21
125.33119567756
 31
0.0
  0
LINE
  5
442
330
E3
100
AcDbEntity
  8
0
  6
Continuous
100
AcDbLine
 10
105.7855406267041
 20
125.33119567756
 30
0.0
 11
105.7419616825232
 21
125.3257379318794
 31
0.0
  0
LINE
  5
443
330
E3
100
AcDbEntity
  8
0
  6
Continuous
100
AcDbLine
 10
105.7419616825232
 20
125.3257379318794
 30
0.0
 11
105.6983827383422
 21
125.3202837958189
 31
0.0
  0
LINE
  5
444
330
E3
100
AcDbEntity
  8
0
  6
Continuous
100
AcDbLine
 10
105.6983827383422
 20
125.3202837958189
 30
0.0
 11
105.655139488836
 21
125.3148260501384
 31
0.0
  0
LINE
  5
445
330
E3
100
AcDbEntity
  8
0
  6
Continuous
100
AcDbLine
 10
105.655139488836
 20
125.3148260501384
 30
0.0
 11
105.6125531901988
 21
125.3093683044578
 31
0.0
  0
LINE
  5
446
330
E3
100
AcDbEntity
  8
0
  6
Continuous
100
AcDbLine
 10
105.6125531901988
 20
125.3093683044578
 30
0.0
 11
105.570952317865
 21
125.3039141683974
 31
0.0
  0
LINE
  5
447
330
E3
100
AcDbEntity
  8
0
  6
Continuous
100
AcDbLine
 10
105.570952317865
 20
125.3039141683974
 30
0.0
 11
105.5306545184086
 21
125.2984564227168
 31
0.0
  0
LINE
  5
448
330
E3
100
AcDbEntity
  8
0
  6
Continuous
100
AcDbLine
 10
105.5306545184086
 20
125.2984564227168
 30
0.0
 11
105.4919629999231
 21
125.2930022866563
 31
0.0
  0
LINE
  5
449
330
E3
100
AcDbEntity
  8
0
  6
Continuous
100
AcDbLine
 10
105.4919629999231
 20
125.2930022866563
 30
0.0
 11
105.4551737512614
 21
125.2875445409758
 31
0.0
  0
LINE
  5
44A
330
E3
100
AcDbEntity
  8
0
  6
Continuous
100
AcDbLine
 10
105.4551737512614
 20
125.2875445409758
 30
0.0
 11
105.420568322796
 21
125.2820867952952
 31
0.0
  0
LINE
  5
44B
330
E3
100
AcDbEntity
  8
0
  6
Continuous
100
AcDbLine
 10
105.420568322796
 20
125.2820867952952
 30
0.0
 11
105.3884102167984
 21
125.2766326592348
 31
0.0
  0
LINE
  5
44C
330
E3
100
AcDbEntity
  8
0
  6
Continuous
100
AcDbLine
 10
105.3884102167984
 20
125.2766326592348
 30
0.0
 11
105.3589412778194
 21
125.2711749135542
 31
0.0
  0
LINE
  5
44D
330
E3
100
AcDbEntity
  8
0
  6
Continuous
100
AcDbLine
 10
105.3589412778194
 20
125.2711749135542
 30
0.0
 11
105.3323853023088
 21
125.2657171678736
 31
0.0
  0
LINE
  5
44E
330
E3
100
AcDbEntity
  8
0
  6
Continuous
100
AcDbLine
 10
105.3323853023088
 20
125.2657171678736
 30
0.0
 11
105.3089480386157
 21
125.2602630318132
 31
0.0
  0
LINE
  5
44F
330
E3
100
AcDbEntity
  8
0
  6
Continuous
100
AcDbLine
 10
105.3089480386157
 20
125.2602630318132
 30
0.0
 11
105.2888063581278
 21
125.2548052861326
 31
0.0
  0
LINE
  5
450
330
E3
100
AcDbEntity
  8
0
  6
Continuous
100
AcDbLine
 10
105.2888063581278
 20
125.2548052861326
 30
0.0
 11
105.2721154745121
 21
125.2493511500722
 31
0.0
  0
LINE
  5
451
330
E3
100
AcDbEntity
  8
0
  6
Continuous
100
AcDbLine
 10
105.2721154745121
 20
125.2493511500722
 30
0.0
 11
105.2589981148539
 21
125.2438934043916
 31
0.0
  0
LINE
  5
452
330
E3
100
AcDbEntity
  8
0
  6
Continuous
100
AcDbLine
 10
105.2589981148539
 20
125.2438934043916
 30
0.0
 11
105.2495589581378
 21
125.2384356587111
 31
0.0
  0
LINE
  5
453
330
E3
100
AcDbEntity
  8
0
  6
Continuous
100
AcDbLine
 10
105.2495589581378
 20
125.2384356587111
 30
0.0
 11
105.2438646286877
 21
125.2329807100473
 31
0.0
  0
LINE
  5
454
330
E3
100
AcDbEntity
  8
0
  6
Continuous
100
AcDbLine
 10
105.2438646286877
 20
125.2329807100473
 30
0.0
 11
105.2419619777336
 21
125.227524360841
 31
0.0
  0
LINE
  5
455
330
E3
100
AcDbEntity
  8
0
  6
Continuous
100
AcDbLine
 10
106.2419619777336
 20
125.0310957894124
 30
0.0
 11
106.2400593267795
 21
125.0256394402061
 31
0.0
  0
LINE
  5
456
330
E3
100
AcDbEntity
  8
0
  6
Continuous
100
AcDbLine
 10
106.2400593267795
 20
125.0256394402061
 30
0.0
 11
106.2343658542397
 21
125.0201830909997
 31
0.0
  0
LINE
  5
457
330
E3
100
AcDbEntity
  8
0
  6
Continuous
100
AcDbLine
 10
106.2343658542397
 20
125.0201830909997
 30
0.0
 11
106.2249252501925
 21
125.0147258397298
 31
0.0
  0
LINE
  5
458
330
E3
100
AcDbEntity
  8
0
  6
Continuous
100
AcDbLine
 10
106.2249252501925
 20
125.0147258397298
 30
0.0
 11
106.2118078905342
 21
125.0092717036694
 31
0.0
  0
LINE
  5
459
330
E3
100
AcDbEntity
  8
0
  6
Continuous
100
AcDbLine
 10
106.2118078905342
 20
125.0092717036694
 30
0.0
 11
106.1951170069185
 21
125.0038139579888
 31
0.0
  0
LINE
  5
45A
330
E3
100
AcDbEntity
  8
0
  6
Continuous
100
AcDbLine
 10
106.1951170069185
 20
125.0038139579888
 30
0.0
 11
106.1749753264307
 21
124.9983562123082
 31
0.0
  0
LINE
  5
45B
330
E3
100
AcDbEntity
  8
0
  6
Continuous
100
AcDbLine
 10
106.1749753264307
 20
124.9983562123082
 30
0.0
 11
106.1515380627375
 21
124.9929020762478
 31
0.0
  0
LINE
  5
45C
330
E3
100
AcDbEntity
  8
0
  6
Continuous
100
AcDbLine
 10
106.1515380627375
 20
124.9929020762478
 30
0.0
 11
106.1249856968471
 21
124.9874443305672
 31
0.0
  0
LINE
  5
45D
330
E3
100
AcDbEntity
  8
0
  6
Continuous
100
AcDbLine
 10
106.1249856968471
 20
124.9874443305672
 30
0.0
 11
106.0955167578681
 21
124.9819901945068
 31
0.0
  0
LINE
  5
45E
330
E3
100
AcDbEntity
  8
0
  6
Continuous
100
AcDbLine
 10
106.0955167578681
 20
124.9819901945068
 30
0.0
 11
106.0633550422504
 21
124.9765324488262
 31
0.0
  0
LINE
  5
45F
330
E3
100
AcDbEntity
  8
0
  6
Continuous
100
AcDbLine
 10
106.0633550422504
 20
124.9765324488262
 30
0.0
 11
106.0287496137849
 21
124.9710747031456
 31
0.0
  0
LINE
  5
460
330
E3
100
AcDbEntity
  8
0
  6
Continuous
100
AcDbLine
 10
106.0287496137849
 20
124.9710747031456
 30
0.0
 11
105.9919603651232
 21
124.9656205670852
 31
0.0
  0
LINE
  5
461
330
E3
100
AcDbEntity
  8
0
  6
Continuous
100
AcDbLine
 10
105.9919603651232
 20
124.9656205670852
 30
0.0
 11
105.9532724562579
 21
124.9601628214046
 31
0.0
  0
LINE
  5
462
330
E3
100
AcDbEntity
  8
0
  6
Continuous
100
AcDbLine
 10
105.9532724562579
 20
124.9601628214046
 30
0.0
 11
105.9129710471813
 21
124.9547086853442
 31
0.0
  0
LINE
  5
463
330
E3
100
AcDbEntity
  8
0
  6
Continuous
100
AcDbLine
 10
105.9129710471813
 20
124.9547086853442
 30
0.0
 11
105.8713701748476
 21
124.9492509396636
 31
0.0
  0
LINE
  5
464
330
E3
100
AcDbEntity
  8
0
  6
Continuous
100
AcDbLine
 10
105.8713701748476
 20
124.9492509396636
 30
0.0
 11
105.8287874858305
 21
124.9437931939831
 31
0.0
  0
LINE
  5
465
330
E3
100
AcDbEntity
  8
0
  6
Continuous
100
AcDbLine
 10
105.8287874858305
 20
124.9437931939831
 30
0.0
 11
105.7855406267041
 21
124.9383390579226
 31
0.0
  0
LINE
  5
466
330
E3
100
AcDbEntity
  8
0
  6
Continuous
100
AcDbLine
 10
105.7855406267041
 20
124.9383390579226
 30
0.0
 11
105.7419616825232
 21
124.932881312242
 31
0.0
  0
LINE
  5
467
330
E3
100
AcDbEntity
  8
0
  6
Continuous
100
AcDbLine
 10
105.7419616825232
 20
124.932881312242
 30
0.0
 11
105.6983827383422
 21
124.9274235665615
 31
0.0
  0
LINE
  5
468
330
E3
100
AcDbEntity
  8
0
  6
Continuous
100
AcDbLine
 10
105.6983827383422
 20
124.9274235665615
 30
0.0
 11
105.655139488836
 21
124.921969430501
 31
0.0
  0
LINE
  5
469
330
E3
100
AcDbEntity
  8
0
  6
Continuous
100
AcDbLine
 10
105.655139488836
 20
124.921969430501
 30
0.0
 11
105.6125531901988
 21
124.9165116848205
 31
0.0
  0
LINE
  5
46A
330
E3
100
AcDbEntity
  8
0
  6
Continuous
100
AcDbLine
 10
105.6125531901988
 20
124.9165116848205
 30
0.0
 11
105.570952317865
 21
124.91105754876
 31
0.0
  0
LINE
  5
46B
330
E3
100
AcDbEntity
  8
0
  6
Continuous
100
AcDbLine
 10
105.570952317865
 20
124.91105754876
 30
0.0
 11
105.5306545184086
 21
124.9055998030795
 31
0.0
  0
LINE
  5
46C
330
E3
100
AcDbEntity
  8
0
  6
Continuous
100
AcDbLine
 10
105.5306545184086
 20
124.9055998030795
 30
0.0
 11
105.4919629999231
 21
124.9001420573989
 31
0.0
  0
LINE
  5
46D
330
E3
100
AcDbEntity
  8
0
  6
Continuous
100
AcDbLine
 10
105.4919629999231
 20
124.9001420573989
 30
0.0
 11
105.4551737512614
 21
124.8946879213385
 31
0.0
  0
LINE
  5
46E
330
E3
100
AcDbEntity
  8
0
  6
Continuous
100
AcDbLine
 10
105.4551737512614
 20
124.8946879213385
 30
0.0
 11
105.420568322796
 21
124.8892301756579
 31
0.0
  0
LINE
  5
46F
330
E3
100
AcDbEntity
  8
0
  6
Continuous
100
AcDbLine
 10
105.420568322796
 20
124.8892301756579
 30
0.0
 11
105.3884102167984
 21
124.8837760395974
 31
0.0
  0
LINE
  5
470
330
E3
100
AcDbEntity
  8
0
  6
Continuous
100
AcDbLine
 10
105.3884102167984
 20
124.8837760395974
 30
0.0
 11
105.3589412778194
 21
124.8783182939169
 31
0.0
  0
LINE
  5
471
330
E3
100
AcDbEntity
  8
0
  6
Continuous
100
AcDbLine
 10
105.3589412778194
 20
124.8783182939169
 30
0.0
 11
105.3323853023088
 21
124.8728605482363
 31
0.0
  0
LINE
  5
472
330
E3
100
AcDbEntity
  8
0
  6
Continuous
100
AcDbLine
 10
105.3323853023088
 20
124.8728605482363
 30
0.0
 11
105.3089480386157
 21
124.8674064121759
 31
0.0
  0
LINE
  5
473
330
E3
100
AcDbEntity
  8
0
  6
Continuous
100
AcDbLine
 10
105.3089480386157
 20
124.8674064121759
 30
0.0
 11
105.2888063581278
 21
124.8619486664953
 31
0.0
  0
LINE
  5
474
330
E3
100
AcDbEntity
  8
0
  6
Continuous
100
AcDbLine
 10
105.2888063581278
 20
124.8619486664953
 30
0.0
 11
105.2721154745121
 21
124.8564909208147
 31
0.0
  0
LINE
  5
475
330
E3
100
AcDbEntity
  8
0
  6
Continuous
100
AcDbLine
 10
105.2721154745121
 20
124.8564909208147
 30
0.0
 11
105.2589981148539
 21
124.8510367847543
 31
0.0
  0
LINE
  5
476
330
E3
100
AcDbEntity
  8
0
  6
Continuous
100
AcDbLine
 10
105.2589981148539
 20
124.8510367847543
 30
0.0
 11
105.2495589581378
 21
124.8455790390737
 31
0.0
  0
LINE
  5
477
330
E3
100
AcDbEntity
  8
0
  6
Continuous
100
AcDbLine
 10
105.2495589581378
 20
124.8455790390737
 30
0.0
 11
105.2438646286877
 21
124.8401235671902
 31
0.0
  0
LINE
  5
478
330
E3
100
AcDbEntity
  8
0
  6
Continuous
100
AcDbLine
 10
105.2438646286877
 20
124.8401235671902
 30
0.0
 11
105.2419619777336
 21
124.8346672179838
 31
0.0
  0
LINE
  5
479
330
E3
100
AcDbEntity
  8
0
  6
Continuous
100
AcDbLine
 10
106.2419619777336
 20
124.6382386465553
 30
0.0
 11
106.2400593267795
 21
124.6327822973489
 31
0.0
  0
LINE
  5
47A
330
E3
100
AcDbEntity
  8
0
  6
Continuous
100
AcDbLine
 10
106.2400593267795
 20
124.6327822973489
 30
0.0
 11
106.2343658542397
 21
124.6273259481426
 31
0.0
  0
LINE
  5
47B
330
E3
100
AcDbEntity
  8
0
  6
Continuous
100
AcDbLine
 10
106.2343658542397
 20
124.6273259481426
 30
0.0
 11
106.2249252501925
 21
124.6218692200924
 31
0.0
  0
LINE
  5
47C
330
E3
100
AcDbEntity
  8
0
  6
Continuous
100
AcDbLine
 10
106.2249252501925
 20
124.6218692200924
 30
0.0
 11
106.2118078905342
 21
124.6164114744119
 31
0.0
  0
LINE
  5
47D
330
E3
100
AcDbEntity
  8
0
  6
Continuous
100
AcDbLine
 10
106.2118078905342
 20
124.6164114744119
 30
0.0
 11
106.1951170069185
 21
124.6109573383515
 31
0.0
  0
LINE
  5
47E
330
E3
100
AcDbEntity
  8
0
  6
Continuous
100
AcDbLine
 10
106.1951170069185
 20
124.6109573383515
 30
0.0
 11
106.1749753264307
 21
124.6054995926709
 31
0.0
  0
LINE
  5
47F
330
E3
100
AcDbEntity
  8
0
  6
Continuous
100
AcDbLine
 10
106.1749753264307
 20
124.6054995926709
 30
0.0
 11
106.1515380627375
 21
124.6000454566105
 31
0.0
  0
LINE
  5
480
330
E3
100
AcDbEntity
  8
0
  6
Continuous
100
AcDbLine
 10
106.1515380627375
 20
124.6000454566105
 30
0.0
 11
106.1249856968471
 21
124.5945877109299
 31
0.0
  0
LINE
  5
481
330
E3
100
AcDbEntity
  8
0
  6
Continuous
100
AcDbLine
 10
106.1249856968471
 20
124.5945877109299
 30
0.0
 11
106.0955167578681
 21
124.5891299652493
 31
0.0
  0
LINE
  5
482
330
E3
100
AcDbEntity
  8
0
  6
Continuous
100
AcDbLine
 10
106.0955167578681
 20
124.5891299652493
 30
0.0
 11
106.0633550422504
 21
124.5836758291889
 31
0.0
  0
LINE
  5
483
330
E3
100
AcDbEntity
  8
0
  6
Continuous
100
AcDbLine
 10
106.0633550422504
 20
124.5836758291889
 30
0.0
 11
106.0287496137849
 21
124.5782180835083
 31
0.0
  0
LINE
  5
484
330
E3
100
AcDbEntity
  8
0
  6
Continuous
100
AcDbLine
 10
106.0287496137849
 20
124.5782180835083
 30
0.0
 11
105.9919603651232
 21
124.5727639474479
 31
0.0
  0
LINE
  5
485
330
E3
100
AcDbEntity
  8
0
  6
Continuous
100
AcDbLine
 10
105.9919603651232
 20
124.5727639474479
 30
0.0
 11
105.9532724562579
 21
124.5673062017673
 31
0.0
  0
LINE
  5
486
330
E3
100
AcDbEntity
  8
0
  6
Continuous
100
AcDbLine
 10
105.9532724562579
 20
124.5673062017673
 30
0.0
 11
105.9129710471813
 21
124.5618484560867
 31
0.0
  0
LINE
  5
487
330
E3
100
AcDbEntity
  8
0
  6
Continuous
100
AcDbLine
 10
105.9129710471813
 20
124.5618484560867
 30
0.0
 11
105.8713701748476
 21
124.5563943200263
 31
0.0
  0
LINE
  5
488
330
E3
100
AcDbEntity
  8
0
  6
Continuous
100
AcDbLine
 10
105.8713701748476
 20
124.5563943200263
 30
0.0
 11
105.8287874858305
 21
124.5509365743457
 31
0.0
  0
LINE
  5
489
330
E3
100
AcDbEntity
  8
0
  6
Continuous
100
AcDbLine
 10
105.8287874858305
 20
124.5509365743457
 30
0.0
 11
105.7855406267041
 21
124.5454824382853
 31
0.0
  0
LINE
  5
48A
330
E3
100
AcDbEntity
  8
0
  6
Continuous
100
AcDbLine
 10
105.7855406267041
 20
124.5454824382853
 30
0.0
 11
105.7419616825232
 21
124.5400246926047
 31
0.0
  0
LINE
  5
48B
330
E3
100
AcDbEntity
  8
0
  6
Continuous
100
AcDbLine
 10
105.7419616825232
 20
124.5400246926047
 30
0.0
 11
105.6983827383422
 21
124.5345669469241
 31
0.0
  0
LINE
  5
48C
330
E3
100
AcDbEntity
  8
0
  6
Continuous
100
AcDbLine
 10
105.6983827383422
 20
124.5345669469241
 30
0.0
 11
105.655139488836
 21
124.5291128108637
 31
0.0
  0
LINE
  5
48D
330
E3
100
AcDbEntity
  8
0
  6
Continuous
100
AcDbLine
 10
105.655139488836
 20
124.5291128108637
 30
0.0
 11
105.6125531901988
 21
124.5236550651831
 31
0.0
  0
LINE
  5
48E
330
E3
100
AcDbEntity
  8
0
  6
Continuous
100
AcDbLine
 10
105.6125531901988
 20
124.5236550651831
 30
0.0
 11
105.570952317865
 21
124.5181973195025
 31
0.0
  0
LINE
  5
48F
330
E3
100
AcDbEntity
  8
0
  6
Continuous
100
AcDbLine
 10
105.570952317865
 20
124.5181973195025
 30
0.0
 11
105.5306545184086
 21
124.5127431834421
 31
0.0
  0
LINE
  5
490
330
E3
100
AcDbEntity
  8
0
  6
Continuous
100
AcDbLine
 10
105.5306545184086
 20
124.5127431834421
 30
0.0
 11
105.4919629999231
 21
124.5072854377615
 31
0.0
  0
LINE
  5
491
330
E3
100
AcDbEntity
  8
0
  6
Continuous
100
AcDbLine
 10
105.4919629999231
 20
124.5072854377615
 30
0.0
 11
105.4551737512614
 21
124.5018313017011
 31
0.0
  0
LINE
  5
492
330
E3
100
AcDbEntity
  8
0
  6
Continuous
100
AcDbLine
 10
105.4551737512614
 20
124.5018313017011
 30
0.0
 11
105.420568322796
 21
124.4963735560205
 31
0.0
  0
LINE
  5
493
330
E3
100
AcDbEntity
  8
0
  6
Continuous
100
AcDbLine
 10
105.420568322796
 20
124.4963735560205
 30
0.0
 11
105.3884102167984
 21
124.49091581034
 31
0.0
  0
LINE
  5
494
330
E3
100
AcDbEntity
  8
0
  6
Continuous
100
AcDbLine
 10
105.3884102167984
 20
124.49091581034
 30
0.0
 11
105.3589412778194
 21
124.4854616742795
 31
0.0
  0
LINE
  5
495
330
E3
100
AcDbEntity
  8
0
  6
Continuous
100
AcDbLine
 10
105.3589412778194
 20
124.4854616742795
 30
0.0
 11
105.3323853023088
 21
124.480003928599
 31
0.0
  0
LINE
  5
496
330
E3
100
AcDbEntity
  8
0
  6
Continuous
100
AcDbLine
 10
105.3323853023088
 20
124.480003928599
 30
0.0
 11
105.3089480386157
 21
124.4745497925385
 31
0.0
  0
LINE
  5
497
330
E3
100
AcDbEntity
  8
0
  6
Continuous
100
AcDbLine
 10
105.3089480386157
 20
124.4745497925385
 30
0.0
 11
105.2888063581278
 21
124.469092046858
 31
0.0
  0
LINE
  5
498
330
E3
100
AcDbEntity
  8
0
  6
Continuous
100
AcDbLine
 10
105.2888063581278
 20
124.469092046858
 30
0.0
 11
105.2721154745121
 21
124.4636343011774
 31
0.0
  0
LINE
  5
499
330
E3
100
AcDbEntity
  8
0
  6
Continuous
100
AcDbLine
 10
105.2721154745121
 20
124.4636343011774
 30
0.0
 11
105.2589981148539
 21
124.458180165117
 31
0.0
  0
LINE
  5
49A
330
E3
100
AcDbEntity
  8
0
  6
Continuous
100
AcDbLine
 10
105.2589981148539
 20
124.458180165117
 30
0.0
 11
105.2495589581378
 21
124.4527224194364
 31
0.0
  0
LINE
  5
49B
330
E3
100
AcDbEntity
  8
0
  6
Continuous
100
AcDbLine
 10
105.2495589581378
 20
124.4527224194364
 30
0.0
 11
105.2438646286877
 21
124.447266424333
 31
0.0
  0
LINE
  5
49C
330
E3
100
AcDbEntity
  8
0
  6
Continuous
100
AcDbLine
 10
105.2438646286877
 20
124.447266424333
 30
0.0
 11
105.2419619777336
 21
124.4418100751267
 31
0.0
  0
LINE
  5
49D
330
E3
100
AcDbEntity
  8
0
  6
Continuous
100
AcDbLine
 10
106.2419619777336
 20
124.2453815036981
 30
0.0
 11
106.2400593267795
 21
124.2399251544918
 31
0.0
  0
LINE
  5
49E
330
E3
100
AcDbEntity
  8
0
  6
Continuous
100
AcDbLine
 10
106.2400593267795
 20
124.2399251544918
 30
0.0
 11
106.2343658542397
 21
124.2344688052854
 31
0.0
  0
LINE
  5
49F
330
E3
100
AcDbEntity
  8
0
  6
Continuous
100
AcDbLine
 10
106.2343658542397
 20
124.2344688052854
 30
0.0
 11
106.2249252501925
 21
124.2290126004551
 31
0.0
  0
LINE
  5
4A0
330
E3
100
AcDbEntity
  8
0
  6
Continuous
100
AcDbLine
 10
106.2249252501925
 20
124.2290126004551
 30
0.0
 11
106.2118078905342
 21
124.2235548547745
 31
0.0
  0
LINE
  5
4A1
330
E3
100
AcDbEntity
  8
0
  6
Continuous
100
AcDbLine
 10
106.2118078905342
 20
124.2235548547745
 30
0.0
 11
106.1951170069185
 21
124.2181007187141
 31
0.0
  0
LINE
  5
4A2
330
E3
100
AcDbEntity
  8
0
  6
Continuous
100
AcDbLine
 10
106.1951170069185
 20
124.2181007187141
 30
0.0
 11
106.1749753264307
 21
124.2126429730335
 31
0.0
  0
LINE
  5
4A3
330
E3
100
AcDbEntity
  8
0
  6
Continuous
100
AcDbLine
 10
106.1749753264307
 20
124.2126429730335
 30
0.0
 11
106.1515380627375
 21
124.2071888369731
 31
0.0
  0
LINE
  5
4A4
330
E3
100
AcDbEntity
  8
0
  6
Continuous
100
AcDbLine
 10
106.1515380627375
 20
124.2071888369731
 30
0.0
 11
106.1249856968471
 21
124.2017310912926
 31
0.0
  0
LINE
  5
4A5
330
E3
100
AcDbEntity
  8
0
  6
Continuous
100
AcDbLine
 10
106.1249856968471
 20
124.2017310912926
 30
0.0
 11
106.0955167578681
 21
124.196273345612
 31
0.0
  0
LINE
  5
4A6
330
E3
100
AcDbEntity
  8
0
  6
Continuous
100
AcDbLine
 10
106.0955167578681
 20
124.196273345612
 30
0.0
 11
106.0633550422504
 21
124.1908192095515
 31
0.0
  0
LINE
  5
4A7
330
E3
100
AcDbEntity
  8
0
  6
Continuous
100
AcDbLine
 10
106.0633550422504
 20
124.1908192095515
 30
0.0
 11
106.0287496137849
 21
124.185361463871
 31
0.0
  0
LINE
  5
4A8
330
E3
100
AcDbEntity
  8
0
  6
Continuous
100
AcDbLine
 10
106.0287496137849
 20
124.185361463871
 30
0.0
 11
105.9919603651232
 21
124.1799037181904
 31
0.0
  0
LINE
  5
4A9
330
E3
100
AcDbEntity
  8
0
  6
Continuous
100
AcDbLine
 10
105.9919603651232
 20
124.1799037181904
 30
0.0
 11
105.9532724562579
 21
124.17444958213
 31
0.0
  0
LINE
  5
4AA
330
E3
100
AcDbEntity
  8
0
  6
Continuous
100
AcDbLine
 10
105.9532724562579
 20
124.17444958213
 30
0.0
 11
105.9129710471813
 21
124.1689918364494
 31
0.0
  0
LINE
  5
4AB
330
E3
100
AcDbEntity
  8
0
  6
Continuous
100
AcDbLine
 10
105.9129710471813
 20
124.1689918364494
 30
0.0
 11
105.8713701748476
 21
124.163537700389
 31
0.0
  0
LINE
  5
4AC
330
E3
100
AcDbEntity
  8
0
  6
Continuous
100
AcDbLine
 10
105.8713701748476
 20
124.163537700389
 30
0.0
 11
105.8287874858305
 21
124.1580799547084
 31
0.0
  0
LINE
  5
4AD
330
E3
100
AcDbEntity
  8
0
  6
Continuous
100
AcDbLine
 10
105.8287874858305
 20
124.1580799547084
 30
0.0
 11
105.7855406267041
 21
124.1526222090278
 31
0.0
  0
LINE
  5
4AE
330
E3
100
AcDbEntity
  8
0
  6
Continuous
100
AcDbLine
 10
105.7855406267041
 20
124.1526222090278
 30
0.0
 11
105.7419616825232
 21
124.1471680729674
 31
0.0
  0
LINE
  5
4AF
330
E3
100
AcDbEntity
  8
0
  6
Continuous
100
AcDbLine
 10
105.7419616825232
 20
124.1471680729674
 30
0.0
 11
105.6983827383422
 21
124.1417103272868
 31
0.0
  0
LINE
  5
4B0
330
E3
100
AcDbEntity
  8
0
  6
Continuous
100
AcDbLine
 10
105.6983827383422
 20
124.1417103272868
 30
0.0
 11
105.655139488836
 21
124.1362561912264
 31
0.0
  0
LINE
  5
4B1
330
E3
100
AcDbEntity
  8
0
  6
Continuous
100
AcDbLine
 10
105.655139488836
 20
124.1362561912264
 30
0.0
 11
105.6125531901988
 21
124.1307984455458
 31
0.0
  0
LINE
  5
4B2
330
E3
100
AcDbEntity
  8
0
  6
Continuous
100
AcDbLine
 10
105.6125531901988
 20
124.1307984455458
 30
0.0
 11
105.570952317865
 21
124.1253406998652
 31
0.0
  0
LINE
  5
4B3
330
E3
100
AcDbEntity
  8
0
  6
Continuous
100
AcDbLine
 10
105.570952317865
 20
124.1253406998652
 30
0.0
 11
105.5306545184086
 21
124.1198865638048
 31
0.0
  0
LINE
  5
4B4
330
E3
100
AcDbEntity
  8
0
  6
Continuous
100
AcDbLine
 10
105.5306545184086
 20
124.1198865638048
 30
0.0
 11
105.4919629999231
 21
124.1144288181242
 31
0.0
  0
LINE
  5
4B5
330
E3
100
AcDbEntity
  8
0
  6
Continuous
100
AcDbLine
 10
105.4919629999231
 20
124.1144288181242
 30
0.0
 11
105.4551737512614
 21
124.1089710724436
 31
0.0
  0
LINE
  5
4B6
330
E3
100
AcDbEntity
  8
0
  6
Continuous
100
AcDbLine
 10
105.4551737512614
 20
124.1089710724436
 30
0.0
 11
105.420568322796
 21
124.1035169363832
 31
0.0
  0
LINE
  5
4B7
330
E3
100
AcDbEntity
  8
0
  6
Continuous
100
AcDbLine
 10
105.420568322796
 20
124.1035169363832
 30
0.0
 11
105.3884102167984
 21
124.0980591907026
 31
0.0
  0
LINE
  5
4B8
330
E3
100
AcDbEntity
  8
0
  6
Continuous
100
AcDbLine
 10
105.3884102167984
 20
124.0980591907026
 30
0.0
 11
105.3589412778194
 21
124.0926050546422
 31
0.0
  0
LINE
  5
4B9
330
E3
100
AcDbEntity
  8
0
  6
Continuous
100
AcDbLine
 10
105.3589412778194
 20
124.0926050546422
 30
0.0
 11
105.3323853023088
 21
124.0871473089616
 31
0.0
  0
LINE
  5
4BA
330
E3
100
AcDbEntity
  8
0
  6
Continuous
100
AcDbLine
 10
105.3323853023088
 20
124.0871473089616
 30
0.0
 11
105.3089480386157
 21
124.0816895632811
 31
0.0
  0
LINE
  5
4BB
330
E3
100
AcDbEntity
  8
0
  6
Continuous
100
AcDbLine
 10
105.3089480386157
 20
124.0816895632811
 30
0.0
 11
105.2888063581278
 21
124.0762354272206
 31
0.0
  0
LINE
  5
4BC
330
E3
100
AcDbEntity
  8
0
  6
Continuous
100
AcDbLine
 10
105.2888063581278
 20
124.0762354272206
 30
0.0
 11
105.2721154745121
 21
124.07077768154
 31
0.0
  0
LINE
  5
4BD
330
E3
100
AcDbEntity
  8
0
  6
Continuous
100
AcDbLine
 10
105.2721154745121
 20
124.07077768154
 30
0.0
 11
105.2589981148539
 21
124.0653235454796
 31
0.0
  0
LINE
  5
4BE
330
E3
100
AcDbEntity
  8
0
  6
Continuous
100
AcDbLine
 10
105.2589981148539
 20
124.0653235454796
 30
0.0
 11
105.2495589581378
 21
124.059865799799
 31
0.0
  0
LINE
  5
4BF
330
E3
100
AcDbEntity
  8
0
  6
Continuous
100
AcDbLine
 10
105.2495589581378
 20
124.059865799799
 30
0.0
 11
105.2438646286877
 21
124.0544092814759
 31
0.0
  0
LINE
  5
4C0
330
E3
100
AcDbEntity
  8
0
  6
Continuous
100
AcDbLine
 10
105.2438646286877
 20
124.0544092814759
 30
0.0
 11
105.2419619777336
 21
124.0489529322696
 31
0.0
  0
LINE
  5
4C1
330
E3
100
AcDbEntity
  8
0
  6
Continuous
100
AcDbLine
 10
106.2419619777336
 20
123.852524360841
 30
0.0
 11
106.2400593267795
 21
123.8470680116346
 31
0.0
  0
LINE
  5
4C2
330
E3
100
AcDbEntity
  8
0
  6
Continuous
100
AcDbLine
 10
106.2400593267795
 20
123.8470680116346
 30
0.0
 11
106.2343658542397
 21
123.8416116624283
 31
0.0
  0
LINE
  5
4C3
330
E3
100
AcDbEntity
  8
0
  6
Continuous
100
AcDbLine
 10
106.2343658542397
 20
123.8416116624283
 30
0.0
 11
106.2249252501925
 21
123.8361559808178
 31
0.0
  0
LINE
  5
4C4
330
E3
100
AcDbEntity
  8
0
  6
Continuous
100
AcDbLine
 10
106.2249252501925
 20
123.8361559808178
 30
0.0
 11
106.2118078905342
 21
123.8306982351372
 31
0.0
  0
LINE
  5
4C5
330
E3
100
AcDbEntity
  8
0
  6
Continuous
100
AcDbLine
 10
106.2118078905342
 20
123.8306982351372
 30
0.0
 11
106.1951170069185
 21
123.8252440990768
 31
0.0
  0
LINE
  5
4C6
330
E3
100
AcDbEntity
  8
0
  6
Continuous
100
AcDbLine
 10
106.1951170069185
 20
123.8252440990768
 30
0.0
 11
106.1749753264307
 21
123.8197863533962
 31
0.0
  0
LINE
  5
4C7
330
E3
100
AcDbEntity
  8
0
  6
Continuous
100
AcDbLine
 10
106.1749753264307
 20
123.8197863533962
 30
0.0
 11
106.1515380627375
 21
123.8143286077156
 31
0.0
  0
LINE
  5
4C8
330
E3
100
AcDbEntity
  8
0
  6
Continuous
100
AcDbLine
 10
106.1515380627375
 20
123.8143286077156
 30
0.0
 11
106.1249856968471
 21
123.8088744716552
 31
0.0
  0
LINE
  5
4C9
330
E3
100
AcDbEntity
  8
0
  6
Continuous
100
AcDbLine
 10
106.1249856968471
 20
123.8088744716552
 30
0.0
 11
106.0955167578681
 21
123.8034167259746
 31
0.0
  0
LINE
  5
4CA
330
E3
100
AcDbEntity
  8
0
  6
Continuous
100
AcDbLine
 10
106.0955167578681
 20
123.8034167259746
 30
0.0
 11
106.0633550422504
 21
123.7979625899142
 31
0.0
  0
LINE
  5
4CB
330
E3
100
AcDbEntity
  8
0
  6
Continuous
100
AcDbLine
 10
106.0633550422504
 20
123.7979625899142
 30
0.0
 11
106.0287496137849
 21
123.7925048442336
 31
0.0
  0
LINE
  5
4CC
330
E3
100
AcDbEntity
  8
0
  6
Continuous
100
AcDbLine
 10
106.0287496137849
 20
123.7925048442336
 30
0.0
 11
105.9919603651232
 21
123.787047098553
 31
0.0
  0
LINE
  5
4CD
330
E3
100
AcDbEntity
  8
0
  6
Continuous
100
AcDbLine
 10
105.9919603651232
 20
123.787047098553
 30
0.0
 11
105.9532724562579
 21
123.7815929624926
 31
0.0
  0
LINE
  5
4CE
330
E3
100
AcDbEntity
  8
0
  6
Continuous
100
AcDbLine
 10
105.9532724562579
 20
123.7815929624926
 30
0.0
 11
105.9129710471813
 21
123.7761352168121
 31
0.0
  0
LINE
  5
4CF
330
E3
100
AcDbEntity
  8
0
  6
Continuous
100
AcDbLine
 10
105.9129710471813
 20
123.7761352168121
 30
0.0
 11
105.8713701748476
 21
123.7706774711315
 31
0.0
  0
LINE
  5
4D0
330
E3
100
AcDbEntity
  8
0
  6
Continuous
100
AcDbLine
 10
105.8713701748476
 20
123.7706774711315
 30
0.0
 11
105.8287874858305
 21
123.765223335071
 31
0.0
  0
LINE
  5
4D1
330
E3
100
AcDbEntity
  8
0
  6
Continuous
100
AcDbLine
 10
105.8287874858305
 20
123.765223335071
 30
0.0
 11
105.7855406267041
 21
123.7597655893905
 31
0.0
  0
LINE
  5
4D2
330
E3
100
AcDbEntity
  8
0
  6
Continuous
100
AcDbLine
 10
105.7855406267041
 20
123.7597655893905
 30
0.0
 11
105.7419616825232
 21
123.75431145333
 31
0.0
  0
LINE
  5
4D3
330
E3
100
AcDbEntity
  8
0
  6
Continuous
100
AcDbLine
 10
105.7419616825232
 20
123.75431145333
 30
0.0
 11
105.6983827383422
 21
123.7488537076495
 31
0.0
  0
LINE
  5
4D4
330
E3
100
AcDbEntity
  8
0
  6
Continuous
100
AcDbLine
 10
105.6983827383422
 20
123.7488537076495
 30
0.0
 11
105.655139488836
 21
123.7433959619689
 31
0.0
  0
LINE
  5
4D5
330
E3
100
AcDbEntity
  8
0
  6
Continuous
100
AcDbLine
 10
105.655139488836
 20
123.7433959619689
 30
0.0
 11
105.6125531901988
 21
123.7379418259085
 31
0.0
  0
LINE
  5
4D6
330
E3
100
AcDbEntity
  8
0
  6
Continuous
100
AcDbLine
 10
105.6125531901988
 20
123.7379418259085
 30
0.0
 11
105.570952317865
 21
123.7324840802279
 31
0.0
  0
LINE
  5
4D7
330
E3
100
AcDbEntity
  8
0
  6
Continuous
100
AcDbLine
 10
105.570952317865
 20
123.7324840802279
 30
0.0
 11
105.5306545184086
 21
123.7270299441675
 31
0.0
  0
LINE
  5
4D8
330
E3
100
AcDbEntity
  8
0
  6
Continuous
100
AcDbLine
 10
105.5306545184086
 20
123.7270299441675
 30
0.0
 11
105.4919629999231
 21
123.7215721984869
 31
0.0
  0
LINE
  5
4D9
330
E3
100
AcDbEntity
  8
0
  6
Continuous
100
AcDbLine
 10
105.4919629999231
 20
123.7215721984869
 30
0.0
 11
105.4551737512614
 21
123.7161144528063
 31
0.0
  0
LINE
  5
4DA
330
E3
100
AcDbEntity
  8
0
  6
Continuous
100
AcDbLine
 10
105.4551737512614
 20
123.7161144528063
 30
0.0
 11
105.420568322796
 21
123.7106603167459
 31
0.0
  0
LINE
  5
4DB
330
E3
100
AcDbEntity
  8
0
  6
Continuous
100
AcDbLine
 10
105.420568322796
 20
123.7106603167459
 30
0.0
 11
105.3884102167984
 21
123.7052025710653
 31
0.0
  0
LINE
  5
4DC
330
E3
100
AcDbEntity
  8
0
  6
Continuous
100
AcDbLine
 10
105.3884102167984
 20
123.7052025710653
 30
0.0
 11
105.3589412778194
 21
123.6997448253847
 31
0.0
  0
LINE
  5
4DD
330
E3
100
AcDbEntity
  8
0
  6
Continuous
100
AcDbLine
 10
105.3589412778194
 20
123.6997448253847
 30
0.0
 11
105.3323853023088
 21
123.6942906893243
 31
0.0
  0
LINE
  5
4DE
330
E3
100
AcDbEntity
  8
0
  6
Continuous
100
AcDbLine
 10
105.3323853023088
 20
123.6942906893243
 30
0.0
 11
105.3089480386157
 21
123.6888329436437
 31
0.0
  0
LINE
  5
4DF
330
E3
100
AcDbEntity
  8
0
  6
Continuous
100
AcDbLine
 10
105.3089480386157
 20
123.6888329436437
 30
0.0
 11
105.2888063581278
 21
123.6833788075833
 31
0.0
  0
LINE
  5
4E0
330
E3
100
AcDbEntity
  8
0
  6
Continuous
100
AcDbLine
 10
105.2888063581278
 20
123.6833788075833
 30
0.0
 11
105.2721154745121
 21
123.6779210619027
 31
0.0
  0
LINE
  5
4E1
330
E3
100
AcDbEntity
  8
0
  6
Continuous
100
AcDbLine
 10
105.2721154745121
 20
123.6779210619027
 30
0.0
 11
105.2589981148539
 21
123.6724633162221
 31
0.0
  0
LINE
  5
4E2
330
E3
100
AcDbEntity
  8
0
  6
Continuous
100
AcDbLine
 10
105.2589981148539
 20
123.6724633162221
 30
0.0
 11
105.2495589581378
 21
123.6670091801617
 31
0.0
  0
LINE
  5
4E3
330
E3
100
AcDbEntity
  8
0
  6
Continuous
100
AcDbLine
 10
105.2495589581378
 20
123.6670091801617
 30
0.0
 11
105.2438646286877
 21
123.6615521386188
 31
0.0
  0
LINE
  5
4E4
330
E3
100
AcDbEntity
  8
0
  6
Continuous
100
AcDbLine
 10
105.2438646286877
 20
123.6615521386188
 30
0.0
 11
105.2419619777336
 21
123.6560957894124
 31
0.0
  0
LINE
  5
4E5
330
E3
100
AcDbEntity
  8
0
  6
Continuous
100
AcDbLine
 10
106.2419619777336
 20
123.4596672179838
 30
0.0
 11
106.2400593267795
 21
123.4542108687775
 31
0.0
  0
LINE
  5
4E6
330
E3
100
AcDbEntity
  8
0
  6
Continuous
100
AcDbLine
 10
106.2400593267795
 20
123.4542108687775
 30
0.0
 11
106.2343658542397
 21
123.4487545195711
 31
0.0
  0
LINE
  5
4E7
330
E3
100
AcDbEntity
  8
0
  6
Continuous
100
AcDbLine
 10
106.2343658542397
 20
123.4487545195711
 30
0.0
 11
106.2249252501925
 21
123.4432993611805
 31
0.0
  0
LINE
  5
4E8
330
E3
100
AcDbEntity
  8
0
  6
Continuous
100
AcDbLine
 10
106.2249252501925
 20
123.4432993611805
 30
0.0
 11
106.2118078905342
 21
123.4378416154999
 31
0.0
  0
LINE
  5
4E9
330
E3
100
AcDbEntity
  8
0
  6
Continuous
100
AcDbLine
 10
106.2118078905342
 20
123.4378416154999
 30
0.0
 11
106.1951170069185
 21
123.4323838698193
 31
0.0
  0
LINE
  5
4EA
330
E3
100
AcDbEntity
  8
0
  6
Continuous
100
AcDbLine
 10
106.1951170069185
 20
123.4323838698193
 30
0.0
 11
106.1749753264307
 21
123.4269297337589
 31
0.0
  0
LINE
  5
4EB
330
E3
100
AcDbEntity
  8
0
  6
Continuous
100
AcDbLine
 10
106.1749753264307
 20
123.4269297337589
 30
0.0
 11
106.1515380627375
 21
123.4214719880783
 31
0.0
  0
LINE
  5
4EC
330
E3
100
AcDbEntity
  8
0
  6
Continuous
100
AcDbLine
 10
106.1515380627375
 20
123.4214719880783
 30
0.0
 11
106.1249856968471
 21
123.4160178520179
 31
0.0
  0
LINE
  5
4ED
330
E3
100
AcDbEntity
  8
0
  6
Continuous
100
AcDbLine
 10
106.1249856968471
 20
123.4160178520179
 30
0.0
 11
106.0955167578681
 21
123.4105601063373
 31
0.0
  0
LINE
  5
4EE
330
E3
100
AcDbEntity
  8
0
  6
Continuous
100
AcDbLine
 10
106.0955167578681
 20
123.4105601063373
 30
0.0
 11
106.0633550422504
 21
123.4051023606567
 31
0.0
  0
LINE
  5
4EF
330
E3
100
AcDbEntity
  8
0
  6
Continuous
100
AcDbLine
 10
106.0633550422504
 20
123.4051023606567
 30
0.0
 11
106.0287496137849
 21
123.3996482245963
 31
0.0
  0
LINE
  5
4F0
330
E3
100
AcDbEntity
  8
0
  6
Continuous
100
AcDbLine
 10
106.0287496137849
 20
123.3996482245963
 30
0.0
 11
105.9919603651232
 21
123.3941904789157
 31
0.0
  0
LINE
  5
4F1
330
E3
100
AcDbEntity
  8
0
  6
Continuous
100
AcDbLine
 10
105.9919603651232
 20
123.3941904789157
 30
0.0
 11
105.9532724562579
 21
123.3887363428553
 31
0.0
  0
LINE
  5
4F2
330
E3
100
AcDbEntity
  8
0
  6
Continuous
100
AcDbLine
 10
105.9532724562579
 20
123.3887363428553
 30
0.0
 11
105.9129710471813
 21
123.3832785971747
 31
0.0
  0
LINE
  5
4F3
330
E3
100
AcDbEntity
  8
0
  6
Continuous
100
AcDbLine
 10
105.9129710471813
 20
123.3832785971747
 30
0.0
 11
105.8713701748476
 21
123.3778208514941
 31
0.0
  0
LINE
  5
4F4
330
E3
100
AcDbEntity
  8
0
  6
Continuous
100
AcDbLine
 10
105.8713701748476
 20
123.3778208514941
 30
0.0
 11
105.8287874858305
 21
123.3723667154337
 31
0.0
  0
LINE
  5
4F5
330
E3
100
AcDbEntity
  8
0
  6
Continuous
100
AcDbLine
 10
105.8287874858305
 20
123.3723667154337
 30
0.0
 11
105.7855406267041
 21
123.3669089697531
 31
0.0
  0
LINE
  5
4F6
330
E3
100
AcDbEntity
  8
0
  6
Continuous
100
AcDbLine
 10
105.7855406267041
 20
123.3669089697531
 30
0.0
 11
105.7419616825232
 21
123.3614512240726
 31
0.0
  0
LINE
  5
4F7
330
E3
100
AcDbEntity
  8
0
  6
Continuous
100
AcDbLine
 10
105.7419616825232
 20
123.3614512240726
 30
0.0
 11
105.6983827383422
 21
123.3559970880121
 31
0.0
  0
LINE
  5
4F8
330
E3
100
AcDbEntity
  8
0
  6
Continuous
100
AcDbLine
 10
105.6983827383422
 20
123.3559970880121
 30
0.0
 11
105.655139488836
 21
123.3505393423315
 31
0.0
  0
LINE
  5
4F9
330
E3
100
AcDbEntity
  8
0
  6
Continuous
100
AcDbLine
 10
105.655139488836
 20
123.3505393423315
 30
0.0
 11
105.6125531901988
 21
123.3450852062711
 31
0.0
  0
LINE
  5
4FA
330
E3
100
AcDbEntity
  8
0
  6
Continuous
100
AcDbLine
 10
105.6125531901988
 20
123.3450852062711
 30
0.0
 11
105.570952317865
 21
123.3396274605905
 31
0.0
  0
LINE
  5
4FB
330
E3
100
AcDbEntity
  8
0
  6
Continuous
100
AcDbLine
 10
105.570952317865
 20
123.3396274605905
 30
0.0
 11
105.5306545184086
 21
123.33416971491
 31
0.0
  0
LINE
  5
4FC
330
E3
100
AcDbEntity
  8
0
  6
Continuous
100
AcDbLine
 10
105.5306545184086
 20
123.33416971491
 30
0.0
 11
105.4919629999231
 21
123.3287155788495
 31
0.0
  0
LINE
  5
4FD
330
E3
100
AcDbEntity
  8
0
  6
Continuous
100
AcDbLine
 10
105.4919629999231
 20
123.3287155788495
 30
0.0
 11
105.4551737512614
 21
123.323257833169
 31
0.0
  0
LINE
  5
4FE
330
E3
100
AcDbEntity
  8
0
  6
Continuous
100
AcDbLine
 10
105.4551737512614
 20
123.323257833169
 30
0.0
 11
105.420568322796
 21
123.3178036971085
 31
0.0
  0
LINE
  5
4FF
330
E3
100
AcDbEntity
  8
0
  6
Continuous
100
AcDbLine
 10
105.420568322796
 20
123.3178036971085
 30
0.0
 11
105.3884102167984
 21
123.312345951428
 31
0.0
  0
LINE
  5
500
330
E3
100
AcDbEntity
  8
0
  6
Continuous
100
AcDbLine
 10
105.3884102167984
 20
123.312345951428
 30
0.0
 11
105.3589412778194
 21
123.3068882057474
 31
0.0
  0
LINE
  5
501
330
E3
100
AcDbEntity
  8
0
  6
Continuous
100
AcDbLine
 10
105.3589412778194
 20
123.3068882057474
 30
0.0
 11
105.3323853023088
 21
123.301434069687
 31
0.0
  0
LINE
  5
502
330
E3
100
AcDbEntity
  8
0
  6
Continuous
100
AcDbLine
 10
105.3323853023088
 20
123.301434069687
 30
0.0
 11
105.3089480386157
 21
123.2959763240064
 31
0.0
  0
LINE
  5
503
330
E3
100
AcDbEntity
  8
0
  6
Continuous
100
AcDbLine
 10
105.3089480386157
 20
123.2959763240064
 30
0.0
 11
105.2888063581278
 21
123.290522187946
 31
0.0
  0
LINE
  5
504
330
E3
100
AcDbEntity
  8
0
  6
Continuous
100
AcDbLine
 10
105.2888063581278
 20
123.290522187946
 30
0.0
 11
105.2721154745121
 21
123.2850644422654
 31
0.0
  0
LINE
  5
505
330
E3
100
AcDbEntity
  8
0
  6
Continuous
100
AcDbLine
 10
105.2721154745121
 20
123.2850644422654
 30
0.0
 11
105.2589981148539
 21
123.2796066965848
 31
0.0
  0
LINE
  5
506
330
E3
100
AcDbEntity
  8
0
  6
Continuous
100
AcDbLine
 10
105.2589981148539
 20
123.2796066965848
 30
0.0
 11
105.2495589581378
 21
123.2741525605244
 31
0.0
  0
LINE
  5
507
330
E3
100
AcDbEntity
  8
0
  6
Continuous
100
AcDbLine
 10
105.2495589581378
 20
123.2741525605244
 30
0.0
 11
105.2438646286877
 21
123.2686949957616
 31
0.0
  0
LINE
  5
508
330
E3
100
AcDbEntity
  8
0
  6
Continuous
100
AcDbLine
 10
105.2438646286877
 20
123.2686949957616
 30
0.0
 11
105.2419619777336
 21
123.2632386465553
 31
0.0
  0
LINE
  5
509
330
E3
100
AcDbEntity
  8
0
  6
Continuous
100
AcDbLine
 10
106.2419619777336
 20
123.0668100751267
 30
0.0
 11
106.2400593267795
 21
123.0613537259204
 31
0.0
  0
LINE
  5
50A
330
E3
100
AcDbEntity
  8
0
  6
Continuous
100
AcDbLine
 10
106.2400593267795
 20
123.0613537259204
 30
0.0
 11
106.2343658542397
 21
123.055897376714
 31
0.0
  0
LINE
  5
50B
330
E3
100
AcDbEntity
  8
0
  6
Continuous
100
AcDbLine
 10
106.2343658542397
 20
123.055897376714
 30
0.0
 11
106.2249252501925
 21
123.0504427415431
 31
0.0
  0
LINE
  5
50C
330
E3
100
AcDbEntity
  8
0
  6
Continuous
100
AcDbLine
 10
106.2249252501925
 20
123.0504427415431
 30
0.0
 11
106.2118078905342
 21
123.0449849958625
 31
0.0
  0
LINE
  5
50D
330
E3
100
AcDbEntity
  8
0
  6
Continuous
100
AcDbLine
 10
106.2118078905342
 20
123.0449849958625
 30
0.0
 11
106.1951170069185
 21
123.0395272501819
 31
0.0
  0
LINE
  5
50E
330
E3
100
AcDbEntity
  8
0
  6
Continuous
100
AcDbLine
 10
106.1951170069185
 20
123.0395272501819
 30
0.0
 11
106.1749753264307
 21
123.0340731141215
 31
0.0
  0
LINE
  5
50F
330
E3
100
AcDbEntity
  8
0
  6
Continuous
100
AcDbLine
 10
106.1749753264307
 20
123.0340731141215
 30
0.0
 11
106.1515380627375
 21
123.028615368441
 31
0.0
  0
LINE
  5
510
330
E3
100
AcDbEntity
  8
0
  6
Continuous
100
AcDbLine
 10
106.1515380627375
 20
123.028615368441
 30
0.0
 11
106.1249856968471
 21
123.0231576227604
 31
0.0
  0
LINE
  5
511
330
E3
100
AcDbEntity
  8
0
  6
Continuous
100
AcDbLine
 10
106.1249856968471
 20
123.0231576227604
 30
0.0
 11
106.0955167578681
 21
123.0177034867
 31
0.0
  0
LINE
  5
512
330
E3
100
AcDbEntity
  8
0
  6
Continuous
100
AcDbLine
 10
106.0955167578681
 20
123.0177034867
 30
0.0
 11
106.0633550422504
 21
123.0122457410194
 31
0.0
  0
LINE
  5
513
330
E3
100
AcDbEntity
  8
0
  6
Continuous
100
AcDbLine
 10
106.0633550422504
 20
123.0122457410194
 30
0.0
 11
106.0287496137849
 21
123.006791604959
 31
0.0
  0
LINE
  5
514
330
E3
100
AcDbEntity
  8
0
  6
Continuous
100
AcDbLine
 10
106.0287496137849
 20
123.006791604959
 30
0.0
 11
105.9919603651232
 21
123.0013338592784
 31
0.0
  0
LINE
  5
515
330
E3
100
AcDbEntity
  8
0
  6
Continuous
100
AcDbLine
 10
105.9919603651232
 20
123.0013338592784
 30
0.0
 11
105.9532724562579
 21
122.9958761135978
 31
0.0
  0
LINE
  5
516
330
E3
100
AcDbEntity
  8
0
  6
Continuous
100
AcDbLine
 10
105.9532724562579
 20
122.9958761135978
 30
0.0
 11
105.9129710471813
 21
122.9904219775374
 31
0.0
  0
LINE
  5
517
330
E3
100
AcDbEntity
  8
0
  6
Continuous
100
AcDbLine
 10
105.9129710471813
 20
122.9904219775374
 30
0.0
 11
105.8713701748476
 21
122.9849642318568
 31
0.0
  0
LINE
  5
518
330
E3
100
AcDbEntity
  8
0
  6
Continuous
100
AcDbLine
 10
105.8713701748476
 20
122.9849642318568
 30
0.0
 11
105.8287874858305
 21
122.9795100957964
 31
0.0
  0
LINE
  5
519
330
E3
100
AcDbEntity
  8
0
  6
Continuous
100
AcDbLine
 10
105.8287874858305
 20
122.9795100957964
 30
0.0
 11
105.7855406267041
 21
122.9740523501158
 31
0.0
  0
LINE
  5
51A
330
E3
100
AcDbEntity
  8
0
  6
Continuous
100
AcDbLine
 10
105.7855406267041
 20
122.9740523501158
 30
0.0
 11
105.7419616825232
 21
122.9685946044352
 31
0.0
  0
LINE
  5
51B
330
E3
100
AcDbEntity
  8
0
  6
Continuous
100
AcDbLine
 10
105.7419616825232
 20
122.9685946044352
 30
0.0
 11
105.6983827383422
 21
122.9631404683748
 31
0.0
  0
LINE
  5
51C
330
E3
100
AcDbEntity
  8
0
  6
Continuous
100
AcDbLine
 10
105.6983827383422
 20
122.9631404683748
 30
0.0
 11
105.655139488836
 21
122.9576827226942
 31
0.0
  0
LINE
  5
51D
330
E3
100
AcDbEntity
  8
0
  6
Continuous
100
AcDbLine
 10
105.655139488836
 20
122.9576827226942
 30
0.0
 11
105.6125531901988
 21
122.9522249770136
 31
0.0
  0
LINE
  5
51E
330
E3
100
AcDbEntity
  8
0
  6
Continuous
100
AcDbLine
 10
105.6125531901988
 20
122.9522249770136
 30
0.0
 11
105.570952317865
 21
122.9467708409532
 31
0.0
  0
LINE
  5
51F
330
E3
100
AcDbEntity
  8
0
  6
Continuous
100
AcDbLine
 10
105.570952317865
 20
122.9467708409532
 30
0.0
 11
105.5306545184086
 21
122.9413130952726
 31
0.0
  0
LINE
  5
520
330
E3
100
AcDbEntity
  8
0
  6
Continuous
100
AcDbLine
 10
105.5306545184086
 20
122.9413130952726
 30
0.0
 11
105.4919629999231
 21
122.9358589592122
 31
0.0
  0
LINE
  5
521
330
E3
100
AcDbEntity
  8
0
  6
Continuous
100
AcDbLine
 10
105.4919629999231
 20
122.9358589592122
 30
0.0
 11
105.4551737512614
 21
122.9304012135316
 31
0.0
  0
LINE
  5
522
330
E3
100
AcDbEntity
  8
0
  6
Continuous
100
AcDbLine
 10
105.4551737512614
 20
122.9304012135316
 30
0.0
 11
105.420568322796
 21
122.9249434678511
 31
0.0
  0
LINE
  5
523
330
E3
100
AcDbEntity
  8
0
  6
Continuous
100
AcDbLine
 10
105.420568322796
 20
122.9249434678511
 30
0.0
 11
105.3884102167984
 21
122.9194893317906
 31
0.0
  0
LINE
  5
524
330
E3
100
AcDbEntity
  8
0
  6
Continuous
100
AcDbLine
 10
105.3884102167984
 20
122.9194893317906
 30
0.0
 11
105.3589412778194
 21
122.9140315861101
 31
0.0
  0
LINE
  5
525
330
E3
100
AcDbEntity
  8
0
  6
Continuous
100
AcDbLine
 10
105.3589412778194
 20
122.9140315861101
 30
0.0
 11
105.3323853023088
 21
122.9085774500496
 31
0.0
  0
LINE
  5
526
330
E3
100
AcDbEntity
  8
0
  6
Continuous
100
AcDbLine
 10
105.3323853023088
 20
122.9085774500496
 30
0.0
 11
105.3089480386157
 21
122.903119704369
 31
0.0
  0
LINE
  5
527
330
E3
100
AcDbEntity
  8
0
  6
Continuous
100
AcDbLine
 10
105.3089480386157
 20
122.903119704369
 30
0.0
 11
105.2888063581278
 21
122.8976619586885
 31
0.0
  0
LINE
  5
528
330
E3
100
AcDbEntity
  8
0
  6
Continuous
100
AcDbLine
 10
105.2888063581278
 20
122.8976619586885
 30
0.0
 11
105.2721154745121
 21
122.892207822628
 31
0.0
  0
LINE
  5
529
330
E3
100
AcDbEntity
  8
0
  6
Continuous
100
AcDbLine
 10
105.2721154745121
 20
122.892207822628
 30
0.0
 11
105.2589981148539
 21
122.8867500769475
 31
0.0
  0
LINE
  5
52A
330
E3
100
AcDbEntity
  8
0
  6
Continuous
100
AcDbLine
 10
105.2589981148539
 20
122.8867500769475
 30
0.0
 11
105.2495589581378
 21
122.881295940887
 31
0.0
  0
LINE
  5
52B
330
E3
100
AcDbEntity
  8
0
  6
Continuous
100
AcDbLine
 10
105.2495589581378
 20
122.881295940887
 30
0.0
 11
105.2438646286877
 21
122.8758378529045
 31
0.0
  0
LINE
  5
52C
330
E3
100
AcDbEntity
  8
0
  6
Continuous
100
AcDbLine
 10
105.2438646286877
 20
122.8758378529045
 30
0.0
 11
105.2419619777336
 21
122.8703815036981
 31
0.0
  0
LINE
  5
52D
330
E3
100
AcDbEntity
  8
0
  6
Continuous
100
AcDbLine
 10
106.2419619777336
 20
122.6739529322696
 30
0.0
 11
106.2400593267795
 21
122.6684965830632
 31
0.0
  0
LINE
  5
52E
330
E3
100
AcDbEntity
  8
0
  6
Continuous
100
AcDbLine
 10
106.2400593267795
 20
122.6684965830632
 30
0.0
 11
106.2343658542397
 21
122.6630402338568
 31
0.0
  0
LINE
  5
52F
330
E3
100
AcDbEntity
  8
0
  6
Continuous
100
AcDbLine
 10
106.2343658542397
 20
122.6630402338568
 30
0.0
 11
106.2249252501925
 21
122.6575825122856
 31
0.0
  0
LINE
  5
530
330
E3
100
AcDbEntity
  8
0
  6
Continuous
100
AcDbLine
 10
106.2249252501925
 20
122.6575825122856
 30
0.0
 11
106.2118078905342
 21
122.6521283762252
 31
0.0
  0
LINE
  5
531
330
E3
100
AcDbEntity
  8
0
  6
Continuous
100
AcDbLine
 10
106.2118078905342
 20
122.6521283762252
 30
0.0
 11
106.1951170069185
 21
122.6466706305446
 31
0.0
  0
LINE
  5
532
330
E3
100
AcDbEntity
  8
0
  6
Continuous
100
AcDbLine
 10
106.1951170069185
 20
122.6466706305446
 30
0.0
 11
106.1749753264307
 21
122.6412164944842
 31
0.0
  0
LINE
  5
533
330
E3
100
AcDbEntity
  8
0
  6
Continuous
100
AcDbLine
 10
106.1749753264307
 20
122.6412164944842
 30
0.0
 11
106.1515380627375
 21
122.6357587488036
 31
0.0
  0
LINE
  5
534
330
E3
100
AcDbEntity
  8
0
  6
Continuous
100
AcDbLine
 10
106.1515380627375
 20
122.6357587488036
 30
0.0
 11
106.1249856968471
 21
122.630301003123
 31
0.0
  0
LINE
  5
535
330
E3
100
AcDbEntity
  8
0
  6
Continuous
100
AcDbLine
 10
106.1249856968471
 20
122.630301003123
 30
0.0
 11
106.0955167578681
 21
122.6248468670626
 31
0.0
  0
LINE
  5
536
330
E3
100
AcDbEntity
  8
0
  6
Continuous
100
AcDbLine
 10
106.0955167578681
 20
122.6248468670626
 30
0.0
 11
106.0633550422504
 21
122.6193891213821
 31
0.0
  0
LINE
  5
537
330
E3
100
AcDbEntity
  8
0
  6
Continuous
100
AcDbLine
 10
106.0633550422504
 20
122.6193891213821
 30
0.0
 11
106.0287496137849
 21
122.6139313757015
 31
0.0
  0
LINE
  5
538
330
E3
100
AcDbEntity
  8
0
  6
Continuous
100
AcDbLine
 10
106.0287496137849
 20
122.6139313757015
 30
0.0
 11
105.9919603651232
 21
122.608477239641
 31
0.0
  0
LINE
  5
539
330
E3
100
AcDbEntity
  8
0
  6
Continuous
100
AcDbLine
 10
105.9919603651232
 20
122.608477239641
 30
0.0
 11
105.9532724562579
 21
122.6030194939605
 31
0.0
  0
LINE
  5
53A
330
E3
100
AcDbEntity
  8
0
  6
Continuous
100
AcDbLine
 10
105.9532724562579
 20
122.6030194939605
 30
0.0
 11
105.9129710471813
 21
122.5975653579
 31
0.0
  0
LINE
  5
53B
330
E3
100
AcDbEntity
  8
0
  6
Continuous
100
AcDbLine
 10
105.9129710471813
 20
122.5975653579
 30
0.0
 11
105.8713701748476
 21
122.5921076122195
 31
0.0
  0
LINE
  5
53C
330
E3
100
AcDbEntity
  8
0
  6
Continuous
100
AcDbLine
 10
105.8713701748476
 20
122.5921076122195
 30
0.0
 11
105.8287874858305
 21
122.5866498665389
 31
0.0
  0
LINE
  5
53D
330
E3
100
AcDbEntity
  8
0
  6
Continuous
100
AcDbLine
 10
105.8287874858305
 20
122.5866498665389
 30
0.0
 11
105.7855406267041
 21
122.5811957304785
 31
0.0
  0
LINE
  5
53E
330
E3
100
AcDbEntity
  8
0
  6
Continuous
100
AcDbLine
 10
105.7855406267041
 20
122.5811957304785
 30
0.0
 11
105.7419616825232
 21
122.5757379847979
 31
0.0
  0
LINE
  5
53F
330
E3
100
AcDbEntity
  8
0
  6
Continuous
100
AcDbLine
 10
105.7419616825232
 20
122.5757379847979
 30
0.0
 11
105.6983827383422
 21
122.5702838487375
 31
0.0
  0
LINE
  5
540
330
E3
100
AcDbEntity
  8
0
  6
Continuous
100
AcDbLine
 10
105.6983827383422
 20
122.5702838487375
 30
0.0
 11
105.655139488836
 21
122.5648261030569
 31
0.0
  0
LINE
  5
541
330
E3
100
AcDbEntity
  8
0
  6
Continuous
100
AcDbLine
 10
105.655139488836
 20
122.5648261030569
 30
0.0
 11
105.6125531901988
 21
122.5593683573763
 31
0.0
  0
LINE
  5
542
330
E3
100
AcDbEntity
  8
0
  6
Continuous
100
AcDbLine
 10
105.6125531901988
 20
122.5593683573763
 30
0.0
 11
105.570952317865
 21
122.5539142213159
 31
0.0
  0
LINE
  5
543
330
E3
100
AcDbEntity
  8
0
  6
Continuous
100
AcDbLine
 10
105.570952317865
 20
122.5539142213159
 30
0.0
 11
105.5306545184086
 21
122.5484564756353
 31
0.0
  0
LINE
  5
544
330
E3
100
AcDbEntity
  8
0
  6
Continuous
100
AcDbLine
 10
105.5306545184086
 20
122.5484564756353
 30
0.0
 11
105.4919629999231
 21
122.5430023395749
 31
0.0
  0
LINE
  5
545
330
E3
100
AcDbEntity
  8
0
  6
Continuous
100
AcDbLine
 10
105.4919629999231
 20
122.5430023395749
 30
0.0
 11
105.4551737512614
 21
122.5375445938943
 31
0.0
  0
LINE
  5
546
330
E3
100
AcDbEntity
  8
0
  6
Continuous
100
AcDbLine
 10
105.4551737512614
 20
122.5375445938943
 30
0.0
 11
105.420568322796
 21
122.5320868482137
 31
0.0
  0
LINE
  5
547
330
E3
100
AcDbEntity
  8
0
  6
Continuous
100
AcDbLine
 10
105.420568322796
 20
122.5320868482137
 30
0.0
 11
105.3884102167984
 21
122.5266327121533
 31
0.0
  0
LINE
  5
548
330
E3
100
AcDbEntity
  8
0
  6
Continuous
100
AcDbLine
 10
105.3884102167984
 20
122.5266327121533
 30
0.0
 11
105.3589412778194
 21
122.5211749664727
 31
0.0
  0
LINE
  5
549
330
E3
100
AcDbEntity
  8
0
  6
Continuous
100
AcDbLine
 10
105.3589412778194
 20
122.5211749664727
 30
0.0
 11
105.3323853023088
 21
122.5157172207921
 31
0.0
  0
LINE
  5
54A
330
E3
100
AcDbEntity
  8
0
  6
Continuous
100
AcDbLine
 10
105.3323853023088
 20
122.5157172207921
 30
0.0
 11
105.3089480386157
 21
122.5102630847317
 31
0.0
  0
LINE
  5
54B
330
E3
100
AcDbEntity
  8
0
  6
Continuous
100
AcDbLine
 10
105.3089480386157
 20
122.5102630847317
 30
0.0
 11
105.2888063581278
 21
122.5048053390511
 31
0.0
  0
LINE
  5
54C
330
E3
100
AcDbEntity
  8
0
  6
Continuous
100
AcDbLine
 10
105.2888063581278
 20
122.5048053390511
 30
0.0
 11
105.2721154745121
 21
122.4993512029907
 31
0.0
  0
LINE
  5
54D
330
E3
100
AcDbEntity
  8
0
  6
Continuous
100
AcDbLine
 10
105.2721154745121
 20
122.4993512029907
 30
0.0
 11
105.2589981148539
 21
122.4938934573101
 31
0.0
  0
LINE
  5
54E
330
E3
100
AcDbEntity
  8
0
  6
Continuous
100
AcDbLine
 10
105.2589981148539
 20
122.4938934573101
 30
0.0
 11
105.2495589581378
 21
122.4884357116295
 31
0.0
  0
LINE
  5
54F
330
E3
100
AcDbEntity
  8
0
  6
Continuous
100
AcDbLine
 10
105.2495589581378
 20
122.4884357116295
 30
0.0
 11
105.2438646286877
 21
122.4829807100473
 31
0.0
  0
LINE
  5
550
330
E3
100
AcDbEntity
  8
0
  6
Continuous
100
AcDbLine
 10
105.2438646286877
 20
122.4829807100473
 30
0.0
 11
105.2419619777336
 21
122.477524360841
 31
0.0
  0
LINE
  5
551
330
E3
100
AcDbEntity
  8
0
  6
Continuous
100
AcDbLine
 10
106.2419619777336
 20
122.2810957894124
 30
0.0
 11
106.2400593267795
 21
122.2756394402061
 31
0.0
  0
LINE
  5
552
330
E3
100
AcDbEntity
  8
0
  6
Continuous
100
AcDbLine
 10
106.2400593267795
 20
122.2756394402061
 30
0.0
 11
106.2343658542397
 21
122.2701830909997
 31
0.0
  0
LINE
  5
553
330
E3
100
AcDbEntity
  8
0
  6
Continuous
100
AcDbLine
 10
106.2343658542397
 20
122.2701830909997
 30
0.0
 11
106.2249252501925
 21
122.2647258926483
 31
0.0
  0
LINE
  5
554
330
E3
100
AcDbEntity
  8
0
  6
Continuous
100
AcDbLine
 10
106.2249252501925
 20
122.2647258926483
 30
0.0
 11
106.2118078905342
 21
122.2592717565879
 31
0.0
  0
LINE
  5
555
330
E3
100
AcDbEntity
  8
0
  6
Continuous
100
AcDbLine
 10
106.2118078905342
 20
122.2592717565879
 30
0.0
 11
106.1951170069185
 21
122.2538140109073
 31
0.0
  0
LINE
  5
556
330
E3
100
AcDbEntity
  8
0
  6
Continuous
100
AcDbLine
 10
106.1951170069185
 20
122.2538140109073
 30
0.0
 11
106.1749753264307
 21
122.2483562652267
 31
0.0
  0
LINE
  5
557
330
E3
100
AcDbEntity
  8
0
  6
Continuous
100
AcDbLine
 10
106.1749753264307
 20
122.2483562652267
 30
0.0
 11
106.1515380627375
 21
122.2429021291663
 31
0.0
  0
LINE
  5
558
330
E3
100
AcDbEntity
  8
0
  6
Continuous
100
AcDbLine
 10
106.1515380627375
 20
122.2429021291663
 30
0.0
 11
106.1249856968471
 21
122.2374443834857
 31
0.0
  0
LINE
  5
559
330
E3
100
AcDbEntity
  8
0
  6
Continuous
100
AcDbLine
 10
106.1249856968471
 20
122.2374443834857
 30
0.0
 11
106.0955167578681
 21
122.2319902474253
 31
0.0
  0
LINE
  5
55A
330
E3
100
AcDbEntity
  8
0
  6
Continuous
100
AcDbLine
 10
106.0955167578681
 20
122.2319902474253
 30
0.0
 11
106.0633550422504
 21
122.2265325017447
 31
0.0
  0
LINE
  5
55B
330
E3
100
AcDbEntity
  8
0
  6
Continuous
100
AcDbLine
 10
106.0633550422504
 20
122.2265325017447
 30
0.0
 11
106.0287496137849
 21
122.2210747560641
 31
0.0
  0
LINE
  5
55C
330
E3
100
AcDbEntity
  8
0
  6
Continuous
100
AcDbLine
 10
106.0287496137849
 20
122.2210747560641
 30
0.0
 11
105.9919603651232
 21
122.2156206200037
 31
0.0
  0
LINE
  5
55D
330
E3
100
AcDbEntity
  8
0
  6
Continuous
100
AcDbLine
 10
105.9919603651232
 20
122.2156206200037
 30
0.0
 11
105.9532724562579
 21
122.2101628743231
 31
0.0
  0
LINE
  5
55E
330
E3
100
AcDbEntity
  8
0
  6
Continuous
100
AcDbLine
 10
105.9532724562579
 20
122.2101628743231
 30
0.0
 11
105.9129710471813
 21
122.2047051286426
 31
0.0
  0
LINE
  5
55F
330
E3
100
AcDbEntity
  8
0
  6
Continuous
100
AcDbLine
 10
105.9129710471813
 20
122.2047051286426
 30
0.0
 11
105.8713701748476
 21
122.1992509925821
 31
0.0
  0
LINE
  5
560
330
E3
100
AcDbEntity
  8
0
  6
Continuous
100
AcDbLine
 10
105.8713701748476
 20
122.1992509925821
 30
0.0
 11
105.8287874858305
 21
122.1937932469015
 31
0.0
  0
LINE
  5
561
330
E3
100
AcDbEntity
  8
0
  6
Continuous
100
AcDbLine
 10
105.8287874858305
 20
122.1937932469015
 30
0.0
 11
105.7855406267041
 21
122.1883391108411
 31
0.0
  0
LINE
  5
562
330
E3
100
AcDbEntity
  8
0
  6
Continuous
100
AcDbLine
 10
105.7855406267041
 20
122.1883391108411
 30
0.0
 11
105.7419616825232
 21
122.1828813651606
 31
0.0
  0
LINE
  5
563
330
E3
100
AcDbEntity
  8
0
  6
Continuous
100
AcDbLine
 10
105.7419616825232
 20
122.1828813651606
 30
0.0
 11
105.6983827383422
 21
122.17742361948
 31
0.0
  0
LINE
  5
564
330
E3
100
AcDbEntity
  8
0
  6
Continuous
100
AcDbLine
 10
105.6983827383422
 20
122.17742361948
 30
0.0
 11
105.655139488836
 21
122.1719694834195
 31
0.0
  0
LINE
  5
565
330
E3
100
AcDbEntity
  8
0
  6
Continuous
100
AcDbLine
 10
105.655139488836
 20
122.1719694834195
 30
0.0
 11
105.6125531901988
 21
122.166511737739
 31
0.0
  0
LINE
  5
566
330
E3
100
AcDbEntity
  8
0
  6
Continuous
100
AcDbLine
 10
105.6125531901988
 20
122.166511737739
 30
0.0
 11
105.570952317865
 21
122.1610576016786
 31
0.0
  0
LINE
  5
567
330
E3
100
AcDbEntity
  8
0
  6
Continuous
100
AcDbLine
 10
105.570952317865
 20
122.1610576016786
 30
0.0
 11
105.5306545184086
 21
122.155599855998
 31
0.0
  0
LINE
  5
568
330
E3
100
AcDbEntity
  8
0
  6
Continuous
100
AcDbLine
 10
105.5306545184086
 20
122.155599855998
 30
0.0
 11
105.4919629999231
 21
122.1501421103174
 31
0.0
  0
LINE
  5
569
330
E3
100
AcDbEntity
  8
0
  6
Continuous
100
AcDbLine
 10
105.4919629999231
 20
122.1501421103174
 30
0.0
 11
105.4551737512614
 21
122.144687974257
 31
0.0
  0
LINE
  5
56A
330
E3
100
AcDbEntity
  8
0
  6
Continuous
100
AcDbLine
 10
105.4551737512614
 20
122.144687974257
 30
0.0
 11
105.420568322796
 21
122.1392302285764
 31
0.0
  0
LINE
  5
56B
330
E3
100
AcDbEntity
  8
0
  6
Continuous
100
AcDbLine
 10
105.420568322796
 20
122.1392302285764
 30
0.0
 11
105.3884102167984
 21
122.133776092516
 31
0.0
  0
LINE
  5
56C
330
E3
100
AcDbEntity
  8
0
  6
Continuous
100
AcDbLine
 10
105.3884102167984
 20
122.133776092516
 30
0.0
 11
105.3589412778194
 21
122.1283183468354
 31
0.0
  0
LINE
  5
56D
330
E3
100
AcDbEntity
  8
0
  6
Continuous
100
AcDbLine
 10
105.3589412778194
 20
122.1283183468354
 30
0.0
 11
105.3323853023088
 21
122.1228606011548
 31
0.0
  0
LINE
  5
56E
330
E3
100
AcDbEntity
  8
0
  6
Continuous
100
AcDbLine
 10
105.3323853023088
 20
122.1228606011548
 30
0.0
 11
105.3089480386157
 21
122.1174064650944
 31
0.0
  0
LINE
  5
56F
330
E3
100
AcDbEntity
  8
0
  6
Continuous
100
AcDbLine
 10
105.3089480386157
 20
122.1174064650944
 30
0.0
 11
105.2888063581278
 21
122.1119487194138
 31
0.0
  0
LINE
  5
570
330
E3
100
AcDbEntity
  8
0
  6
Continuous
100
AcDbLine
 10
105.2888063581278
 20
122.1119487194138
 30
0.0
 11
105.2721154745121
 21
122.1064909737332
 31
0.0
  0
LINE
  5
571
330
E3
100
AcDbEntity
  8
0
  6
Continuous
100
AcDbLine
 10
105.2721154745121
 20
122.1064909737332
 30
0.0
 11
105.2589981148539
 21
122.1010368376728
 31
0.0
  0
LINE
  5
572
330
E3
100
AcDbEntity
  8
0
  6
Continuous
100
AcDbLine
 10
105.2589981148539
 20
122.1010368376728
 30
0.0
 11
105.2495589581378
 21
122.0955790919922
 31
0.0
  0
LINE
  5
573
330
E3
100
AcDbEntity
  8
0
  6
Continuous
100
AcDbLine
 10
105.2495589581378
 20
122.0955790919922
 30
0.0
 11
105.2438646286877
 21
122.0901235671902
 31
0.0
  0
LINE
  5
574
330
E3
100
AcDbEntity
  8
0
  6
Continuous
100
AcDbLine
 10
105.2438646286877
 20
122.0901235671902
 30
0.0
 11
105.2419619777336
 21
122.0846672179838
 31
0.0
  0
LINE
  5
575
330
E3
100
AcDbEntity
  8
0
  6
Continuous
100
AcDbLine
 10
106.2419619777336
 20
121.8882386465553
 30
0.0
 11
106.2400593267795
 21
121.8827822973489
 31
0.0
  0
LINE
  5
576
330
E3
100
AcDbEntity
  8
0
  6
Continuous
100
AcDbLine
 10
106.2400593267795
 20
121.8827822973489
 30
0.0
 11
106.2343658542397
 21
121.8773259481426
 31
0.0
  0
LINE
  5
577
330
E3
100
AcDbEntity
  8
0
  6
Continuous
100
AcDbLine
 10
106.2343658542397
 20
121.8773259481426
 30
0.0
 11
106.2249252501925
 21
121.871869273011
 31
0.0
  0
LINE
  5
578
330
E3
100
AcDbEntity
  8
0
  6
Continuous
100
AcDbLine
 10
106.2249252501925
 20
121.871869273011
 30
0.0
 11
106.2118078905342
 21
121.8664115273304
 31
0.0
  0
LINE
  5
579
330
E3
100
AcDbEntity
  8
0
  6
Continuous
100
AcDbLine
 10
106.2118078905342
 20
121.8664115273304
 30
0.0
 11
106.1951170069185
 21
121.8609573912699
 31
0.0
  0
LINE
  5
57A
330
E3
100
AcDbEntity
  8
0
  6
Continuous
100
AcDbLine
 10
106.1951170069185
 20
121.8609573912699
 30
0.0
 11
106.1749753264307
 21
121.8554996455894
 31
0.0
  0
LINE
  5
57B
330
E3
100
AcDbEntity
  8
0
  6
Continuous
100
AcDbLine
 10
106.1749753264307
 20
121.8554996455894
 30
0.0
 11
106.1515380627375
 21
121.850045509529
 31
0.0
  0
LINE
  5
57C
330
E3
100
AcDbEntity
  8
0
  6
Continuous
100
AcDbLine
 10
106.1515380627375
 20
121.850045509529
 30
0.0
 11
106.1249856968471
 21
121.8445877638484
 31
0.0
  0
LINE
  5
57D
330
E3
100
AcDbEntity
  8
0
  6
Continuous
100
AcDbLine
 10
106.1249856968471
 20
121.8445877638484
 30
0.0
 11
106.0955167578681
 21
121.8391300181678
 31
0.0
  0
LINE
  5
57E
330
E3
100
AcDbEntity
  8
0
  6
Continuous
100
AcDbLine
 10
106.0955167578681
 20
121.8391300181678
 30
0.0
 11
106.0633550422504
 21
121.8336758821074
 31
0.0
  0
LINE
  5
57F
330
E3
100
AcDbEntity
  8
0
  6
Continuous
100
AcDbLine
 10
106.0633550422504
 20
121.8336758821074
 30
0.0
 11
106.0287496137849
 21
121.8282181364268
 31
0.0
  0
LINE
  5
580
330
E3
100
AcDbEntity
  8
0
  6
Continuous
100
AcDbLine
 10
106.0287496137849
 20
121.8282181364268
 30
0.0
 11
105.9919603651232
 21
121.8227640003664
 31
0.0
  0
LINE
  5
581
330
E3
100
AcDbEntity
  8
0
  6
Continuous
100
AcDbLine
 10
105.9919603651232
 20
121.8227640003664
 30
0.0
 11
105.9532724562579
 21
121.8173062546858
 31
0.0
  0
LINE
  5
582
330
E3
100
AcDbEntity
  8
0
  6
Continuous
100
AcDbLine
 10
105.9532724562579
 20
121.8173062546858
 30
0.0
 11
105.9129710471813
 21
121.8118485090052
 31
0.0
  0
LINE
  5
583
330
E3
100
AcDbEntity
  8
0
  6
Continuous
100
AcDbLine
 10
105.9129710471813
 20
121.8118485090052
 30
0.0
 11
105.8713701748476
 21
121.8063943729448
 31
0.0
  0
LINE
  5
584
330
E3
100
AcDbEntity
  8
0
  6
Continuous
100
AcDbLine
 10
105.8713701748476
 20
121.8063943729448
 30
0.0
 11
105.8287874858305
 21
121.8009366272642
 31
0.0
  0
LINE
  5
585
330
E3
100
AcDbEntity
  8
0
  6
Continuous
100
AcDbLine
 10
105.8287874858305
 20
121.8009366272642
 30
0.0
 11
105.7855406267041
 21
121.7954824912038
 31
0.0
  0
LINE
  5
586
330
E3
100
AcDbEntity
  8
0
  6
Continuous
100
AcDbLine
 10
105.7855406267041
 20
121.7954824912038
 30
0.0
 11
105.7419616825232
 21
121.7900247455232
 31
0.0
  0
LINE
  5
587
330
E3
100
AcDbEntity
  8
0
  6
Continuous
100
AcDbLine
 10
105.7419616825232
 20
121.7900247455232
 30
0.0
 11
105.6983827383422
 21
121.7845669998426
 31
0.0
  0
LINE
  5
588
330
E3
100
AcDbEntity
  8
0
  6
Continuous
100
AcDbLine
 10
105.6983827383422
 20
121.7845669998426
 30
0.0
 11
105.655139488836
 21
121.7791128637822
 31
0.0
  0
LINE
  5
589
330
E3
100
AcDbEntity
  8
0
  6
Continuous
100
AcDbLine
 10
105.655139488836
 20
121.7791128637822
 30
0.0
 11
105.6125531901988
 21
121.7736551181016
 31
0.0
  0
LINE
  5
58A
330
E3
100
AcDbEntity
  8
0
  6
Continuous
100
AcDbLine
 10
105.6125531901988
 20
121.7736551181016
 30
0.0
 11
105.570952317865
 21
121.768197372421
 31
0.0
  0
LINE
  5
58B
330
E3
100
AcDbEntity
  8
0
  6
Continuous
100
AcDbLine
 10
105.570952317865
 20
121.768197372421
 30
0.0
 11
105.5306545184086
 21
121.7627432363606
 31
0.0
  0
LINE
  5
58C
330
E3
100
AcDbEntity
  8
0
  6
Continuous
100
AcDbLine
 10
105.5306545184086
 20
121.7627432363606
 30
0.0
 11
105.4919629999231
 21
121.75728549068
 31
0.0
  0
LINE
  5
58D
330
E3
100
AcDbEntity
  8
0
  6
Continuous
100
AcDbLine
 10
105.4919629999231
 20
121.75728549068
 30
0.0
 11
105.4551737512614
 21
121.7518313546196
 31
0.0
  0
LINE
  5
58E
330
E3
100
AcDbEntity
  8
0
  6
Continuous
100
AcDbLine
 10
105.4551737512614
 20
121.7518313546196
 30
0.0
 11
105.420568322796
 21
121.746373608939
 31
0.0
  0
LINE
  5
58F
330
E3
100
AcDbEntity
  8
0
  6
Continuous
100
AcDbLine
 10
105.420568322796
 20
121.746373608939
 30
0.0
 11
105.3884102167984
 21
121.7409158632585
 31
0.0
  0
LINE
  5
590
330
E3
100
AcDbEntity
  8
0
  6
Continuous
100
AcDbLine
 10
105.3884102167984
 20
121.7409158632585
 30
0.0
 11
105.3589412778194
 21
121.735461727198
 31
0.0
  0
LINE
  5
591
330
E3
100
AcDbEntity
  8
0
  6
Continuous
100
AcDbLine
 10
105.3589412778194
 20
121.735461727198
 30
0.0
 11
105.3323853023088
 21
121.7300039815175
 31
0.0
  0
LINE
  5
592
330
E3
100
AcDbEntity
  8
0
  6
Continuous
100
AcDbLine
 10
105.3323853023088
 20
121.7300039815175
 30
0.0
 11
105.3089480386157
 21
121.724549845457
 31
0.0
  0
LINE
  5
593
330
E3
100
AcDbEntity
  8
0
  6
Continuous
100
AcDbLine
 10
105.3089480386157
 20
121.724549845457
 30
0.0
 11
105.2888063581278
 21
121.7190920997765
 31
0.0
  0
LINE
  5
594
330
E3
100
AcDbEntity
  8
0
  6
Continuous
100
AcDbLine
 10
105.2888063581278
 20
121.7190920997765
 30
0.0
 11
105.2721154745121
 21
121.7136343540959
 31
0.0
  0
LINE
  5
595
330
E3
100
AcDbEntity
  8
0
  6
Continuous
100
AcDbLine
 10
105.2721154745121
 20
121.7136343540959
 30
0.0
 11
105.2589981148539
 21
121.7081802180355
 31
0.0
  0
LINE
  5
596
330
E3
100
AcDbEntity
  8
0
  6
Continuous
100
AcDbLine
 10
105.2589981148539
 20
121.7081802180355
 30
0.0
 11
105.2495589581378
 21
121.7027224723549
 31
0.0
  0
ENDBLK
  5
E5
330
E3
100
AcDbEntity
  8
0
100
AcDbBlockEnd
  0
BLOCK
  5
59C
330
59B
100
AcDbEntity
  8
0
100
AcDbBlockBegin
  2
R-TRS5-05 HIDDENGUTTER DETAIL_STORY_MARKER
 70
     0
 10
0.0
 20
0.0
 30
0.0
  3
R-TRS5-05 HIDDENGUTTER DETAIL_STORY_MARKER
  1

  0
ENDBLK
  5
59D
330
59B
100
AcDbEntity
  8
0
100
AcDbBlockEnd
  0
ENDSEC
  0
SECTION
  2
ENTITIES
  0
HATCH
  5
3F
330
1F
100
AcDbEntity
  8
Doc_ Finishes
  6
Continuous
100
AcDbHatch
 10
0.0
 20
0.0
 30
0.0
210
0.0
220
0.0
230
1.0
  2
SOLID
 70
     1
 71
     0
 91
        1
 92
        3
 72
     0
 73
     1
 93
       54
 10
27.4117749414874
 20
16.87044408857867
 10
26.89356552397386
 20
16.5825499677378
 10
26.5480925789648
 20
16.29465584689693
 10
26.12584786839819
 20
16.02595466744544
 10
25.76118198199976
 20
15.60370995687884
 10
25.39651609560134
 20
15.33500877742737
 10
25.07023609198168
 20
14.89357112547136
 10
24.49444785029994
 20
14.45213347351537
 10
23.93785255000758
 20
14.02988876294876
 10
23.43883607388344
 20
13.81876640766546
 10
22.74789018386533
 20
13.39652169709885
 10
22.09533017662603
 20
12.99346992792163
 10
21.63469958328064
 20
12.55203227596564
 10
20.90536781048376
 20
12.12978756539902
 10
20.59828074825351
 20
11.7459287376112
 10
20.04168544796116
 20
11.28529814426581
 10
19.36993249933246
 20
10.8630534336992
 10
18.73656543348255
 20
10.42161578174319
 10
18.04561954346447
 20
10.15291460229172
 10
17.1051654153843
 20
9.692284008946325
 10
16.39502658397681
 20
9.020531060317637
 10
15.83843128368446
 20
8.598286349751023
 10
15.12829245227699
 20
8.137655756405634
 10
14.84039833143612
 20
7.98411222529051
 10
14.37976773809073
 20
7.81137575278599
 10
14.07268067586046
 20
7.523481631945121
 10
14.0151018516923
 20
7.216394569714853
 10
14.14945244141803
 20
6.890114566095209
 10
14.4373465622589
 20
6.563834562475543
 10
14.8787842142149
 20
6.659799269422514
 10
15.51215128006482
 20
7.06285103859973
 10
16.01116775618899
 20
7.389131042219374
 10
16.33744775980864
 20
7.696218104449641
 10
16.51018423231316
 20
7.907340459732938
 10
17.01303929671522
 20
8.421711288968723
 10
17.33548071205699
 20
8.652026585641417
 10
17.75004824606785
 20
8.99749953065046
 10
18.14158425041142
 20
9.204783297655894
 10
19.24709767444037
 20
9.75754000967037
 10
20.23745345013295
 20
10.47151742935572
 10
21.4120614631637
 20
11.1624633193738
 10
21.84966052684182
 20
11.64612544238645
 10
22.49454335752537
 20
12.06069297639732
 10
23.78430901889248
 20
12.9819541630881
 10
24.3600972605742
 20
13.25833251909534
 10
25.6498629219413
 20
14.24868829478776
 10
25.85714668894673
 20
14.64022429913134
 10
26.68628175696843
 20
15.23904407048036
 10
27.28510152831745
 20
15.72270619349301
 10
27.81482671066464
 20
16.1142421978366
 10
28.27545730401003
 20
16.52880973184745
 10
28.22939424467549
 20
16.7821565581874
 10
28.09120506667188
 20
16.89731420652375
 10
27.56147988432467
 20
16.89731420652375
 97
        0
 75
     0
 76
     1
 98
        0
  0
LINE
  5
41
330
1F
100
AcDbEntity
  8
Doc_ Finishes
  6
Continuous
100
AcDbLine
 10
27.41177566876475
 20
16.87044600708104
 30
0.0
 11
26.89356756490952
 21
16.58254868214004
 31
0.0
  0
LINE
  5
42
330
1F
100
AcDbEntity
  8
Doc_ Finishes
  6
Continuous
100
AcDbLine
 10
26.89356756490952
 20
16.58254868214004
 30
0.0
 11
26.54809254523997
 21
16.29465578284815
 31
0.0
  0
LINE
  5
43
330
1F
100
AcDbEntity
  8
Doc_ Finishes
  6
Continuous
100
AcDbLine
 10
26.54809254523997
 20
16.29465578284815
 30
0.0
 11
26.12584579071597
 21
16.02595249803305
 31
0.0
  0
LINE
  5
44
330
1F
100
AcDbEntity
  8
Doc_ Finishes
  6
Continuous
100
AcDbLine
 10
26.12584579071597
 20
16.02595249803305
 30
0.0
 11
25.76118115656963
 21
15.60371016915814
 31
0.0
  0
LINE
  5
45
330
1F
100
AcDbEntity
  8
Doc_ Finishes
  6
Continuous
100
AcDbLine
 10
25.76118115656963
 20
15.60371016915814
 30
0.0
 11
25.39651652242329
 21
15.33500688434304
 31
0.0
  0
LINE
  5
46
330
1F
100
AcDbEntity
  8
Doc_ Finishes
  6
Continuous
100
AcDbLine
 10
25.39651652242329
 20
15.33500688434304
 30
0.0
 11
25.07023554287962
 21
14.89357051534225
 31
0.0
  0
LINE
  5
47
330
1F
100
AcDbEntity
  8
Doc_ Finishes
  6
Continuous
100
AcDbLine
 10
25.07023554287962
 20
14.89357051534225
 30
0.0
 11
24.49444974429583
 21
14.45213414634146
 31
0.0
  0
LINE
  5
48
330
1F
100
AcDbEntity
  8
Doc_ Finishes
  6
Continuous
100
AcDbLine
 10
24.49444974429583
 20
14.45213414634146
 30
0.0
 11
23.93785356018882
 21
14.02988739181747
 31
0.0
  0
LINE
  5
49
330
1F
100
AcDbEntity
  8
Doc_ Finishes
  6
Continuous
100
AcDbLine
 10
23.93785356018882
 20
14.02988739181747
 30
0.0
 11
23.43883507081038
 21
13.81876622738001
 31
0.0
  0
LINE
  5
4A
330
1F
100
AcDbEntity
  8
Doc_ Finishes
  6
Continuous
100
AcDbLine
 10
23.43883507081038
 20
13.81876622738001
 30
0.0
 11
22.74788945712038
 21
13.39652389850511
 31
0.0
  0
LINE
  5
4B
330
1F
100
AcDbEntity
  8
Doc_ Finishes
  6
Continuous
100
AcDbLine
 10
22.74788945712038
 20
13.39652389850511
 30
0.0
 11
22.09533192368214
 21
12.993471184107
 31
0.0
  0
LINE
  5
4C
330
1F
100
AcDbEntity
  8
Doc_ Finishes
  6
Continuous
100
AcDbLine
 10
22.09533192368214
 20
12.993471184107
 30
0.0
 11
21.63470151455547
 21
12.55203038945712
 31
0.0
  0
LINE
  5
4D
330
1F
100
AcDbEntity
  8
Doc_ Finishes
  6
Continuous
100
AcDbLine
 10
21.63470151455547
 20
12.55203038945712
 30
0.0
 11
20.90536782061369
 21
12.12978806058222
 31
0.0
  0
LINE
  5
4E
330
1F
100
AcDbEntity
  8
Doc_ Finishes
  6
Continuous
100
AcDbLine
 10
20.90536782061369
 20
12.12978806058222
 30
0.0
 11
20.59828088119591
 21
11.74592938630999
 31
0.0
  0
LINE
  5
4F
330
1F
100
AcDbEntity
  8
Doc_ Finishes
  6
Continuous
100
AcDbLine
 10
20.59828088119591
 20
11.74592938630999
 30
0.0
 11
20.0416846970889
 21
11.28529897718332
 31
0.0
  0
LINE
  5
50
330
1F
100
AcDbEntity
  8
Doc_ Finishes
  6
Continuous
100
AcDbLine
 10
20.0416846970889
 20
11.28529897718332
 30
0.0
 11
19.36993312352478
 21
10.86305222265932
 31
0.0
  0
LINE
  5
51
330
1F
100
AcDbEntity
  8
Doc_ Finishes
  6
Continuous
100
AcDbLine
 10
19.36993312352478
 20
10.86305222265932
 30
0.0
 11
18.73656520456333
 21
10.42161585365854
 31
0.0
  0
LINE
  5
52
330
1F
100
AcDbEntity
  8
Doc_ Finishes
  6
Continuous
100
AcDbLine
 10
18.73656520456333
 20
10.42161585365854
 30
0.0
 11
18.04561959087333
 21
10.15291256884343
 31
0.0
  0
LINE
  5
53
330
1F
100
AcDbEntity
  8
Doc_ Finishes
  6
Continuous
100
AcDbLine
 10
18.04561959087333
 20
10.15291256884343
 30
0.0
 11
17.1051647324941
 21
9.692282159716758
 31
0.0
  0
LINE
  5
54
330
1F
100
AcDbEntity
  8
Doc_ Finishes
  6
Continuous
100
AcDbLine
 10
17.1051647324941
 20
9.692282159716758
 30
0.0
 11
16.3950250786782
 21
9.020530586152635
 31
0.0
  0
LINE
  5
55
330
1F
100
AcDbEntity
  8
Doc_ Finishes
  6
Continuous
100
AcDbLine
 10
16.3950250786782
 20
9.020530586152635
 30
0.0
 11
15.8384333202203
 21
8.598288257277733
 31
0.0
  0
LINE
  5
56
330
1F
100
AcDbEntity
  8
Doc_ Finishes
  6
Continuous
100
AcDbLine
 10
15.8384333202203
 20
8.598288257277733
 30
0.0
 11
15.1282936664044
 21
8.137657848151063
 31
0.0
  0
LINE
  5
57
330
1F
100
AcDbEntity
  8
Doc_ Finishes
  6
Continuous
100
AcDbLine
 10
15.1282936664044
 20
8.137657848151063
 30
0.0
 11
14.84039634146341
 21
7.984114378442171
 31
0.0
  0
LINE
  5
58
330
1F
100
AcDbEntity
  8
Doc_ Finishes
  6
Continuous
100
AcDbLine
 10
14.84039634146341
 20
7.984114378442171
 30
0.0
 11
14.37976593233674
 21
7.811376868607396
 31
0.0
  0
LINE
  5
59
330
1F
100
AcDbEntity
  8
Doc_ Finishes
  6
Continuous
100
AcDbLine
 10
14.37976593233674
 20
7.811376868607396
 30
0.0
 11
14.07267899291896
 21
7.523479543666405
 31
0.0
  0
LINE
  5
5A
330
1F
100
AcDbEntity
  8
Doc_ Finishes
  6
Continuous
100
AcDbLine
 10
14.07267899291896
 20
7.523479543666405
 30
0.0
 11
14.0151012981904
 21
7.216392604248622
 31
0.0
  0
LINE
  5
5B
330
1F
100
AcDbEntity
  8
Doc_ Finishes
  6
Continuous
100
AcDbLine
 10
14.0151012981904
 20
7.216392604248622
 30
0.0
 11
14.14945072777341
 21
6.890116050354051
 31
0.0
  0
LINE
  5
5C
330
1F
100
AcDbEntity
  8
Doc_ Finishes
  6
Continuous
100
AcDbLine
 10
14.14945072777341
 20
6.890116050354051
 30
0.0
 11
14.4373480527144
 21
6.563835070810386
 31
0.0
  0
LINE
  5
5D
330
1F
100
AcDbEntity
  8
Doc_ Finishes
  6
Continuous
100
AcDbLine
 10
14.4373480527144
 20
6.563835070810386
 30
0.0
 11
14.87878442171519
 21
6.659800845790715
 31
0.0
  0
LINE
  5
5E
330
1F
100
AcDbEntity
  8
Doc_ Finishes
  6
Continuous
100
AcDbLine
 10
14.87878442171519
 20
6.659800845790715
 30
0.0
 11
15.51215234067663
 21
7.062849134539732
 31
0.0
  0
LINE
  5
5F
330
1F
100
AcDbEntity
  8
Doc_ Finishes
  6
Continuous
100
AcDbLine
 10
15.51215234067663
 20
7.062849134539732
 30
0.0
 11
16.01116640440598
 21
7.389130114083398
 31
0.0
  0
LINE
  5
60
330
1F
100
AcDbEntity
  8
Doc_ Finishes
  6
Continuous
100
AcDbLine
 10
16.01116640440598
 20
7.389130114083398
 30
0.0
 11
16.33744738394964
 21
7.69621705350118
 31
0.0
  0
LINE
  5
61
330
1F
100
AcDbEntity
  8
Doc_ Finishes
  6
Continuous
100
AcDbLine
 10
16.33744738394964
 20
7.69621705350118
 30
0.0
 11
16.51018489378442
 21
7.907342643587726
 31
0.0
  0
LINE
  5
62
330
1F
100
AcDbEntity
  8
Doc_ Finishes
  6
Continuous
100
AcDbLine
 10
16.51018489378442
 20
7.907342643587726
 30
0.0
 11
17.0130404209284
 21
8.421709284028323
 31
0.0
  0
LINE
  5
63
330
1F
100
AcDbEntity
  8
Doc_ Finishes
  6
Continuous
100
AcDbLine
 10
17.0130404209284
 20
8.421709284028323
 30
0.0
 11
17.33547993705743
 21
8.65202448859166
 31
0.0
  0
LINE
  5
64
330
1F
100
AcDbEntity
  8
Doc_ Finishes
  6
Continuous
100
AcDbLine
 10
17.33547993705743
 20
8.65202448859166
 30
0.0
 11
17.75004819040126
 21
8.997499508261212
 31
0.0
  0
LINE
  5
65
330
1F
100
AcDbEntity
  8
Doc_ Finishes
  6
Continuous
100
AcDbLine
 10
17.75004819040126
 20
8.997499508261212
 30
0.0
 11
18.14158536585366
 21
9.204783634933122
 31
0.0
  0
LINE
  5
66
330
1F
100
AcDbEntity
  8
Doc_ Finishes
  6
Continuous
100
AcDbLine
 10
18.14158536585366
 20
9.204783634933122
 30
0.0
 11
19.24709923288749
 21
9.75753835562549
 31
0.0
  0
LINE
  5
67
330
1F
100
AcDbEntity
  8
Doc_ Finishes
  6
Continuous
100
AcDbLine
 10
19.24709923288749
 20
9.75753835562549
 30
0.0
 11
20.23745328481511
 21
10.47151947285602
 31
0.0
  0
LINE
  5
68
330
1F
100
AcDbEntity
  8
Doc_ Finishes
  6
Continuous
100
AcDbLine
 10
20.23745328481511
 20
10.47151947285602
 30
0.0
 11
21.41206038552321
 21
11.16246508654602
 31
0.0
  0
LINE
  5
69
330
1F
100
AcDbEntity
  8
Doc_ Finishes
  6
Continuous
100
AcDbLine
 10
21.41206038552321
 20
11.16246508654602
 30
0.0
 11
21.84965971675846
 21
11.64612657356412
 31
0.0
  0
LINE
  5
6A
330
1F
100
AcDbEntity
  8
Doc_ Finishes
  6
Continuous
100
AcDbLine
 10
21.84965971675846
 20
11.64612657356412
 30
0.0
 11
22.49454317466562
 21
12.06069482690795
 31
0.0
  0
LINE
  5
6B
330
1F
100
AcDbEntity
  8
Doc_ Finishes
  6
Continuous
100
AcDbLine
 10
22.49454317466562
 20
12.06069482690795
 30
0.0
 11
23.78431009047993
 21
12.98195564516129
 31
0.0
  0
LINE
  5
6C
330
1F
100
AcDbEntity
  8
Doc_ Finishes
  6
Continuous
100
AcDbLine
 10
23.78431009047993
 20
12.98195564516129
 30
0.0
 11
24.36009588906373
 21
13.25833300550747
 31
0.0
  0
LINE
  5
6D
330
1F
100
AcDbEntity
  8
Doc_ Finishes
  6
Continuous
100
AcDbLine
 10
24.36009588906373
 20
13.25833300550747
 30
0.0
 11
25.64986280487805
 21
14.24868705743509
 31
0.0
  0
LINE
  5
6E
330
1F
100
AcDbEntity
  8
Doc_ Finishes
  6
Continuous
100
AcDbLine
 10
25.64986280487805
 20
14.24868705743509
 30
0.0
 11
25.85714693154996
 21
14.64022423288749
 31
0.0
  0
LINE
  5
6F
330
1F
100
AcDbEntity
  8
Doc_ Finishes
  6
Continuous
100
AcDbLine
 10
25.85714693154996
 20
14.64022423288749
 30
0.0
 11
26.68628343823761
 21
15.2390455350118
 31
0.0
  0
LINE
  5
70
330
1F
100
AcDbEntity
  8
Doc_ Finishes
  6
Continuous
100
AcDbLine
 10
26.68628343823761
 20
15.2390455350118
 30
0.0
 11
27.28510031471282
 21
15.7227070220299
 31
0.0
  0
LINE
  5
71
330
1F
100
AcDbEntity
  8
Doc_ Finishes
  6
Continuous
100
AcDbLine
 10
27.28510031471282
 20
15.7227070220299
 30
0.0
 11
27.81482838316287
 21
16.1142441974823
 31
0.0
  0
LINE
  5
72
330
1F
100
AcDbEntity
  8
Doc_ Finishes
  6
Continuous
100
AcDbLine
 10
27.81482838316287
 20
16.1142441974823
 30
0.0
 11
28.27545879228953
 21
16.52880802517702
 31
0.0
  0
LINE
  5
73
330
1F
100
AcDbEntity
  8
Doc_ Finishes
  6
Continuous
100
AcDbLine
 10
28.27545879228953
 20
16.52880802517702
 30
0.0
 11
28.22939221085759
 21
16.78215873328088
 31
0.0
  0
LINE
  5
74
330
1F
100
AcDbEntity
  8
Doc_ Finishes
  6
Continuous
100
AcDbLine
 10
28.22939221085759
 20
16.78215873328088
 30
0.0
 11
28.09120574350905
 21
16.897314122738
 31
0.0
  0
LINE
  5
75
330
1F
100
AcDbEntity
  8
Doc_ Finishes
  6
Continuous
100
AcDbLine
 10
28.09120574350905
 20
16.897314122738
 30
0.0
 11
27.56147767505901
 21
16.897314122738
 31
0.0
  0
LINE
  5
76
330
1F
100
AcDbEntity
  8
Doc_ Finishes
  6
Continuous
100
AcDbLine
 10
27.56147767505901
 20
16.897314122738
 30
0.0
 11
27.41177566876475
 21
16.87044600708104
 31
0.0
  0
HATCH
  5
77
330
1F
100
AcDbEntity
  8
Doc_ Finishes
  6
Continuous
100
AcDbHatch
 10
0.0
 20
0.0
 30
0.0
210
0.0
220
0.0
230
1.0
  2
SOLID
 70
     1
 71
     0
 91
        1
 92
        3
 72
     0
 73
     1
 93
       39
 10
27.65360600299377
 20
13.12014334109181
 10
27.21600693931564
 20
12.77467039608275
 10
26.54809257896482
 20
12.24494521373555
 10
25.92624127794851
 20
11.85340920939199
 10
25.32742150659951
 20
11.32368402704478
 10
24.72860173525052
 20
11.04730567103754
 10
24.08371890456698
 20
10.56364354802488
 10
23.62308831122158
 20
10.33332825135219
 10
23.231552306878
 20
10.03391836567767
 10
22.81698477286715
 20
9.619350831666825
 10
22.40241723885631
 20
9.38903553499415
 10
21.91875511584363
 20
9.043562589985086
 10
21.66540828950367
 20
8.859310352646935
 10
21.25084075549282
 20
8.582931996639696
 10
20.09926427212933
 20
7.753796928618002
 10
19.75379132712029
 20
7.477418572610764
 10
19.2931607337749
 20
7.316197864939873
 10
19.22406614477309
 20
6.993756449598113
 10
19.3622553227767
 20
6.717378093590874
 10
19.63863367878394
 20
6.602220445254527
 10
20.00713815346026
 20
6.8325357419272
 10
20.26048497980021
 20
7.131945627601722
 10
20.55989486547472
 20
7.362260924274415
 10
21.31993534449462
 20
7.707733869283458
 10
21.84966052684182
 20
8.122301403294307
 10
22.88607936186895
 20
8.882341882314256
 10
23.20852077721072
 20
9.342972475659646
 10
24.01462431556515
 20
9.734508480003234
 10
24.5673810275796
 20
10.05694989534501
 10
25.46561068460312
 20
10.60970660735953
 10
25.88017821861399
 20
11.07033720070492
 10
26.31777728229212
 20
11.34671555671216
 10
26.70931328663569
 20
11.30065249737762
 10
27.21600693931562
 20
11.55399932371759
 10
28.0681735370046
 20
12.17585062473387
 10
28.41364648201364
 20
12.49829204007566
 10
28.39061495234636
 20
12.77467039608289
 10
28.22939424467547
 20
13.00498569275559
 10
28.04514200733732
 20
13.05104875209013
 97
        0
 75
     0
 76
     1
 98
        0
  0
LINE
  5
78
330
1F
100
AcDbEntity
  8
Doc_ Finishes
  6
Continuous
100
AcDbLine
 10
27.6536064122738
 20
13.12014211250983
 30
0.0
 11
27.21600708103855
 21
12.77467151848938
 31
0.0
  0
LINE
  5
79
330
1F
100
AcDbEntity
  8
Doc_ Finishes
  6
Continuous
100
AcDbLine
 10
27.21600708103855
 20
12.77467151848938
 30
0.0
 11
26.54809254523997
 21
12.24494345003934
 31
0.0
  0
LINE
  5
7A
330
1F
100
AcDbEntity
  8
Doc_ Finishes
  6
Continuous
100
AcDbLine
 10
26.54809254523997
 20
12.24494345003934
 30
0.0
 11
25.92624016522423
 21
11.85341070023603
 31
0.0
  0
LINE
  5
7B
330
1F
100
AcDbEntity
  8
Doc_ Finishes
  6
Continuous
100
AcDbLine
 10
25.92624016522423
 20
11.85341070023603
 30
0.0
 11
25.32742328874902
 21
11.32368263178599
 31
0.0
  0
LINE
  5
7C
330
1F
100
AcDbEntity
  8
Doc_ Finishes
  6
Continuous
100
AcDbLine
 10
25.32742328874902
 20
11.32368263178599
 30
0.0
 11
24.72860198662471
 21
11.04730527143981
 31
0.0
  0
LINE
  5
7D
330
1F
100
AcDbEntity
  8
Doc_ Finishes
  6
Continuous
100
AcDbLine
 10
24.72860198662471
 20
11.04730527143981
 30
0.0
 11
24.08371852871754
 21
10.56364378442171
 31
0.0
  0
LINE
  5
7E
330
1F
100
AcDbEntity
  8
Doc_ Finishes
  6
Continuous
100
AcDbLine
 10
24.08371852871754
 20
10.56364378442171
 30
0.0
 11
23.62308811959087
 21
10.33332857985838
 31
0.0
  0
LINE
  5
7F
330
1F
100
AcDbEntity
  8
Doc_ Finishes
  6
Continuous
100
AcDbLine
 10
23.62308811959087
 20
10.33332857985838
 30
0.0
 11
23.23155094413847
 21
10.03392014162077
 31
0.0
  0
LINE
  5
80
330
1F
100
AcDbEntity
  8
Doc_ Finishes
  6
Continuous
100
AcDbLine
 10
23.23155094413847
 20
10.03392014162077
 30
0.0
 11
22.81698269079465
 21
9.619351888276947
 31
0.0
  0
LINE
  5
81
330
1F
100
AcDbEntity
  8
Doc_ Finishes
  6
Continuous
100
AcDbLine
 10
22.81698269079465
 20
9.619351888276947
 30
0.0
 11
22.40241886309992
 21
9.389036683713611
 31
0.0
  0
LINE
  5
82
330
1F
100
AcDbEntity
  8
Doc_ Finishes
  6
Continuous
100
AcDbLine
 10
22.40241886309992
 20
9.389036683713611
 30
0.0
 11
21.91875295043273
 21
9.04356166404406
 31
0.0
  0
LINE
  5
83
330
1F
100
AcDbEntity
  8
Doc_ Finishes
  6
Continuous
100
AcDbLine
 10
21.91875295043273
 20
9.04356166404406
 30
0.0
 11
21.66540666797797
 21
8.859308615263572
 31
0.0
  0
LINE
  5
84
330
1F
100
AcDbEntity
  8
Doc_ Finishes
  6
Continuous
100
AcDbLine
 10
21.66540666797797
 20
8.859308615263572
 30
0.0
 11
21.25084284028324
 21
8.582931254917387
 31
0.0
  0
LINE
  5
85
330
1F
100
AcDbEntity
  8
Doc_ Finishes
  6
Continuous
100
AcDbLine
 10
21.25084284028324
 20
8.582931254917387
 30
0.0
 11
20.09926239181747
 21
7.75379474822974
 31
0.0
  0
LINE
  5
86
330
1F
100
AcDbEntity
  8
Doc_ Finishes
  6
Continuous
100
AcDbLine
 10
20.09926239181747
 20
7.75379474822974
 30
0.0
 11
19.75379179779701
 21
7.477417387883556
 31
0.0
  0
LINE
  5
87
330
1F
100
AcDbEntity
  8
Doc_ Finishes
  6
Continuous
100
AcDbLine
 10
19.75379179779701
 20
7.477417387883556
 30
0.0
 11
19.29316138867033
 21
7.316199842643588
 31
0.0
  0
LINE
  5
88
330
1F
100
AcDbEntity
  8
Doc_ Finishes
  6
Continuous
100
AcDbLine
 10
19.29316138867033
 20
7.316199842643588
 30
0.0
 11
19.22406815499606
 21
6.993755900865461
 31
0.0
  0
LINE
  5
89
330
1F
100
AcDbEntity
  8
Doc_ Finishes
  6
Continuous
100
AcDbLine
 10
19.22406815499606
 20
6.993755900865461
 30
0.0
 11
19.36225462234461
 21
6.717378540519276
 31
0.0
  0
LINE
  5
8A
330
1F
100
AcDbEntity
  8
Doc_ Finishes
  6
Continuous
100
AcDbLine
 10
19.36225462234461
 20
6.717378540519276
 30
0.0
 11
19.63863198269079
 21
6.602218725413059
 31
0.0
  0
LINE
  5
8B
330
1F
100
AcDbEntity
  8
Doc_ Finishes
  6
Continuous
100
AcDbLine
 10
19.63863198269079
 20
6.602218725413059
 30
0.0
 11
20.00713808025177
 21
6.832533929976396
 31
0.0
  0
LINE
  5
8C
330
1F
100
AcDbEntity
  8
Doc_ Finishes
  6
Continuous
100
AcDbLine
 10
20.00713808025177
 20
6.832533929976396
 30
0.0
 11
20.26048436270653
 21
7.1319467938631
 31
0.0
  0
LINE
  5
8D
330
1F
100
AcDbEntity
  8
Doc_ Finishes
  6
Continuous
100
AcDbLine
 10
20.26048436270653
 20
7.1319467938631
 30
0.0
 11
20.55989280094414
 21
7.362261998426435
 31
0.0
  0
LINE
  5
8E
330
1F
100
AcDbEntity
  8
Doc_ Finishes
  6
Continuous
100
AcDbLine
 10
20.55989280094414
 20
7.362261998426435
 30
0.0
 11
21.31993607395751
 21
7.707732592446892
 31
0.0
  0
LINE
  5
8F
330
1F
100
AcDbEntity
  8
Doc_ Finishes
  6
Continuous
100
AcDbLine
 10
21.31993607395751
 20
7.707732592446892
 30
0.0
 11
21.84965971675846
 21
8.122300845790717
 31
0.0
  0
LINE
  5
90
330
1F
100
AcDbEntity
  8
Doc_ Finishes
  6
Continuous
100
AcDbLine
 10
21.84965971675846
 20
8.122300845790717
 30
0.0
 11
22.88608035011802
 21
8.882339693154996
 31
0.0
  0
LINE
  5
91
330
1F
100
AcDbEntity
  8
Doc_ Finishes
  6
Continuous
100
AcDbLine
 10
22.88608035011802
 20
8.882339693154996
 30
0.0
 11
23.20851986624705
 21
9.342974527930762
 31
0.0
  0
LINE
  5
92
330
1F
100
AcDbEntity
  8
Doc_ Finishes
  6
Continuous
100
AcDbLine
 10
23.20851986624705
 20
9.342974527930762
 30
0.0
 11
24.01462529504327
 21
9.734507277734066
 31
0.0
  0
LINE
  5
93
330
1F
100
AcDbEntity
  8
Doc_ Finishes
  6
Continuous
100
AcDbLine
 10
24.01462529504327
 20
9.734507277734066
 30
0.0
 11
24.56738001573564
 21
10.05695121951219
 31
0.0
  0
LINE
  5
94
330
1F
100
AcDbEntity
  8
Doc_ Finishes
  6
Continuous
100
AcDbLine
 10
24.56738001573564
 20
10.05695121951219
 30
0.0
 11
25.46560975609756
 21
10.60970594020456
 31
0.0
  0
LINE
  5
95
330
1F
100
AcDbEntity
  8
Doc_ Finishes
  6
Continuous
100
AcDbLine
 10
25.46560975609756
 20
10.60970594020456
 30
0.0
 11
25.88017800944139
 21
11.07033634933124
 31
0.0
  0
LINE
  5
96
330
1F
100
AcDbEntity
  8
Doc_ Finishes
  6
Continuous
100
AcDbLine
 10
25.88017800944139
 20
11.07033634933124
 30
0.0
 11
26.31777734067663
 21
11.34671370967742
 31
0.0
  0
LINE
  5
97
330
1F
100
AcDbEntity
  8
Doc_ Finishes
  6
Continuous
100
AcDbLine
 10
26.31777734067663
 20
11.34671370967742
 30
0.0
 11
26.70931451612903
 21
11.30065155389457
 31
0.0
  0
LINE
  5
98
330
1F
100
AcDbEntity
  8
Doc_ Finishes
  6
Continuous
100
AcDbLine
 10
26.70931451612903
 20
11.30065155389457
 30
0.0
 11
27.21600708103855
 21
11.55399783634933
 31
0.0
  0
LINE
  5
99
330
1F
100
AcDbEntity
  8
Doc_ Finishes
  6
Continuous
100
AcDbLine
 10
27.21600708103855
 20
11.55399783634933
 30
0.0
 11
28.06817466561763
 21
12.17585021636507
 31
0.0
  0
LINE
  5
9A
330
1F
100
AcDbEntity
  8
Doc_ Finishes
  6
Continuous
100
AcDbLine
 10
28.06817466561763
 20
12.17585021636507
 30
0.0
 11
28.41364525963808
 21
12.49829415814319
 31
0.0
  0
LINE
  5
9B
330
1F
100
AcDbEntity
  8
Doc_ Finishes
  6
Continuous
100
AcDbLine
 10
28.41364525963808
 20
12.49829415814319
 30
0.0
 11
28.39061418174666
 21
12.77467151848938
 31
0.0
  0
LINE
  5
9C
330
1F
100
AcDbEntity
  8
Doc_ Finishes
  6
Continuous
100
AcDbLine
 10
28.39061418174666
 20
12.77467151848938
 30
0.0
 11
28.22939221085759
 21
13.00498672305271
 31
0.0
  0
LINE
  5
9D
330
1F
100
AcDbEntity
  8
Doc_ Finishes
  6
Continuous
100
AcDbLine
 10
28.22939221085759
 20
13.00498672305271
 30
0.0
 11
28.04514358772619
 21
13.05104887883556
 31
0.0
  0
LINE
  5
9E
330
1F
100
AcDbEntity
  8
Doc_ Finishes
  6
Continuous
100
AcDbLine
 10
28.04514358772619
 20
13.05104887883556
 30
0.0
 11
27.6536064122738
 21
13.12014211250983
 31
0.0
  0
HATCH
  5
9F
330
1F
100
AcDbEntity
  8
Doc_ Finishes
  6
Continuous
100
AcDbHatch
 10
0.0
 20
0.0
 30
0.0
210
0.0
220
0.0
230
1.0
  2
SOLID
 70
     1
 71
     0
 91
        1
 92
        3
 72
     0
 73
     1
 93
       47
 10
28.06817353700456
 20
15.74573772316067
 10
28.30309513961077
 20
15.62136746295728
 10
28.4412843176144
 20
15.4002647781515
 10
28.93876535842742
 20
15.17916209334572
 10
29.82317609765057
 20
14.40530269652538
 10
30.92868952167951
 20
13.74199464210799
 10
31.59199757609689
 20
13.3827027792986
 10
32.20002995931279
 20
13.07868658769064
 10
33.55428390374828
 20
12.08372450606458
 10
34.07940278016201
 20
11.69679480765445
 10
34.88090001258301
 20
11.08876242443854
 10
35.59948373820179
 20
10.50836787682334
 10
36.5668079842271
 20
9.817421986805197
 10
37.06428902504012
 20
9.458130123995785
 10
37.81051058625966
 20
8.933011247582023
 10
38.61200781868061
 20
8.407892371168286
 10
38.77783483228498
 20
8.186789686362482
 10
39.38586721550092
 20
7.744584316750918
 10
40.18736444792187
 20
6.915449248729224
 10
40.7953968311378
 20
6.44560604351692
 10
41.56925622795804
 20
6.169227687509681
 10
42.23256428237543
 20
6.086314180707507
 10
42.48130480278193
 20
6.30741686551329
 10
42.14965077557326
 20
6.611433057121246
 10
41.48634272115586
 20
6.998362755531397
 10
40.76775899553709
 20
7.357654618340788
 10
40.18736444792187
 20
8.048600508358874
 10
38.99893751709079
 20
8.822459905179112
 10
38.47381864067705
 20
9.319940945992132
 10
38.22507812027052
 20
9.734508480003
 10
37.17484036744301
 20
10.31490302761817
 10
36.73263499783144
 20
10.78474623283046
 10
36.2351539570184
 20
11.17167593124059
 10
35.48893239579888
 20
11.61388130085215
 10
34.85326217698223
 20
12.16663801286669
 10
34.35578113616919
 20
12.58120554687754
 10
33.69247308175183
 20
12.99577308088841
 10
33.22262987653953
 20
13.32742710809708
 10
32.7251488357265
 20
13.5761676285036
 10
31.93747052110588
 20
14.06443605744977
 10
31.43077686842594
 20
14.38687747279155
 10
30.92408321574601
 20
14.70931888813342
 10
30.62467333007151
 20
15.100854892477
 10
29.95675896972068
 20
15.67664313415887
 10
29.47309684670803
 20
15.9530214901661
 10
28.82821401602447
 20
16.36758902417695
 10
28.50577260068269
 20
16.22939984617334
 97
        0
 75
     0
 76
     1
 98
        0
  0
LINE
  5
A0
330
1F
100
AcDbEntity
  8
Doc_ Finishes
  6
Continuous
100
AcDbLine
 10
28.30309697088906
 20
15.62136850904799
 30
0.0
 11
28.06817466561763
 21
15.74573809992132
 31
0.0
  0
LINE
  5
A1
330
1F
100
AcDbEntity
  8
Doc_ Finishes
  6
Continuous
100
AcDbLine
 10
28.44128343823761
 20
15.40026308025177
 30
0.0
 11
28.30309697088906
 21
15.62136850904799
 31
0.0
  0
LINE
  5
A2
330
1F
100
AcDbEntity
  8
Doc_ Finishes
  6
Continuous
100
AcDbLine
 10
28.93876622738001
 20
15.17916207710464
 30
0.0
 11
28.44128343823761
 21
15.40026308025177
 31
0.0
  0
LINE
  5
A3
330
1F
100
AcDbEntity
  8
Doc_ Finishes
  6
Continuous
100
AcDbLine
 10
29.82317466561762
 20
14.40530192761605
 30
0.0
 11
28.93876622738001
 21
15.17916207710464
 31
0.0
  0
LINE
  5
A4
330
1F
100
AcDbEntity
  8
Doc_ Finishes
  6
Continuous
100
AcDbLine
 10
30.92868853265146
 20
13.74199449252557
 30
0.0
 11
29.82317466561762
 21
14.40530192761605
 31
0.0
  0
LINE
  5
A5
330
1F
100
AcDbEntity
  8
Doc_ Finishes
  6
Continuous
100
AcDbLine
 10
31.59199596774193
 20
13.3827025963808
 30
0.0
 11
30.92868853265146
 21
13.74199449252557
 31
0.0
  0
LINE
  5
A6
330
1F
100
AcDbEntity
  8
Doc_ Finishes
  6
Continuous
100
AcDbLine
 10
32.20003147128246
 20
13.07868705743509
 30
0.0
 11
31.59199596774193
 21
13.3827025963808
 31
0.0
  0
LINE
  5
A7
330
1F
100
AcDbEntity
  8
Doc_ Finishes
  6
Continuous
100
AcDbLine
 10
33.55428452006294
 20
12.08372590479937
 30
0.0
 11
32.20003147128246
 21
13.07868705743509
 31
0.0
  0
LINE
  5
A8
330
1F
100
AcDbEntity
  8
Doc_ Finishes
  6
Continuous
100
AcDbLine
 10
34.07940106215578
 20
11.69679583005508
 30
0.0
 11
33.55428452006294
 21
12.08372590479937
 31
0.0
  0
LINE
  5
A9
330
1F
100
AcDbEntity
  8
Doc_ Finishes
  6
Continuous
100
AcDbLine
 10
34.8808993902439
 20
11.08876032651456
 30
0.0
 11
34.07940106215578
 21
11.69679583005508
 31
0.0
  0
LINE
  5
AA
330
1F
100
AcDbEntity
  8
Doc_ Finishes
  6
Continuous
100
AcDbLine
 10
35.59948318253343
 20
10.50836742722266
 30
0.0
 11
34.8808993902439
 21
11.08876032651456
 31
0.0
  0
LINE
  5
AB
330
1F
100
AcDbEntity
  8
Doc_ Finishes
  6
Continuous
100
AcDbLine
 10
36.56680615656963
 20
9.817421813532652
 30
0.0
 11
35.59948318253343
 21
10.50836742722266
 31
0.0
  0
LINE
  5
AC
330
1F
100
AcDbEntity
  8
Doc_ Finishes
  6
Continuous
100
AcDbLine
 10
37.06428894571204
 20
9.458129917387884
 30
0.0
 11
36.56680615656963
 21
9.817421813532652
 31
0.0
  0
LINE
  5
AD
330
1F
100
AcDbEntity
  8
Doc_ Finishes
  6
Continuous
100
AcDbLine
 10
37.8105109166011
 20
8.933013375295044
 30
0.0
 11
37.06428894571204
 21
9.458129917387884
 31
0.0
  0
LINE
  5
AE
330
1F
100
AcDbEntity
  8
Doc_ Finishes
  6
Continuous
100
AcDbLine
 10
38.61200924468922
 20
8.407892407553108
 30
0.0
 11
37.8105109166011
 21
8.933013375295044
 31
0.0
  0
LINE
  5
AF
330
1F
100
AcDbEntity
  8
Doc_ Finishes
  6
Continuous
100
AcDbLine
 10
38.77783389063729
 20
8.18679140440598
 30
0.0
 11
38.61200924468922
 21
8.407892407553108
 31
0.0
  0
LINE
  5
B0
330
1F
100
AcDbEntity
  8
Doc_ Finishes
  6
Continuous
100
AcDbLine
 10
39.3858693941778
 20
7.744584972462627
 30
0.0
 11
38.77783389063729
 21
8.18679140440598
 31
0.0
  0
LINE
  5
B1
330
1F
100
AcDbEntity
  8
Doc_ Finishes
  6
Continuous
100
AcDbLine
 10
40.18736329661684
 20
6.915448465774981
 30
0.0
 11
39.3858693941778
 21
7.744584972462627
 31
0.0
  0
LINE
  5
B2
330
1F
100
AcDbEntity
  8
Doc_ Finishes
  6
Continuous
100
AcDbLine
 10
40.79539880015735
 20
6.4456038552321
 30
0.0
 11
40.18736329661684
 21
6.915448465774981
 31
0.0
  0
LINE
  5
B3
330
1F
100
AcDbEntity
  8
Doc_ Finishes
  6
Continuous
100
AcDbLine
 10
41.56925452399685
 20
6.169226494885916
 30
0.0
 11
40.79539880015735
 21
6.4456038552321
 31
0.0
  0
LINE
  5
B4
330
1F
100
AcDbEntity
  8
Doc_ Finishes
  6
Continuous
100
AcDbLine
 10
42.23256638473643
 20
6.086316384736428
 30
0.0
 11
41.56925452399685
 21
6.169226494885916
 31
0.0
  0
LINE
  5
B5
330
1F
100
AcDbEntity
  8
Doc_ Finishes
  6
Continuous
100
AcDbLine
 10
42.48130556648308
 20
6.307417387883556
 30
0.0
 11
42.23256638473643
 21
6.086316384736428
 31
0.0
  0
LINE
  5
B6
330
1F
100
AcDbEntity
  8
Doc_ Finishes
  6
Continuous
100
AcDbLine
 10
42.14965184893784
 20
6.611432926829268
 30
0.0
 11
42.48130556648308
 21
6.307417387883556
 31
0.0
  0
LINE
  5
B7
330
1F
100
AcDbEntity
  8
Doc_ Finishes
  6
Continuous
100
AcDbLine
 10
41.48634441384736
 20
6.998363001573564
 30
0.0
 11
42.14965184893784
 21
6.611432926829268
 31
0.0
  0
LINE
  5
B8
330
1F
100
AcDbEntity
  8
Doc_ Finishes
  6
Continuous
100
AcDbLine
 10
40.76776062155783
 20
7.357654897718332
 30
0.0
 11
41.48634441384736
 21
6.998363001573564
 31
0.0
  0
LINE
  5
B9
330
1F
100
AcDbEntity
  8
Doc_ Finishes
  6
Continuous
100
AcDbLine
 10
40.18736329661684
 20
8.048600511408338
 30
0.0
 11
40.76776062155783
 21
7.357654897718332
 31
0.0
  0
LINE
  5
BA
330
1F
100
AcDbEntity
  8
Doc_ Finishes
  6
Continuous
100
AcDbLine
 10
38.99893931943352
 20
8.822460660896931
 30
0.0
 11
40.18736329661684
 21
8.048600511408338
 31
0.0
  0
LINE
  5
BB
330
1F
100
AcDbEntity
  8
Doc_ Finishes
  6
Continuous
100
AcDbLine
 10
38.47381835169158
 20
9.319939024390242
 30
0.0
 11
38.99893931943352
 21
8.822460660896931
 31
0.0
  0
LINE
  5
BC
330
1F
100
AcDbEntity
  8
Doc_ Finishes
  6
Continuous
100
AcDbLine
 10
38.22507916994492
 20
9.734507277734066
 30
0.0
 11
38.47381835169158
 21
9.319939024390242
 31
0.0
  0
LINE
  5
BD
330
1F
100
AcDbEntity
  8
Doc_ Finishes
  6
Continuous
100
AcDbLine
 10
37.17484166011014
 20
10.31490460267506
 30
0.0
 11
38.22507916994492
 21
9.734507277734066
 31
0.0
  0
LINE
  5
BE
330
1F
100
AcDbEntity
  8
Doc_ Finishes
  6
Continuous
100
AcDbLine
 10
36.7326352281668
 20
10.78474478756884
 30
0.0
 11
37.17484166011014
 21
10.31490460267506
 31
0.0
  0
LINE
  5
BF
330
1F
100
AcDbEntity
  8
Doc_ Finishes
  6
Continuous
100
AcDbLine
 10
36.23515243902439
 20
11.17167486231314
 30
0.0
 11
36.7326352281668
 21
10.78474478756884
 31
0.0
  0
LINE
  5
C0
330
1F
100
AcDbEntity
  8
Doc_ Finishes
  6
Continuous
100
AcDbLine
 10
35.48893046813532
 20
11.61388129425649
 30
0.0
 11
36.23515243902439
 21
11.17167486231314
 31
0.0
  0
LINE
  5
C1
330
1F
100
AcDbEntity
  8
Doc_ Finishes
  6
Continuous
100
AcDbLine
 10
34.85326121164437
 20
12.16663601494886
 30
0.0
 11
35.48893046813532
 21
11.61388129425649
 31
0.0
  0
LINE
  5
C2
330
1F
100
AcDbEntity
  8
Doc_ Finishes
  6
Continuous
100
AcDbLine
 10
34.35578284815106
 20
12.58120426829268
 30
0.0
 11
34.85326121164437
 21
12.16663601494886
 31
0.0
  0
LINE
  5
C3
330
1F
100
AcDbEntity
  8
Doc_ Finishes
  6
Continuous
100
AcDbLine
 10
33.69247098741149
 20
12.99577252163651
 30
0.0
 11
34.35578284815106
 21
12.58120426829268
 31
0.0
  0
LINE
  5
C4
330
1F
100
AcDbEntity
  8
Doc_ Finishes
  6
Continuous
100
AcDbLine
 10
33.2226308025177
 20
13.32742623918175
 30
0.0
 11
33.69247098741149
 21
12.99577252163651
 31
0.0
  0
LINE
  5
C5
330
1F
100
AcDbEntity
  8
Doc_ Finishes
  6
Continuous
100
AcDbLine
 10
32.7251480133753
 20
13.5761654209284
 30
0.0
 11
33.2226308025177
 21
13.32742623918175
 31
0.0
  0
LINE
  5
C6
330
1F
100
AcDbEntity
  8
Doc_ Finishes
  6
Continuous
100
AcDbLine
 10
31.93747098741148
 20
14.0644340086546
 30
0.0
 11
32.7251480133753
 21
13.5761654209284
 31
0.0
  0
LINE
  5
C7
330
1F
100
AcDbEntity
  8
Doc_ Finishes
  6
Continuous
100
AcDbLine
 10
31.43077842250197
 20
14.38687795043273
 30
0.0
 11
31.93747098741148
 21
14.0644340086546
 31
0.0
  0
LINE
  5
C8
330
1F
100
AcDbEntity
  8
Doc_ Finishes
  6
Continuous
100
AcDbLine
 10
30.92408143194335
 20
14.70931746656176
 30
0.0
 11
31.43077842250197
 21
14.38687795043273
 31
0.0
  0
LINE
  5
C9
330
1F
100
AcDbEntity
  8
Doc_ Finishes
  6
Continuous
100
AcDbLine
 10
30.62467299370574
 20
15.10085464201416
 30
0.0
 11
30.92408143194335
 21
14.70931746656176
 31
0.0
  0
LINE
  5
CA
330
1F
100
AcDbEntity
  8
Doc_ Finishes
  6
Continuous
100
AcDbLine
 10
29.95675845790716
 20
15.67664486624705
 30
0.0
 11
30.62467299370574
 21
15.10085464201416
 31
0.0
  0
LINE
  5
CB
330
1F
100
AcDbEntity
  8
Doc_ Finishes
  6
Continuous
100
AcDbLine
 10
29.47309697088906
 20
15.95302222659323
 30
0.0
 11
29.95675845790716
 21
15.67664486624705
 31
0.0
  0
LINE
  5
CC
330
1F
100
AcDbEntity
  8
Doc_ Finishes
  6
Continuous
100
AcDbLine
 10
28.8282135129819
 20
16.36759047993706
 30
0.0
 11
29.47309697088906
 21
15.95302222659323
 31
0.0
  0
LINE
  5
CD
330
1F
100
AcDbEntity
  8
Doc_ Finishes
  6
Continuous
100
AcDbLine
 10
28.50577399685287
 20
16.22939958693942
 30
0.0
 11
28.8282135129819
 21
16.36759047993706
 31
0.0
  0
LINE
  5
CE
330
1F
100
AcDbEntity
  8
Doc_ Finishes
  6
Continuous
100
AcDbLine
 10
28.06817466561763
 20
15.74573809992132
 30
0.0
 11
28.50577399685287
 21
16.22939958693942
 31
0.0
  0
LINE
  5
CF
330
1F
100
AcDbEntity
  8
Doc_ Finishes
  6
Continuous
 62
   254
370
    18
100
AcDbLine
 10
97.43333792289535
 20
5.093360051140834
 30
0.0
 11
97.43333792289535
 21
20.69901750590086
 31
0.0
  0
LINE
  5
D0
330
1F
100
AcDbEntity
  8
Doc_ Finishes
  6
Continuous
 62
   254
370
    18
100
AcDbLine
 10
7.000000491738787
 20
20.69901750590086
 30
0.0
 11
290.2406840086546
 21
20.69901750590086
 31
0.0
  0
LINE
  5
D1
330
1F
100
AcDbEntity
  8
Doc_ Finishes
  6
Continuous
 62
   254
370
    18
100
AcDbLine
 10
290.2406840086546
 20
20.69901750590086
 30
0.0
 11
290.2406840086546
 21
5.000000983477577
 31
0.0
  0
LINE
  5
D2
330
1F
100
AcDbEntity
  8
Doc_ Finishes
  6
Continuous
 62
   254
370
    18
100
AcDbLine
 10
290.2406840086546
 20
5.000000983477577
 30
0.0
 11
7.000000491738787
 21
5.000000983477577
 31
0.0
  0
LINE
  5
D3
330
1F
100
AcDbEntity
  8
Doc_ Finishes
  6
Continuous
 62
   254
370
    18
100
AcDbLine
 10
7.000000491738787
 20
20.69901750590086
 30
0.0
 11
7.000000491738787
 21
5.000000983477577
 31
0.0
  0
LINE
  5
D4
330
1F
100
AcDbEntity
  8
Doc_ Finishes
  6
Continuous
 62
   254
370
    18
100
AcDbLine
 10
190.2919443351691
 20
5.093360051140834
 30
0.0
 11
190.2919443351691
 21
20.69901750590086
 31
0.0
  0
LINE
  5
D5
330
1F
100
AcDbEntity
  8
Doc_ Finishes
  6
Continuous
 62
   254
370
    18
100
AcDbLine
 10
190.2919443351691
 20
12.8961909913454
 30
0.0
 11
290.2406840086546
 21
12.8961909913454
 31
0.0
  0
MTEXT
  5
D7
330
1F
100
AcDbEntity
  8
0
  6
Continuous
100
AcDbMText
 10
210.3494767103412
 20
15.00228927053286
 30
0.0
 40
2.25
 41
0.0
 71
     7
 72
     1
  1
{R-TRS5-05}
  7
GENERATED_STYLE_1
 73
     1
 44
1.0
  0
MTEXT
  5
D8
330
1F
100
AcDbEntity
  8
0
  6
Continuous
100
AcDbMText
 10
210.3494767103412
 20
11.03300550383743
 30
0.0
 40
3.0
 41
0.0
 71
     1
 72
     1
  1
{HIDDENGUTTER DETAIL}
  7
GENERATED_STYLE_1
 73
     1
 44
1.0
  0
MTEXT
  5
DA
330
1F
100
AcDbEntity
  8
Doc_ Floor
  6
Continuous
100
AcDbMText
 10
29.78353726544612
 20
13.33283672870609
 30
0.0
 40
5.603347280334726
 41
0.0
 71
     1
 72
     1
  1
{The Roofing Store}
  7
GENERATED_STYLE_2
 73
     1
 44
1.0
  0
MTEXT
  5
DC
102
{ACAD_XDICTIONARY
360
5C9
102
}
330
1F
100
AcDbEntity
  8
0
  6
Continuous
100
AcDbMText
 10
102.7389238446655
 20
6.378784417288156
 30
0.0
 40
1.5
 41
0.0
 71
     7
 72
     1
  1
{P: HEAD OFFICE              09 277 2717\P    ALBANY             09 972 0060\P    KATIKAIT            07 549 5190\P    WELLINGTON              04 974 5792\P    CHRISTCHURCH          03 348 6528}
  7
GENERATED_STYLE_1
 73
     1
 44
1.062946161486498
  0
MTEXT
  5
DD
330
1F
100
AcDbEntity
  8
0
  6
Continuous
100
AcDbMText
 10
149.4184566143587
 20
9.199084231526156
 30
0.0
 40
1.5
 41
0.0
 71
     7
 72
     1
  1
{WEB: www.theroofingstore.co.nz}
  7
GENERATED_STYLE_1
 73
     1
 44
1.0
  0
MTEXT
  5
DE
330
1F
100
AcDbEntity
  8
0
  6
Continuous
100
AcDbMText
 10
149.4184566143587
 20
6.620946023411263
 30
0.0
 40
1.5
 41
0.0
 71
     7
 72
     1
  1
{Copyright \U+00A9 The Roofing Store 2013}
  7
GENERATED_STYLE_1
 73
     1
 44
1.0
  0
MTEXT
  5
DF
330
1F
100
AcDbEntity
  8
0
  6
Continuous
100
AcDbMText
 10
273.9546684065315
 20
15.01595760437819
 30
0.0
 40
2.25
 41
0.0
 71
     7
 72
     1
  1
{1:5}
  7
GENERATED_STYLE_1
 73
     1
 44
1.0
  0
MTEXT
  5
E0
330
1F
100
AcDbEntity
  8
0
  6
Continuous
100
AcDbMText
 10
264.8396605309016
 20
15.51746459162148
 30
0.0
 40
1.5
 41
0.0
 71
     7
 72
     1
  1
{SCALE:}
  7
GENERATED_STYLE_1
 73
     1
 44
1.0
  0
MTEXT
  5
E1
330
1F
100
AcDbEntity
  8
0
  6
Continuous
100
AcDbMText
 10
191.5066235617487
 20
15.48695559872207
 30
0.0
 40
1.5
 41
0.0
 71
     7
 72
     1
  1
{DETAIL NUMBER:}
  7
GENERATED_STYLE_1
 73
     1
 44
1.0
  0
MTEXT
  5
E2
330
1F
100
AcDbEntity
  8
0
  6
Continuous
100
AcDbMText
 10
191.5066235617487
 20
9.005462392315325
 30
0.0
 40
1.5
 41
0.0
 71
     7
 72
     1
  1
{TITLE:}
  7
GENERATED_STYLE_1
 73
     1
 44
1.0
  0
INSERT
  5
597
102
{ACAD_XDICTIONARY
360
598
102
}
330
1F
100
AcDbEntity
  8
0
  6
Continuous
100
AcDbBlockReference
  2
Drawing_1_2
 10
26.12171212374109
 20
79.28749807145608
 30
0.0
  0
ENDSEC
  0
SECTION
  2
OBJECTS
  0
DICTIONARY
  5
C
330
0
100
AcDbDictionary
281
     1
  3
ACAD_GROUP
350
D
  3
ACAD_LAYOUT
350
1A
  3
ACAD_MATERIAL
350
3B
  3
ACAD_MLEADERSTYLE
350
5C4
  3
ACAD_MLINESTYLE
350
17
  3
ACAD_PLOTSETTINGS
350
19
  3
ACAD_PLOTSTYLENAME
350
E
  3
ACAD_SCALELIST
350
59E
  3
ACAD_VISUALSTYLE
350
2A
  3
AcDbVariableDictionary
350
5C2
  3
WATERMARKS
350
5C0
  0
DICTIONARY
  5
5C9
330
DC
100
AcDbDictionary
280
     1
281
     1
  3
ACAD_MTEXT_RT
360
5CA
  0
DICTIONARY
  5
598
330
597
100
AcDbDictionary
280
     1
281
     1
  3
ACAD_FILTER
360
599
  0
DICTIONARY
  5
D
102
{ACAD_REACTORS
330
C
102
}
330
C
100
AcDbDictionary
281
     1
  0
DICTIONARY
  5
1A
102
{ACAD_REACTORS
330
C
102
}
330
C
100
AcDbDictionary
281
     1
  3
Layout1
350
1E
  3
Model
350
22
  0
DICTIONARY
  5
3B
102
{ACAD_REACTORS
330
C
102
}
330
C
100
AcDbDictionary
281
     1
  3
ByBlock
350
3D
  3
ByLayer
350
3C
  3
Global
350
3E
  0
DICTIONARY
  5
5C4
102
{ACAD_REACTORS
330
C
102
}
330
C
100
AcDbDictionary
281
     1
  0
DICTIONARY
  5
17
102
{ACAD_REACTORS
330
C
102
}
330
C
100
AcDbDictionary
281
     1
  3
Standard
350
18
  0
DICTIONARY
  5
19
102
{ACAD_REACTORS
330
C
102
}
330
C
100
AcDbDictionary
281
     1
  0
ACDBDICTIONARYWDFLT
  5
E
102
{ACAD_REACTORS
330
C
102
}
330
C
100
AcDbDictionary
281
     1
  3
Normal
350
F
100
AcDbDictionaryWithDefault
340
F
  0
DICTIONARY
  5
59E
102
{ACAD_REACTORS
330
C
102
}
330
C
100
AcDbDictionary
281
     1
  3
A0
350
59F
  3
A1
350
5A0
  3
A2
350
5A1
  3
A3
350
5A2
  3
A4
350
5A3
  3
A5
350
5A4
  3
A6
350
5A5
  3
A7
350
5A6
  3
A8
350
5A7
  3
A9
350
5A8
  3
B0
350
5A9
  3
B1
350
5AA
  3
B2
350
5AB
  3
B3
350
5AC
  3
B4
350
5AD
  3
B5
350
5AE
  3
B6
350
5AF
  3
B7
350
5B0
  3
B8
350
5B1
  3
B9
350
5B2
  3
C0
350
5B3
  3
C1
350
5B4
  3
C2
350
5B5
  3
C3
350
5B6
  3
C4
350
5B7
  3
C5
350
5B8
  3
C6
350
5B9
  3
C7
350
5BA
  3
C8
350
5BB
  3
C9
350
5BC
  3
D0
350
5BD
  3
D1
350
5BE
  3
D2
350
5BF
  0
DICTIONARY
  5
2A
102
{ACAD_REACTORS
330
C
102
}
330
C
100
AcDbDictionary
281
     1
  3
2dWireframe
350
2F
  3
3D Hidden
350
31
  3
3dWireframe
350
30
  3
Basic
350
32
  3
Brighten
350
36
  3
ColorChange
350
3A
  3
Conceptual
350
34
  3
Dim
350
35
  3
Facepattern
350
39
  3
Flat
350
2B
  3
FlatWithEdges
350
2C
  3
Gouraud
350
2D
  3
GouraudWithEdges
350
2E
  3
Linepattern
350
38
  3
Realistic
350
33
  3
Thicken
350
37
  0
DICTIONARY
  5
5C2
102
{ACAD_REACTORS
330
C
102
}
330
C
100
AcDbDictionary
281
     1
  3
CANNOSCALE
350
5C6
  3
DIMASSOC
350
5C7
  3
HIDETEXT
350
5C8
  3
XCLIPFRAME
350
5C5
  0
DICTIONARY
  5
5C0
102
{ACAD_REACTORS
330
C
102
}
330
C
100
AcDbDictionary
281
     1
  3
AC_WATERMARK
350
5C1
  0
XRECORD
  5
5CA
102
{ACAD_REACTORS
330
5C9
102
}
330
5C9
100
AcDbXrecord
280
     1
 40
956118.0
  1
{P: HEAD OFFICE ^I^I09 277 2717\P    ALBANY ^I^I09 972 0060\P    KATIKAIT^I^I07 549 5190\P    WELLINGTON^I^I04 974 5792\P    CHRISTCHURCH^I^I03 348 6528}
  0
DICTIONARY
  5
599
102
{ACAD_REACTORS
330
598
102
}
330
598
100
AcDbDictionary
280
     1
281
     1
  3
SPATIAL
360
59A
  0
LAYOUT
  5
1E
102
{ACAD_REACTORS
330
1A
102
}
330
1A
100
AcDbPlotSettings
  1

  2
none_device
  4

  6

 40
0.0
 41
0.0
 42
0.0
 43
0.0
 44
0.0
 45
0.0
 46
0.0
 47
0.0
 48
0.0
 49
0.0
140
0.0
141
0.0
142
1.0
143
1.0
 70
   688
 72
     0
 73
     0
 74
     5
  7

 75
    16
147
1.0
148
0.0
149
0.0
100
AcDbLayout
  1
Layout1
 70
     1
 71
     1
 10
0.0
 20
0.0
 11
12.0
 21
9.0
 12
0.0
 22
0.0
 32
0.0
 14
1.000000000000000E+20
 24
1.000000000000000E+20
 34
1.000000000000000E+20
 15
-1.000000000000000E+20
 25
-1.000000000000000E+20
 35
-1.000000000000000E+20
146
0.0
 13
0.0
 23
0.0
 33
0.0
 16
1.0
 26
0.0
 36
0.0
 17
0.0
 27
1.0
 37
0.0
 76
     0
330
1B
  0
LAYOUT
  5
22
102
{ACAD_REACTORS
330
1A
102
}
330
1A
100
AcDbPlotSettings
  1

  2
none_device
  4

  6

 40
0.0
 41
0.0
 42
0.0
 43
0.0
 44
0.0
 45
0.0
 46
0.0
 47
0.0
 48
0.0
 49
0.0
140
0.0
141
0.0
142
1.0
143
1.0
 70
  1712
 72
     0
 73
     0
 74
     0
  7

 75
     0
147
1.0
148
0.0
149
0.0
100
AcDbLayout
  1
Model
 70
     1
 71
     0
 10
0.0
 20
0.0
 11
12.0
 21
9.0
 12
0.0
 22
0.0
 32
0.0
 14
1.000000000000000E+20
 24
1.000000000000000E+20
 34
1.000000000000000E+20
 15
-1.000000000000000E+20
 25
-1.000000000000000E+20
 35
-1.000000000000000E+20
146
0.0
 13
0.0
 23
0.0
 33
0.0
 16
1.0
 26
0.0
 36
0.0
 17
0.0
 27
1.0
 37
0.0
 76
     0
330
1F
331
29
  0
MATERIAL
  5
3D
102
{ACAD_REACTORS
330
3B
102
}
102
{ACAD_XDICTIONARY
360
5ED
102
}
330
3B
100
AcDbMaterial
  1
ByBlock
  0
MATERIAL
  5
3C
102
{ACAD_REACTORS
330
3B
102
}
102
{ACAD_XDICTIONARY
360
5EB
102
}
330
3B
100
AcDbMaterial
  1
ByLayer
  0
MATERIAL
  5
3E
102
{ACAD_REACTORS
330
3B
102
}
102
{ACAD_XDICTIONARY
360
5EF
102
}
330
3B
100
AcDbMaterial
  1
Global
  0
MLINESTYLE
  5
18
102
{ACAD_REACTORS
330
17
102
}
330
17
100
AcDbMlineStyle
  2
Standard
 70
     0
  3

 62
   256
 51
90.0
 52
90.0
 71
     2
 49
0.5
 62
   256
  6
BYLAYER
 49
-0.5
 62
   256
  6
BYLAYER
  0
ACDBPLACEHOLDER
  5
F
102
{ACAD_REACTORS
330
E
102
}
330
E
  0
SCALE
  5
59F
102
{ACAD_REACTORS
330
59E
102
}
330
59E
100
AcDbScale
 70
     0
300
1:1
140
1.0
141
1.0
290
     1
  0
SCALE
  5
5A0
102
{ACAD_REACTORS
330
59E
102
}
330
59E
100
AcDbScale
 70
     0
300
1:2
140
1.0
141
2.0
290
     0
  0
SCALE
  5
5A1
102
{ACAD_REACTORS
330
59E
102
}
330
59E
100
AcDbScale
 70
     0
300
1:4
140
1.0
141
4.0
290
     0
  0
SCALE
  5
5A2
102
{ACAD_REACTORS
330
59E
102
}
330
59E
100
AcDbScale
 70
     0
300
1:5
140
1.0
141
5.0
290
     0
  0
SCALE
  5
5A3
102
{ACAD_REACTORS
330
59E
102
}
330
59E
100
AcDbScale
 70
     0
300
1:8
140
1.0
141
8.0
290
     0
  0
SCALE
  5
5A4
102
{ACAD_REACTORS
330
59E
102
}
330
59E
100
AcDbScale
 70
     0
300
1:10
140
1.0
141
10.0
290
     0
  0
SCALE
  5
5A5
102
{ACAD_REACTORS
330
59E
102
}
330
59E
100
AcDbScale
 70
     0
300
1:16
140
1.0
141
16.0
290
     0
  0
SCALE
  5
5A6
102
{ACAD_REACTORS
330
59E
102
}
330
59E
100
AcDbScale
 70
     0
300
1:20
140
1.0
141
20.0
290
     0
  0
SCALE
  5
5A7
102
{ACAD_REACTORS
330
59E
102
}
330
59E
100
AcDbScale
 70
     0
300
1:30
140
1.0
141
30.0
290
     0
  0
SCALE
  5
5A8
102
{ACAD_REACTORS
330
59E
102
}
330
59E
100
AcDbScale
 70
     0
300
1:40
140
1.0
141
40.0
290
     0
  0
SCALE
  5
5A9
102
{ACAD_REACTORS
330
59E
102
}
330
59E
100
AcDbScale
 70
     0
300
1:50
140
1.0
141
50.0
290
     0
  0
SCALE
  5
5AA
102
{ACAD_REACTORS
330
59E
102
}
330
59E
100
AcDbScale
 70
     0
300
1:100
140
1.0
141
100.0
290
     0
  0
SCALE
  5
5AB
102
{ACAD_REACTORS
330
59E
102
}
330
59E
100
AcDbScale
 70
     0
300
2:1
140
2.0
141
1.0
290
     0
  0
SCALE
  5
5AC
102
{ACAD_REACTORS
330
59E
102
}
330
59E
100
AcDbScale
 70
     0
300
4:1
140
4.0
141
1.0
290
     0
  0
SCALE
  5
5AD
102
{ACAD_REACTORS
330
59E
102
}
330
59E
100
AcDbScale
 70
     0
300
8:1
140
8.0
141
1.0
290
     0
  0
SCALE
  5
5AE
102
{ACAD_REACTORS
330
59E
102
}
330
59E
100
AcDbScale
 70
     0
300
10:1
140
10.0
141
1.0
290
     0
  0
SCALE
  5
5AF
102
{ACAD_REACTORS
330
59E
102
}
330
59E
100
AcDbScale
 70
     0
300
100:1
140
100.0
141
1.0
290
     0
  0
SCALE
  5
5B0
102
{ACAD_REACTORS
330
59E
102
}
330
59E
100
AcDbScale
 70
     0
300
1/128" = 1'-0"
140
0.0078125
141
12.0
290
     0
  0
SCALE
  5
5B1
102
{ACAD_REACTORS
330
59E
102
}
330
59E
100
AcDbScale
 70
     0
300
1/64" = 1'-0"
140
0.015625
141
12.0
290
     0
  0
SCALE
  5
5B2
102
{ACAD_REACTORS
330
59E
102
}
330
59E
100
AcDbScale
 70
     0
300
1/32" = 1'-0"
140
0.03125
141
12.0
290
     0
  0
SCALE
  5
5B3
102
{ACAD_REACTORS
330
59E
102
}
330
59E
100
AcDbScale
 70
     0
300
1/16" = 1'-0"
140
0.0625
141
12.0
290
     0
  0
SCALE
  5
5B4
102
{ACAD_REACTORS
330
59E
102
}
330
59E
100
AcDbScale
 70
     0
300
3/32" = 1'-0"
140
0.09375
141
12.0
290
     0
  0
SCALE
  5
5B5
102
{ACAD_REACTORS
330
59E
102
}
330
59E
100
AcDbScale
 70
     0
300
1/8" = 1'-0"
140
0.125
141
12.0
290
     0
  0
SCALE
  5
5B6
102
{ACAD_REACTORS
330
59E
102
}
330
59E
100
AcDbScale
 70
     0
300
3/16" = 1'-0"
140
0.1875
141
12.0
290
     0
  0
SCALE
  5
5B7
102
{ACAD_REACTORS
330
59E
102
}
330
59E
100
AcDbScale
 70
     0
300
1/4" = 1'-0"
140
0.25
141
12.0
290
     0
  0
SCALE
  5
5B8
102
{ACAD_REACTORS
330
59E
102
}
330
59E
100
AcDbScale
 70
     0
300
3/8" = 1'-0"
140
0.375
141
12.0
290
     0
  0
SCALE
  5
5B9
102
{ACAD_REACTORS
330
59E
102
}
330
59E
100
AcDbScale
 70
     0
300
1/2" = 1'-0"
140
0.5
141
12.0
290
     0
  0
SCALE
  5
5BA
102
{ACAD_REACTORS
330
59E
102
}
330
59E
100
AcDbScale
 70
     0
300
3/4" = 1'-0"
140
0.75
141
12.0
290
     0
  0
SCALE
  5
5BB
102
{ACAD_REACTORS
330
59E
102
}
330
59E
100
AcDbScale
 70
     0
300
1" = 1'-0"
140
1.0
141
12.0
290
     0
  0
SCALE
  5
5BC
102
{ACAD_REACTORS
330
59E
102
}
330
59E
100
AcDbScale
 70
     0
300
1-1/2" = 1'-0"
140
1.5
141
12.0
290
     0
  0
SCALE
  5
5BD
102
{ACAD_REACTORS
330
59E
102
}
330
59E
100
AcDbScale
 70
     0
300
3" = 1'-0"
140
3.0
141
12.0
290
     0
  0
SCALE
  5
5BE
102
{ACAD_REACTORS
330
59E
102
}
330
59E
100
AcDbScale
 70
     0
300
6" = 1'-0"
140
6.0
141
12.0
290
     0
  0
SCALE
  5
5BF
102
{ACAD_REACTORS
330
59E
102
}
330
59E
100
AcDbScale
 70
     0
300
1'-0" = 1'-0"
140
12.0
141
12.0
290
     0
  0
VISUALSTYLE
  5
2F
102
{ACAD_REACTORS
330
2A
102
}
102
{ACAD_XDICTIONARY
360
5D3
102
}
330
2A
100
AcDbVisualStyle
  2
2dWireframe
 70
     4
 71
     0
 72
     2
 73
     0
 90
        0
 40
-0.6
 41
-30.0
 62
     5
 63
     7
 74
     1
 91
        4
 64
     7
 65
   257
 75
     1
175
     1
 42
1.0
 92
        0
 66
   257
 43
1.0
 76
     1
 77
     6
 78
     2
 67
     7
 79
     5
170
     0
171
     0
290
     0
174
     0
 93
        1
 44
0.0
173
     0
291
     0
 45
0.0
1001
ACAD
1000
AcDbSavedByObjectVersion
1070
     0
  0
VISUALSTYLE
  5
31
102
{ACAD_REACTORS
330
2A
102
}
102
{ACAD_XDICTIONARY
360
5D7
102
}
330
2A
100
AcDbVisualStyle
  2
3D Hidden
 70
     6
 71
     1
 72
     2
 73
     2
 90
        0
 40
-0.6
 41
-30.0
 62
     5
 63
     7
 74
     2
 91
        2
 64
     7
 65
   257
 75
     2
175
     1
 42
40.0
 92
        0
 66
   257
 43
1.0
 76
     1
 77
     6
 78
     2
 67
     7
 79
     3
170
     0
171
     0
290
     0
174
     0
 93
        1
 44
0.0
173
     0
291
     0
 45
0.0
1001
ACAD
1000
AcDbSavedByObjectVersion
1070
     0
  0
VISUALSTYLE
  5
30
102
{ACAD_REACTORS
330
2A
102
}
102
{ACAD_XDICTIONARY
360
5D5
102
}
330
2A
100
AcDbVisualStyle
  2
3dWireframe
 70
     5
 71
     0
 72
     2
 73
     0
 90
        0
 40
-0.6
 41
-30.0
 62
     5
 63
     7
 74
     1
 91
        4
 64
     7
 65
   257
 75
     1
175
     1
 42
1.0
 92
        0
 66
   257
 43
1.0
 76
     1
 77
     6
 78
     2
 67
     7
 79
     5
170
     0
171
     0
290
     0
174
     0
 93
        1
 44
0.0
173
     0
291
     0
 45
0.0
1001
ACAD
1000
AcDbSavedByObjectVersion
1070
     0
  0
VISUALSTYLE
  5
32
102
{ACAD_REACTORS
330
2A
102
}
102
{ACAD_XDICTIONARY
360
5D9
102
}
330
2A
100
AcDbVisualStyle
  2
Basic
 70
     7
 71
     1
 72
     0
 73
     1
 90
        0
 40
-0.6
 41
-30.0
 62
     5
 63
     7
 74
     0
 91
        4
 64
     7
 65
   257
 75
     1
175
     1
 42
1.0
 92
        8
 66
     7
 43
1.0
 76
     1
 77
     6
 78
     2
 67
     7
 79
     5
170
     0
171
     0
290
     0
174
     0
 93
        1
 44
0.0
173
     0
291
     1
 45
0.0
1001
ACAD
1000
AcDbSavedByObjectVersion
1070
     0
  0
VISUALSTYLE
  5
36
102
{ACAD_REACTORS
330
2A
102
}
102
{ACAD_XDICTIONARY
360
5E1
102
}
330
2A
100
AcDbVisualStyle
  2
Brighten
 70
    12
 71
     2
 72
     2
 73
     0
 90
        0
 40
-0.6
 41
-30.0
 62
     5
 63
     7
 74
     1
 91
        4
 64
     7
 65
   257
 75
     1
175
     1
 42
1.0
 92
        8
 66
     7
 43
1.0
 76
     1
 77
     6
 78
     2
 67
     7
 79
     5
170
     0
171
     0
290
     0
174
     0
 93
        1
 44
50.0
173
     0
291
     1
 45
0.0
1001
ACAD
1000
AcDbSavedByObjectVersion
1070
     0
  0
VISUALSTYLE
  5
3A
102
{ACAD_REACTORS
330
2A
102
}
102
{ACAD_XDICTIONARY
360
5E9
102
}
330
2A
100
AcDbVisualStyle
  2
ColorChange
 70
    16
 71
     2
 72
     2
 73
     3
 90
        0
 40
-0.6
 41
-30.0
 62
     5
 63
     8
 74
     1
 91
        4
 64
     7
 65
   257
 75
     1
175
     1
 42
1.0
 92
        8
 66
     8
 43
1.0
 76
     1
 77
     6
 78
     2
 67
     7
 79
     5
170
     0
171
     0
290
     0
174
     0
 93
        1
 44
0.0
173
     0
291
     1
 45
0.0
1001
ACAD
1000
AcDbSavedByObjectVersion
1070
     0
  0
VISUALSTYLE
  5
34
102
{ACAD_REACTORS
330
2A
102
}
102
{ACAD_XDICTIONARY
360
5DD
102
}
330
2A
100
AcDbVisualStyle
  2
Conceptual
 70
     9
 71
     3
 72
     2
 73
     0
 90
        0
 40
-0.6
 41
-30.0
 62
     5
 63
     7
 74
     2
 91
        2
 64
     7
 65
   257
 75
     1
175
     1
 42
40.0
 92
        8
 66
     7
 43
1.0
 76
     1
 77
     6
 78
     2
 67
     7
 79
     3
170
     0
171
     0
290
     0
174
     0
 93
        1
 44
0.0
173
     0
291
     0
 45
0.0
1001
ACAD
1000
AcDbSavedByObjectVersion
1070
     0
  0
VISUALSTYLE
  5
35
102
{ACAD_REACTORS
330
2A
102
}
102
{ACAD_XDICTIONARY
360
5DF
102
}
330
2A
100
AcDbVisualStyle
  2
Dim
 70
    11
 71
     2
 72
     2
 73
     0
 90
        0
 40
-0.6
 41
-30.0
 62
     5
 63
     7
 74
     1
 91
        4
 64
     7
 65
   257
 75
     1
175
     1
 42
1.0
 92
        8
 66
     7
 43
1.0
 76
     1
 77
     6
 78
     2
 67
     7
 79
     5
170
     0
171
     0
290
     0
174
     0
 93
        1
 44
-50.0
173
     0
291
     1
 45
0.0
1001
ACAD
1000
AcDbSavedByObjectVersion
1070
     0
  0
VISUALSTYLE
  5
39
102
{ACAD_REACTORS
330
2A
102
}
102
{ACAD_XDICTIONARY
360
5E7
102
}
330
2A
100
AcDbVisualStyle
  2
Facepattern
 70
    15
 71
     2
 72
     2
 73
     0
 90
        0
 40
-0.6
 41
-30.0
 62
     5
 63
     7
 74
     1
 91
        4
 64
     7
 65
   257
 75
     1
175
     1
 42
1.0
 92
        8
 66
     7
 43
1.0
 76
     1
 77
     6
 78
     2
 67
     7
 79
     5
170
     0
171
     0
290
     0
174
     0
 93
        1
 44
0.0
173
     0
291
     1
 45
0.0
1001
ACAD
1000
AcDbSavedByObjectVersion
1070
     0
  0
VISUALSTYLE
  5
2B
102
{ACAD_REACTORS
330
2A
102
}
102
{ACAD_XDICTIONARY
360
5CB
102
}
330
2A
100
AcDbVisualStyle
  2
Flat
 70
     0
 71
     2
 72
     1
 73
     1
 90
        2
 40
-0.6
 41
30.0
 62
     5
 63
     7
 74
     0
 91
        4
 64
     7
 65
   257
 75
     1
175
     1
 42
1.0
 92
        8
 66
     7
 43
1.0
 76
     1
 77
     6
 78
     2
 67
     7
 79
     5
170
     0
171
     0
290
     0
174
     0
 93
       13
 44
0.0
173
     0
291
     1
 45
0.0
1001
ACAD
1000
AcDbSavedByObjectVersion
1070
     0
  0
VISUALSTYLE
  5
2C
102
{ACAD_REACTORS
330
2A
102
}
102
{ACAD_XDICTIONARY
360
5CD
102
}
330
2A
100
AcDbVisualStyle
  2
FlatWithEdges
 70
     1
 71
     2
 72
     1
 73
     1
 90
        2
 40
-0.6
 41
30.0
 62
     5
 63
     7
 74
     1
 91
        4
 64
     7
 65
   257
 75
     1
175
     1
 42
1.0
 92
        0
 66
   257
 43
1.0
 76
     1
 77
     6
 78
     2
 67
     7
 79
     5
170
     0
171
     0
290
     0
174
     0
 93
       13
 44
0.0
173
     0
291
     1
 45
0.0
1001
ACAD
1000
AcDbSavedByObjectVersion
1070
     0
  0
VISUALSTYLE
  5
2D
102
{ACAD_REACTORS
330
2A
102
}
102
{ACAD_XDICTIONARY
360
5CF
102
}
330
2A
100
AcDbVisualStyle
  2
Gouraud
 70
     2
 71
     2
 72
     2
 73
     1
 90
        2
 40
-0.6
 41
30.0
 62
     5
 63
     7
 74
     0
 91
        4
 64
     7
 65
   257
 75
     1
175
     1
 42
1.0
 92
        0
 66
     7
 43
1.0
 76
     1
 77
     6
 78
     2
 67
     7
 79
     5
170
     0
171
     0
290
     0
174
     0
 93
       13
 44
0.0
173
     0
291
     1
 45
0.0
1001
ACAD
1000
AcDbSavedByObjectVersion
1070
     0
  0
VISUALSTYLE
  5
2E
102
{ACAD_REACTORS
330
2A
102
}
102
{ACAD_XDICTIONARY
360
5D1
102
}
330
2A
100
AcDbVisualStyle
  2
GouraudWithEdges
 70
     3
 71
     2
 72
     2
 73
     1
 90
        2
 40
-0.6
 41
30.0
 62
     5
 63
     7
 74
     1
 91
        4
 64
     7
 65
   257
 75
     1
175
     1
 42
1.0
 92
        0
 66
   257
 43
1.0
 76
     1
 77
     6
 78
     2
 67
     7
 79
     5
170
     0
171
     0
290
     0
174
     0
 93
       13
 44
0.0
173
     0
291
     1
 45
0.0
1001
ACAD
1000
AcDbSavedByObjectVersion
1070
     0
  0
VISUALSTYLE
  5
38
102
{ACAD_REACTORS
330
2A
102
}
102
{ACAD_XDICTIONARY
360
5E5
102
}
330
2A
100
AcDbVisualStyle
  2
Linepattern
 70
    14
 71
     2
 72
     2
 73
     0
 90
        0
 40
-0.6
 41
-30.0
 62
     5
 63
     7
 74
     1
 91
        4
 64
     7
 65
   257
 75
     7
175
     7
 42
1.0
 92
        8
 66
     7
 43
1.0
 76
     1
 77
     6
 78
     2
 67
     7
 79
     5
170
     0
171
     0
290
     0
174
     0
 93
        1
 44
0.0
173
     0
291
     1
 45
0.0
1001
ACAD
1000
AcDbSavedByObjectVersion
1070
     0
  0
VISUALSTYLE
  5
33
102
{ACAD_REACTORS
330
2A
102
}
102
{ACAD_XDICTIONARY
360
5DB
102
}
330
2A
100
AcDbVisualStyle
  2
Realistic
 70
     8
 71
     2
 72
     2
 73
     0
 90
        0
 40
-0.6
 41
-30.0
 62
     5
 63
     7
 74
     1
 91
        0
 64
     7
 65
   257
 75
     1
175
     1
 42
1.0
 92
        8
 66
     8
 43
1.0
 76
     1
 77
     6
 78
     2
 67
     7
 79
     5
170
     0
171
     0
290
     0
174
     0
 93
       13
 44
0.0
173
     0
291
     0
 45
0.0
1001
ACAD
1000
AcDbSavedByObjectVersion
1070
     0
  0
VISUALSTYLE
  5
37
102
{ACAD_REACTORS
330
2A
102
}
102
{ACAD_XDICTIONARY
360
5E3
102
}
330
2A
100
AcDbVisualStyle
  2
Thicken
 70
    13
 71
     2
 72
     2
 73
     0
 90
        0
 40
-0.6
 41
-30.0
 62
     5
 63
     7
 74
     1
 91
        4
 64
     7
 65
   257
 75
     1
175
     1
 42
1.0
 92
       12
 66
     7
 43
1.0
 76
     1
 77
     6
 78
     2
 67
     7
 79
     5
170
     0
171
     0
290
     0
174
     0
 93
        1
 44
0.0
173
     0
291
     1
 45
0.0
1001
ACAD
1000
AcDbSavedByObjectVersion
1070
     0
  0
DICTIONARYVAR
  5
5C6
102
{ACAD_REACTORS
330
5C2
102
}
330
5C2
100
DictionaryVariables
280
     0
  1
1:1
  0
DICTIONARYVAR
  5
5C7
102
{ACAD_REACTORS
330
5C2
102
}
330
5C2
100
DictionaryVariables
280
     0
  1
2
  0
DICTIONARYVAR
  5
5C8
102
{ACAD_REACTORS
330
5C2
102
}
330
5C2
100
DictionaryVariables
280
     0
  1
1
  0
DICTIONARYVAR
  5
5C5
102
{ACAD_REACTORS
330
5C2
102
}
330
5C2
100
DictionaryVariables
280
     0
  1
0
  0
XRECORD
  5
5C1
102
{ACAD_REACTORS
330
5C0
102
}
330
5C0
100
AcDbXrecord
280
     1
1000
This DWG file was created in ArchiCAD(TM)®
  0
SPATIAL_FILTER
  5
59A
102
{ACAD_REACTORS
330
599
102
}
330
599
100
AcDbFilter
100
AcDbSpatialFilter
 70
     4
 10
20.48385250649914
 20
26.01930474315756
 10
262.7211298404507
 20
26.01930474315756
 10
262.7211298404507
 20
197.643803943156
 10
20.48385250649914
 20
197.643803943156
210
0.0
220
0.0
230
1.0
 11
0.0
 21
0.0
 31
0.0
 71
     1
 72
     0
 73
     0
 40
1.0
 40
0.0
 40
0.0
 40
0.0
 40
0.0
 40
1.0
 40
0.0
 40
0.0
 40
0.0
 40
0.0
 40
1.0
 40
0.0
 40
1.0
 40
0.0
 40
0.0
 40
0.0
 40
0.0
 40
1.0
 40
0.0
 40
0.0
 40
0.0
 40
0.0
 40
1.0
 40
0.0
  0
DICTIONARY
  5
5ED
330
3D
100
AcDbDictionary
280
     1
281
     1
  3
ACAD_XREC_ROUNDTRIP
360
5EE
  0
DICTIONARY
  5
5EB
330
3C
100
AcDbDictionary
280
     1
281
     1
  3
ACAD_XREC_ROUNDTRIP
360
5EC
  0
DICTIONARY
  5
5EF
330
3E
100
AcDbDictionary
280
     1
281
     1
  3
ACAD_XREC_ROUNDTRIP
360
5F0
  0
DICTIONARY
  5
5D3
330
2F
100
AcDbDictionary
280
     1
281
     1
  3
ACAD_XREC_ROUNDTRIP
360
5D4
  0
DICTIONARY
  5
5D7
330
31
100
AcDbDictionary
280
     1
281
     1
  3
ACAD_XREC_ROUNDTRIP
360
5D8
  0
DICTIONARY
  5
5D5
330
30
100
AcDbDictionary
280
     1
281
     1
  3
ACAD_XREC_ROUNDTRIP
360
5D6
  0
DICTIONARY
  5
5D9
330
32
100
AcDbDictionary
280
     1
281
     1
  3
ACAD_XREC_ROUNDTRIP
360
5DA
  0
DICTIONARY
  5
5E1
330
36
100
AcDbDictionary
280
     1
281
     1
  3
ACAD_XREC_ROUNDTRIP
360
5E2
  0
DICTIONARY
  5
5E9
330
3A
100
AcDbDictionary
280
     1
281
     1
  3
ACAD_XREC_ROUNDTRIP
360
5EA
  0
DICTIONARY
  5
5DD
330
34
100
AcDbDictionary
280
     1
281
     1
  3
ACAD_XREC_ROUNDTRIP
360
5DE
  0
DICTIONARY
  5
5DF
330
35
100
AcDbDictionary
280
     1
281
     1
  3
ACAD_XREC_ROUNDTRIP
360
5E0
  0
DICTIONARY
  5
5E7
330
39
100
AcDbDictionary
280
     1
281
     1
  3
ACAD_XREC_ROUNDTRIP
360
5E8
  0
DICTIONARY
  5
5CB
330
2B
100
AcDbDictionary
280
     1
281
     1
  3
ACAD_XREC_ROUNDTRIP
360
5CC
  0
DICTIONARY
  5
5CD
330
2C
100
AcDbDictionary
280
     1
281
     1
  3
ACAD_XREC_ROUNDTRIP
360
5CE
  0
DICTIONARY
  5
5CF
330
2D
100
AcDbDictionary
280
     1
281
     1
  3
ACAD_XREC_ROUNDTRIP
360
5D0
  0
DICTIONARY
  5
5D1
330
2E
100
AcDbDictionary
280
     1
281
     1
  3
ACAD_XREC_ROUNDTRIP
360
5D2
  0
DICTIONARY
  5
5E5
330
38
100
AcDbDictionary
280
     1
281
     1
  3
ACAD_XREC_ROUNDTRIP
360
5E6
  0
DICTIONARY
  5
5DB
330
33
100
AcDbDictionary
280
     1
281
     1
  3
ACAD_XREC_ROUNDTRIP
360
5DC
  0
DICTIONARY
  5
5E3
330
37
100
AcDbDictionary
280
     1
281
     1
  3
ACAD_XREC_ROUNDTRIP
360
5E4
  0
XRECORD
  5
5EE
102
{ACAD_REACTORS
330
5ED
102
}
330
5ED
100
AcDbXrecord
280
     1
102
MATERIAL
148
0.0
149
0.0
149
0.0
 93
        0
 94
      127
282
     0
 72
     1
 77
     1
171
     1
175
     1
179
     1
273
     0
  0
XRECORD
  5
5EC
102
{ACAD_REACTORS
330
5EB
102
}
330
5EB
100
AcDbXrecord
280
     1
102
MATERIAL
148
0.0
149
0.0
149
0.0
 93
        0
 94
      127
282
     0
 72
     1
 77
     1
171
     1
175
     1
179
     1
273
     0
  0
XRECORD
  5
5F0
102
{ACAD_REACTORS
330
5EF
102
}
330
5EF
100
AcDbXrecord
280
     1
102
MATERIAL
148
0.0
149
0.0
149
0.0
 93
        0
 94
      127
282
     0
 72
     1
 77
     1
171
     1
175
     1
179
     1
273
     0
  0
XRECORD
  5
5D4
102
{ACAD_REACTORS
330
5D3
102
}
330
5D3
100
AcDbXrecord
280
     1
102
RTVSPropertyOp0
 70
     1
102
RTVSPropertyOp1
 70
     1
102
RTVSPropertyOp2
 70
     1
102
RTVSPropertyOp3
 70
     1
102
RTVSPropertyOp4
 70
     1
102
RTVSPropertyOp5
 70
     1
102
RTVSPropertyOp6
 70
     1
102
RTVSPropertyOp7
 70
     1
102
RTVSPropertyOp8
 70
     1
102
RTVSPropertyOp9
 70
     1
102
RTVSPropertyOp10
 70
     1
102
RTVSPropertyOp11
 70
     1
102
RTVSPropertyOp12
 70
     1
102
RTVSPropertyOp13
 70
     1
102
RTVSPropertyOp14
 70
     1
102
RTVSPropertyOp15
 70
     1
102
RTVSPropertyOp16
 70
     1
102
RTVSPropertyOp17
 70
     1
102
RTVSPropertyOp18
 70
     1
102
RTVSPropertyOp19
 70
     1
102
RTVSPropertyOp20
 70
     1
102
RTVSPropertyOp21
 70
     1
102
RTVSPropertyOp22
 70
     1
102
RTVSPropertyOp23
 70
     1
102
RTVSPropertyOp24
 70
     1
102
RTVSPropertyOp25
 70
     1
102
RTVSPropertyOp26
 70
     1
102
RTVSPropertyOp27
 70
     1
102
RTVSPropertyOp28
 70
     1
102
RTVSPropertyOp29
 70
     1
102
RTVSPropertyOp30
 70
     1
102
RTVSPropertyOp31
 70
     1
102
RTVSPropertyOp32
 70
     1
  0
XRECORD
  5
5D8
102
{ACAD_REACTORS
330
5D7
102
}
330
5D7
100
AcDbXrecord
280
     1
102
RTVSPropertyOp0
 70
     1
102
RTVSPropertyOp1
 70
     1
102
RTVSPropertyOp2
 70
     1
102
RTVSPropertyOp3
 70
     1
102
RTVSPropertyOp4
 70
     1
102
RTVSPropertyOp5
 70
     1
102
RTVSPropertyOp6
 70
     1
102
RTVSPropertyOp7
 70
     1
102
RTVSPropertyOp8
 70
     1
102
RTVSPropertyOp9
 70
     1
102
RTVSPropertyOp10
 70
     1
102
RTVSPropertyOp11
 70
     1
102
RTVSPropertyOp12
 70
     1
102
RTVSPropertyOp13
 70
     1
102
RTVSPropertyOp14
 70
     1
102
RTVSPropertyOp15
 70
     1
102
RTVSPropertyOp16
 70
     1
102
RTVSPropertyOp17
 70
     1
102
RTVSPropertyOp18
 70
     1
102
RTVSPropertyOp19
 70
     1
102
RTVSPropertyOp20
 70
     1
102
RTVSPropertyOp21
 70
     1
102
RTVSPropertyOp22
 70
     1
102
RTVSPropertyOp23
 70
     1
102
RTVSPropertyOp24
 70
     1
102
RTVSPropertyOp25
 70
     1
102
RTVSPropertyOp26
 70
     1
102
RTVSPropertyOp27
 70
     1
102
RTVSPropertyOp28
 70
     1
102
RTVSPropertyOp29
 70
     1
102
RTVSPropertyOp30
 70
     1
102
RTVSPropertyOp31
 70
     1
102
RTVSPropertyOp32
 70
     1
  0
XRECORD
  5
5D6
102
{ACAD_REACTORS
330
5D5
102
}
330
5D5
100
AcDbXrecord
280
     1
102
RTVSPropertyOp0
 70
     1
102
RTVSPropertyOp1
 70
     1
102
RTVSPropertyOp2
 70
     1
102
RTVSPropertyOp3
 70
     1
102
RTVSPropertyOp4
 70
     1
102
RTVSPropertyOp5
 70
     1
102
RTVSPropertyOp6
 70
     1
102
RTVSPropertyOp7
 70
     1
102
RTVSPropertyOp8
 70
     1
102
RTVSPropertyOp9
 70
     1
102
RTVSPropertyOp10
 70
     1
102
RTVSPropertyOp11
 70
     1
102
RTVSPropertyOp12
 70
     1
102
RTVSPropertyOp13
 70
     1
102
RTVSPropertyOp14
 70
     1
102
RTVSPropertyOp15
 70
     1
102
RTVSPropertyOp16
 70
     1
102
RTVSPropertyOp17
 70
     1
102
RTVSPropertyOp18
 70
     1
102
RTVSPropertyOp19
 70
     1
102
RTVSPropertyOp20
 70
     1
102
RTVSPropertyOp21
 70
     1
102
RTVSPropertyOp22
 70
     1
102
RTVSPropertyOp23
 70
     1
102
RTVSPropertyOp24
 70
     1
102
RTVSPropertyOp25
 70
     1
102
RTVSPropertyOp26
 70
     1
102
RTVSPropertyOp27
 70
     1
102
RTVSPropertyOp28
 70
     1
102
RTVSPropertyOp29
 70
     1
102
RTVSPropertyOp30
 70
     1
102
RTVSPropertyOp31
 70
     1
102
RTVSPropertyOp32
 70
     1
  0
XRECORD
  5
5DA
102
{ACAD_REACTORS
330
5D9
102
}
330
5D9
100
AcDbXrecord
280
     1
102
RTVSPropertyOp0
 70
     1
102
RTVSPropertyOp1
 70
     1
102
RTVSPropertyOp2
 70
     1
102
RTVSPropertyOp3
 70
     1
102
RTVSPropertyOp4
 70
     1
102
RTVSPropertyOp5
 70
     1
102
RTVSPropertyOp6
 70
     1
102
RTVSPropertyOp7
 70
     1
102
RTVSPropertyOp8
 70
     1
102
RTVSPropertyOp9
 70
     1
102
RTVSPropertyOp10
 70
     1
102
RTVSPropertyOp11
 70
     1
102
RTVSPropertyOp12
 70
     1
102
RTVSPropertyOp13
 70
     1
102
RTVSPropertyOp14
 70
     1
102
RTVSPropertyOp15
 70
     1
102
RTVSPropertyOp16
 70
     1
102
RTVSPropertyOp17
 70
     1
102
RTVSPropertyOp18
 70
     1
102
RTVSPropertyOp19
 70
     1
102
RTVSPropertyOp20
 70
     1
102
RTVSPropertyOp21
 70
     1
102
RTVSPropertyOp22
 70
     1
102
RTVSPropertyOp23
 70
     1
102
RTVSPropertyOp24
 70
     1
102
RTVSPropertyOp25
 70
     1
102
RTVSPropertyOp26
 70
     1
102
RTVSPropertyOp27
 70
     1
102
RTVSPropertyOp28
 70
     1
102
RTVSPropertyOp29
 70
     1
102
RTVSPropertyOp30
 70
     1
102
RTVSPropertyOp31
 70
     1
102
RTVSPropertyOp32
 70
     1
  0
XRECORD
  5
5E2
102
{ACAD_REACTORS
330
5E1
102
}
330
5E1
100
AcDbXrecord
280
     1
102
RTVSPropertyOp0
 70
     1
102
RTVSPropertyOp1
 70
     1
102
RTVSPropertyOp2
 70
     1
102
RTVSPropertyOp3
 70
     1
102
RTVSPropertyOp4
 70
     1
102
RTVSPropertyOp5
 70
     1
102
RTVSPropertyOp6
 70
     1
102
RTVSPropertyOp7
 70
     1
102
RTVSPropertyOp8
 70
     1
102
RTVSPropertyOp9
 70
     1
102
RTVSPropertyOp10
 70
     1
102
RTVSPropertyOp11
 70
     1
102
RTVSPropertyOp12
 70
     1
102
RTVSPropertyOp13
 70
     1
102
RTVSPropertyOp14
 70
     1
102
RTVSPropertyOp15
 70
     1
102
RTVSPropertyOp16
 70
     1
102
RTVSPropertyOp17
 70
     1
102
RTVSPropertyOp18
 70
     1
102
RTVSPropertyOp19
 70
     1
102
RTVSPropertyOp20
 70
     1
102
RTVSPropertyOp21
 70
     1
102
RTVSPropertyOp22
 70
     1
102
RTVSPropertyOp23
 70
     1
102
RTVSPropertyOp24
 70
     1
102
RTVSPropertyOp25
 70
     1
102
RTVSPropertyOp26
 70
     1
102
RTVSPropertyOp27
 70
     1
102
RTVSPropertyOp28
 70
     1
102
RTVSPropertyOp29
 70
     1
102
RTVSPropertyOp30
 70
     1
102
RTVSPropertyOp31
 70
     1
102
RTVSPropertyOp32
 70
     1
  0
XRECORD
  5
5EA
102
{ACAD_REACTORS
330
5E9
102
}
330
5E9
100
AcDbXrecord
280
     1
102
RTVSPropertyOp0
 70
     1
102
RTVSPropertyOp1
 70
     1
102
RTVSPropertyOp2
 70
     1
102
RTVSPropertyOp3
 70
     1
102
RTVSPropertyOp4
 70
     1
102
RTVSPropertyOp5
 70
     1
102
RTVSPropertyOp6
 70
     1
102
RTVSPropertyOp7
 70
     1
102
RTVSPropertyOp8
 70
     1
102
RTVSPropertyOp9
 70
     1
102
RTVSPropertyOp10
 70
     1
102
RTVSPropertyOp11
 70
     1
102
RTVSPropertyOp12
 70
     1
102
RTVSPropertyOp13
 70
     1
102
RTVSPropertyOp14
 70
     1
102
RTVSPropertyOp15
 70
     1
102
RTVSPropertyOp16
 70
     1
102
RTVSPropertyOp17
 70
     1
102
RTVSPropertyOp18
 70
     1
102
RTVSPropertyOp19
 70
     1
102
RTVSPropertyOp20
 70
     1
102
RTVSPropertyOp21
 70
     1
102
RTVSPropertyOp22
 70
     1
102
RTVSPropertyOp23
 70
     1
102
RTVSPropertyOp24
 70
     1
102
RTVSPropertyOp25
 70
     1
102
RTVSPropertyOp26
 70
     1
102
RTVSPropertyOp27
 70
     1
102
RTVSPropertyOp28
 70
     1
102
RTVSPropertyOp29
 70
     1
102
RTVSPropertyOp30
 70
     1
102
RTVSPropertyOp31
 70
     1
102
RTVSPropertyOp32
 70
     1
  0
XRECORD
  5
5DE
102
{ACAD_REACTORS
330
5DD
102
}
330
5DD
100
AcDbXrecord
280
     1
102
RTVSPropertyOp0
 70
     1
102
RTVSPropertyOp1
 70
     1
102
RTVSPropertyOp2
 70
     1
102
RTVSPropertyOp3
 70
     1
102
RTVSPropertyOp4
 70
     1
102
RTVSPropertyOp5
 70
     1
102
RTVSPropertyOp6
 70
     1
102
RTVSPropertyOp7
 70
     1
102
RTVSPropertyOp8
 70
     1
102
RTVSPropertyOp9
 70
     1
102
RTVSPropertyOp10
 70
     1
102
RTVSPropertyOp11
 70
     1
102
RTVSPropertyOp12
 70
     1
102
RTVSPropertyOp13
 70
     1
102
RTVSPropertyOp14
 70
     1
102
RTVSPropertyOp15
 70
     1
102
RTVSPropertyOp16
 70
     1
102
RTVSPropertyOp17
 70
     1
102
RTVSPropertyOp18
 70
     1
102
RTVSPropertyOp19
 70
     1
102
RTVSPropertyOp20
 70
     1
102
RTVSPropertyOp21
 70
     1
102
RTVSPropertyOp22
 70
     1
102
RTVSPropertyOp23
 70
     1
102
RTVSPropertyOp24
 70
     1
102
RTVSPropertyOp25
 70
     1
102
RTVSPropertyOp26
 70
     1
102
RTVSPropertyOp27
 70
     1
102
RTVSPropertyOp28
 70
     1
102
RTVSPropertyOp29
 70
     1
102
RTVSPropertyOp30
 70
     1
102
RTVSPropertyOp31
 70
     1
102
RTVSPropertyOp32
 70
     1
  0
XRECORD
  5
5E0
102
{ACAD_REACTORS
330
5DF
102
}
330
5DF
100
AcDbXrecord
280
     1
102
RTVSPropertyOp0
 70
     1
102
RTVSPropertyOp1
 70
     1
102
RTVSPropertyOp2
 70
     1
102
RTVSPropertyOp3
 70
     1
102
RTVSPropertyOp4
 70
     1
102
RTVSPropertyOp5
 70
     1
102
RTVSPropertyOp6
 70
     1
102
RTVSPropertyOp7
 70
     1
102
RTVSPropertyOp8
 70
     1
102
RTVSPropertyOp9
 70
     1
102
RTVSPropertyOp10
 70
     1
102
RTVSPropertyOp11
 70
     1
102
RTVSPropertyOp12
 70
     1
102
RTVSPropertyOp13
 70
     1
102
RTVSPropertyOp14
 70
     1
102
RTVSPropertyOp15
 70
     1
102
RTVSPropertyOp16
 70
     1
102
RTVSPropertyOp17
 70
     1
102
RTVSPropertyOp18
 70
     1
102
RTVSPropertyOp19
 70
     1
102
RTVSPropertyOp20
 70
     1
102
RTVSPropertyOp21
 70
     1
102
RTVSPropertyOp22
 70
     1
102
RTVSPropertyOp23
 70
     1
102
RTVSPropertyOp24
 70
     1
102
RTVSPropertyOp25
 70
     1
102
RTVSPropertyOp26
 70
     1
102
RTVSPropertyOp27
 70
     1
102
RTVSPropertyOp28
 70
     1
102
RTVSPropertyOp29
 70
     1
102
RTVSPropertyOp30
 70
     1
102
RTVSPropertyOp31
 70
     1
102
RTVSPropertyOp32
 70
     1
  0
XRECORD
  5
5E8
102
{ACAD_REACTORS
330
5E7
102
}
330
5E7
100
AcDbXrecord
280
     1
102
RTVSPropertyOp0
 70
     1
102
RTVSPropertyOp1
 70
     1
102
RTVSPropertyOp2
 70
     1
102
RTVSPropertyOp3
 70
     1
102
RTVSPropertyOp4
 70
     1
102
RTVSPropertyOp5
 70
     1
102
RTVSPropertyOp6
 70
     1
102
RTVSPropertyOp7
 70
     1
102
RTVSPropertyOp8
 70
     1
102
RTVSPropertyOp9
 70
     1
102
RTVSPropertyOp10
 70
     1
102
RTVSPropertyOp11
 70
     1
102
RTVSPropertyOp12
 70
     1
102
RTVSPropertyOp13
 70
     1
102
RTVSPropertyOp14
 70
     1
102
RTVSPropertyOp15
 70
     1
102
RTVSPropertyOp16
 70
     1
102
RTVSPropertyOp17
 70
     1
102
RTVSPropertyOp18
 70
     1
102
RTVSPropertyOp19
 70
     1
102
RTVSPropertyOp20
 70
     1
102
RTVSPropertyOp21
 70
     1
102
RTVSPropertyOp22
 70
     1
102
RTVSPropertyOp23
 70
     1
102
RTVSPropertyOp24
 70
     1
102
RTVSPropertyOp25
 70
     1
102
RTVSPropertyOp26
 70
     1
102
RTVSPropertyOp27
 70
     1
102
RTVSPropertyOp28
 70
     1
102
RTVSPropertyOp29
 70
     1
102
RTVSPropertyOp30
 70
     1
102
RTVSPropertyOp31
 70
     1
102
RTVSPropertyOp32
 70
     1
  0
XRECORD
  5
5CC
102
{ACAD_REACTORS
330
5CB
102
}
330
5CB
100
AcDbXrecord
280
     1
102
RTVSPropertyOp0
 70
     1
102
RTVSPropertyOp1
 70
     1
102
RTVSPropertyOp2
 70
     1
102
RTVSPropertyOp3
 70
     1
102
RTVSPropertyOp4
 70
     1
102
RTVSPropertyOp5
 70
     1
102
RTVSPropertyOp6
 70
     1
102
RTVSPropertyOp7
 70
     1
102
RTVSPropertyOp8
 70
     1
102
RTVSPropertyOp9
 70
     1
102
RTVSPropertyOp10
 70
     1
102
RTVSPropertyOp11
 70
     1
102
RTVSPropertyOp12
 70
     1
102
RTVSPropertyOp13
 70
     1
102
RTVSPropertyOp14
 70
     1
102
RTVSPropertyOp15
 70
     1
102
RTVSPropertyOp16
 70
     1
102
RTVSPropertyOp17
 70
     1
102
RTVSPropertyOp18
 70
     1
102
RTVSPropertyOp19
 70
     1
102
RTVSPropertyOp20
 70
     1
102
RTVSPropertyOp21
 70
     1
102
RTVSPropertyOp22
 70
     1
102
RTVSPropertyOp23
 70
     1
102
RTVSPropertyOp24
 70
     1
102
RTVSPropertyOp25
 70
     1
102
RTVSPropertyOp26
 70
     1
102
RTVSPropertyOp27
 70
     1
102
RTVSPropertyOp28
 70
     1
102
RTVSPropertyOp29
 70
     1
102
RTVSPropertyOp30
 70
     1
102
RTVSPropertyOp31
 70
     1
102
RTVSPropertyOp32
 70
     1
  0
XRECORD
  5
5CE
102
{ACAD_REACTORS
330
5CD
102
}
330
5CD
100
AcDbXrecord
280
     1
102
RTVSPropertyOp0
 70
     1
102
RTVSPropertyOp1
 70
     1
102
RTVSPropertyOp2
 70
     1
102
RTVSPropertyOp3
 70
     1
102
RTVSPropertyOp4
 70
     1
102
RTVSPropertyOp5
 70
     1
102
RTVSPropertyOp6
 70
     1
102
RTVSPropertyOp7
 70
     1
102
RTVSPropertyOp8
 70
     1
102
RTVSPropertyOp9
 70
     1
102
RTVSPropertyOp10
 70
     1
102
RTVSPropertyOp11
 70
     1
102
RTVSPropertyOp12
 70
     1
102
RTVSPropertyOp13
 70
     1
102
RTVSPropertyOp14
 70
     1
102
RTVSPropertyOp15
 70
     1
102
RTVSPropertyOp16
 70
     1
102
RTVSPropertyOp17
 70
     1
102
RTVSPropertyOp18
 70
     1
102
RTVSPropertyOp19
 70
     1
102
RTVSPropertyOp20
 70
     1
102
RTVSPropertyOp21
 70
     1
102
RTVSPropertyOp22
 70
     1
102
RTVSPropertyOp23
 70
     1
102
RTVSPropertyOp24
 70
     1
102
RTVSPropertyOp25
 70
     1
102
RTVSPropertyOp26
 70
     1
102
RTVSPropertyOp27
 70
     1
102
RTVSPropertyOp28
 70
     1
102
RTVSPropertyOp29
 70
     1
102
RTVSPropertyOp30
 70
     1
102
RTVSPropertyOp31
 70
     1
102
RTVSPropertyOp32
 70
     1
  0
XRECORD
  5
5D0
102
{ACAD_REACTORS
330
5CF
102
}
330
5CF
100
AcDbXrecord
280
     1
102
RTVSPropertyOp0
 70
     1
102
RTVSPropertyOp1
 70
     1
102
RTVSPropertyOp2
 70
     1
102
RTVSPropertyOp3
 70
     1
102
RTVSPropertyOp4
 70
     1
102
RTVSPropertyOp5
 70
     1
102
RTVSPropertyOp6
 70
     1
102
RTVSPropertyOp7
 70
     1
102
RTVSPropertyOp8
 70
     1
102
RTVSPropertyOp9
 70
     1
102
RTVSPropertyOp10
 70
     1
102
RTVSPropertyOp11
 70
     1
102
RTVSPropertyOp12
 70
     1
102
RTVSPropertyOp13
 70
     1
102
RTVSPropertyOp14
 70
     1
102
RTVSPropertyOp15
 70
     1
102
RTVSPropertyOp16
 70
     1
102
RTVSPropertyOp17
 70
     1
102
RTVSPropertyOp18
 70
     1
102
RTVSPropertyOp19
 70
     1
102
RTVSPropertyOp20
 70
     1
102
RTVSPropertyOp21
 70
     1
102
RTVSPropertyOp22
 70
     1
102
RTVSPropertyOp23
 70
     1
102
RTVSPropertyOp24
 70
     1
102
RTVSPropertyOp25
 70
     1
102
RTVSPropertyOp26
 70
     1
102
RTVSPropertyOp27
 70
     1
102
RTVSPropertyOp28
 70
     1
102
RTVSPropertyOp29
 70
     1
102
RTVSPropertyOp30
 70
     1
102
RTVSPropertyOp31
 70
     1
102
RTVSPropertyOp32
 70
     1
  0
XRECORD
  5
5D2
102
{ACAD_REACTORS
330
5D1
102
}
330
5D1
100
AcDbXrecord
280
     1
102
RTVSPropertyOp0
 70
     1
102
RTVSPropertyOp1
 70
     1
102
RTVSPropertyOp2
 70
     1
102
RTVSPropertyOp3
 70
     1
102
RTVSPropertyOp4
 70
     1
102
RTVSPropertyOp5
 70
     1
102
RTVSPropertyOp6
 70
     1
102
RTVSPropertyOp7
 70
     1
102
RTVSPropertyOp8
 70
     1
102
RTVSPropertyOp9
 70
     1
102
RTVSPropertyOp10
 70
     1
102
RTVSPropertyOp11
 70
     1
102
RTVSPropertyOp12
 70
     1
102
RTVSPropertyOp13
 70
     1
102
RTVSPropertyOp14
 70
     1
102
RTVSPropertyOp15
 70
     1
102
RTVSPropertyOp16
 70
     1
102
RTVSPropertyOp17
 70
     1
102
RTVSPropertyOp18
 70
     1
102
RTVSPropertyOp19
 70
     1
102
RTVSPropertyOp20
 70
     1
102
RTVSPropertyOp21
 70
     1
102
RTVSPropertyOp22
 70
     1
102
RTVSPropertyOp23
 70
     1
102
RTVSPropertyOp24
 70
     1
102
RTVSPropertyOp25
 70
     1
102
RTVSPropertyOp26
 70
     1
102
RTVSPropertyOp27
 70
     1
102
RTVSPropertyOp28
 70
     1
102
RTVSPropertyOp29
 70
     1
102
RTVSPropertyOp30
 70
     1
102
RTVSPropertyOp31
 70
     1
102
RTVSPropertyOp32
 70
     1
  0
XRECORD
  5
5E6
102
{ACAD_REACTORS
330
5E5
102
}
330
5E5
100
AcDbXrecord
280
     1
102
RTVSPropertyOp0
 70
     1
102
RTVSPropertyOp1
 70
     1
102
RTVSPropertyOp2
 70
     1
102
RTVSPropertyOp3
 70
     1
102
RTVSPropertyOp4
 70
     1
102
RTVSPropertyOp5
 70
     1
102
RTVSPropertyOp6
 70
     1
102
RTVSPropertyOp7
 70
     1
102
RTVSPropertyOp8
 70
     1
102
RTVSPropertyOp9
 70
     1
102
RTVSPropertyOp10
 70
     1
102
RTVSPropertyOp11
 70
     1
102
RTVSPropertyOp12
 70
     1
102
RTVSPropertyOp13
 70
     1
102
RTVSPropertyOp14
 70
     1
102
RTVSPropertyOp15
 70
     1
102
RTVSPropertyOp16
 70
     1
102
RTVSPropertyOp17
 70
     1
102
RTVSPropertyOp18
 70
     1
102
RTVSPropertyOp19
 70
     1
102
RTVSPropertyOp20
 70
     1
102
RTVSPropertyOp21
 70
     1
102
RTVSPropertyOp22
 70
     1
102
RTVSPropertyOp23
 70
     1
102
RTVSPropertyOp24
 70
     1
102
RTVSPropertyOp25
 70
     1
102
RTVSPropertyOp26
 70
     1
102
RTVSPropertyOp27
 70
     1
102
RTVSPropertyOp28
 70
     1
102
RTVSPropertyOp29
 70
     1
102
RTVSPropertyOp30
 70
     1
102
RTVSPropertyOp31
 70
     1
102
RTVSPropertyOp32
 70
     1
  0
XRECORD
  5
5DC
102
{ACAD_REACTORS
330
5DB
102
}
330
5DB
100
AcDbXrecord
280
     1
102
RTVSPropertyOp0
 70
     1
102
RTVSPropertyOp1
 70
     1
102
RTVSPropertyOp2
 70
     1
102
RTVSPropertyOp3
 70
     1
102
RTVSPropertyOp4
 70
     1
102
RTVSPropertyOp5
 70
     1
102
RTVSPropertyOp6
 70
     1
102
RTVSPropertyOp7
 70
     1
102
RTVSPropertyOp8
 70
     1
102
RTVSPropertyOp9
 70
     1
102
RTVSPropertyOp10
 70
     1
102
RTVSPropertyOp11
 70
     1
102
RTVSPropertyOp12
 70
     1
102
RTVSPropertyOp13
 70
     1
102
RTVSPropertyOp14
 70
     1
102
RTVSPropertyOp15
 70
     1
102
RTVSPropertyOp16
 70
     1
102
RTVSPropertyOp17
 70
     1
102
RTVSPropertyOp18
 70
     1
102
RTVSPropertyOp19
 70
     1
102
RTVSPropertyOp20
 70
     1
102
RTVSPropertyOp21
 70
     1
102
RTVSPropertyOp22
 70
     1
102
RTVSPropertyOp23
 70
     1
102
RTVSPropertyOp24
 70
     1
102
RTVSPropertyOp25
 70
     1
102
RTVSPropertyOp26
 70
     1
102
RTVSPropertyOp27
 70
     1
102
RTVSPropertyOp28
 70
     1
102
RTVSPropertyOp29
 70
     1
102
RTVSPropertyOp30
 70
     1
102
RTVSPropertyOp31
 70
     1
102
RTVSPropertyOp32
 70
     1
  0
XRECORD
  5
5E4
102
{ACAD_REACTORS
330
5E3
102
}
330
5E3
100
AcDbXrecord
280
     1
102
RTVSPropertyOp0
 70
     1
102
RTVSPropertyOp1
 70
     1
102
RTVSPropertyOp2
 70
     1
102
RTVSPropertyOp3
 70
     1
102
RTVSPropertyOp4
 70
     1
102
RTVSPropertyOp5
 70
     1
102
RTVSPropertyOp6
 70
     1
102
RTVSPropertyOp7
 70
     1
102
RTVSPropertyOp8
 70
     1
102
RTVSPropertyOp9
 70
     1
102
RTVSPropertyOp10
 70
     1
102
RTVSPropertyOp11
 70
     1
102
RTVSPropertyOp12
 70
     1
102
RTVSPropertyOp13
 70
     1
102
RTVSPropertyOp14
 70
     1
102
RTVSPropertyOp15
 70
     1
102
RTVSPropertyOp16
 70
     1
102
RTVSPropertyOp17
 70
     1
102
RTVSPropertyOp18
 70
     1
102
RTVSPropertyOp19
 70
     1
102
RTVSPropertyOp20
 70
     1
102
RTVSPropertyOp21
 70
     1
102
RTVSPropertyOp22
 70
     1
102
RTVSPropertyOp23
 70
     1
102
RTVSPropertyOp24
 70
     1
102
RTVSPropertyOp25
 70
     1
102
RTVSPropertyOp26
 70
     1
102
RTVSPropertyOp27
 70
     1
102
RTVSPropertyOp28
 70
     1
102
RTVSPropertyOp29
 70
     1
102
RTVSPropertyOp30
 70
     1
102
RTVSPropertyOp31
 70
     1
102
RTVSPropertyOp32
 70
     1
  0
ENDSEC
  0
EOF
