  0
SECTION
  2
HEADER
  9
$ACADVER
  1
AC1015
  9
$ACADMAINTVER
 70
     6
  9
$DWGCODEPAGE
  3
ANSI_949
  9
$INSBASE
 10
0.0
 20
0.0
 30
0.0
  9
$EXTMIN
 10
1.000000000000000E+20
 20
1.000000000000000E+20
 30
1.000000000000000E+20
  9
$EXTMAX
 10
-1.000000000000000E+20
 20
-1.000000000000000E+20
 30
-1.000000000000000E+20
  9
$LIMMIN
 10
0.0
 20
0.0
  9
$LIMMAX
 10
12.0
 20
9.0
  9
$ORTHOMODE
 70
     0
  9
$REGENMODE
 70
     1
  9
$FILLMODE
 70
     1
  9
$QTEXTMODE
 70
     0
  9
$MIRRTEXT
 70
     1
  9
$LTSCALE
 40
1.0
  9
$ATTMODE
 70
     1
  9
$TEXTSIZE
 40
0.2
  9
$TRACEWID
 40
0.05
  9
$TEXTSTYLE
  7
Standard
  9
$CLAYER
  8
0
  9
$CELTYPE
  6
ByLayer
  9
$CECOLOR
 62
   256
  9
$CELTSCALE
 40
1.0
  9
$DISPSILH
 70
     0
  9
$DIMSCALE
 40
1.0
  9
$DIMASZ
 40
0.18
  9
$DIMEXO
 40
0.0625
  9
$DIMDLI
 40
0.38
  9
$DIMRND
 40
0.0
  9
$DIMDLE
 40
0.0
  9
$DIMEXE
 40
0.18
  9
$DIMTP
 40
0.0
  9
$DIMTM
 40
0.0
  9
$DIMTXT
 40
0.18
  9
$DIMCEN
 40
0.09
  9
$DIMTSZ
 40
0.0
  9
$DIMTOL
 70
     0
  9
$DIMLIM
 70
     0
  9
$DIMTIH
 70
     1
  9
$DIMTOH
 70
     1
  9
$DIMSE1
 70
     0
  9
$DIMSE2
 70
     0
  9
$DIMTAD
 70
     0
  9
$DIMZIN
 70
     0
  9
$DIMBLK
  1

  9
$DIMASO
 70
     1
  9
$DIMSHO
 70
     1
  9
$DIMPOST
  1

  9
$DIMAPOST
  1

  9
$DIMALT
 70
     0
  9
$DIMALTD
 70
     2
  9
$DIMALTF
 40
25.4
  9
$DIMLFAC
 40
1.0
  9
$DIMTOFL
 70
     0
  9
$DIMTVP
 40
0.0
  9
$DIMTIX
 70
     0
  9
$DIMSOXD
 70
     0
  9
$DIMSAH
 70
     0
  9
$DIMBLK1
  1

  9
$DIMBLK2
  1

  9
$DIMSTYLE
  2
Standard
  9
$DIMCLRD
 70
     0
  9
$DIMCLRE
 70
     0
  9
$DIMCLRT
 70
     0
  9
$DIMTFAC
 40
1.0
  9
$DIMGAP
 40
0.09
  9
$DIMJUST
 70
     0
  9
$DIMSD1
 70
     0
  9
$DIMSD2
 70
     0
  9
$DIMTOLJ
 70
     1
  9
$DIMTZIN
 70
     0
  9
$DIMALTZ
 70
     0
  9
$DIMALTTZ
 70
     0
  9
$DIMUPT
 70
     0
  9
$DIMDEC
 70
     4
  9
$DIMTDEC
 70
     4
  9
$DIMALTU
 70
     2
  9
$DIMALTTD
 70
     2
  9
$DIMTXSTY
  7
Standard
  9
$DIMAUNIT
 70
     0
  9
$DIMADEC
 70
     0
  9
$DIMALTRND
 40
0.0
  9
$DIMAZIN
 70
     0
  9
$DIMDSEP
 70
    46
  9
$DIMATFIT
 70
     3
  9
$DIMFRAC
 70
     0
  9
$DIMLDRBLK
  1

  9
$DIMLUNIT
 70
     2
  9
$DIMLWD
 70
    -2
  9
$DIMLWE
 70
    -2
  9
$DIMTMOVE
 70
     0
  9
$LUNITS
 70
     2
  9
$LUPREC
 70
     4
  9
$SKETCHINC
 40
0.1
  9
$FILLETRAD
 40
0.5
  9
$AUNITS
 70
     0
  9
$AUPREC
 70
     0
  9
$MENU
  1
.
  9
$ELEVATION
 40
0.0
  9
$PELEVATION
 40
0.0
  9
$THICKNESS
 40
0.0
  9
$LIMCHECK
 70
     0
  9
$CHAMFERA
 40
0.5
  9
$CHAMFERB
 40
0.5
  9
$CHAMFERC
 40
1.0
  9
$CHAMFERD
 40
0.0
  9
$SKPOLY
 70
     0
  9
$TDCREATE
 40
2456522.588636748
  9
$TDUCREATE
 40
2456522.088636748
  9
$TDUPDATE
 40
2456522.588664005
  9
$TDUUPDATE
 40
2456522.088664005
  9
$TDINDWG
 40
0.0000000116
  9
$TDUSRTIMER
 40
0.0000000116
  9
$USRTIMER
 70
     1
  9
$ANGBASE
 50
0.0
  9
$ANGDIR
 70
     0
  9
$PDMODE
 70
     0
  9
$PDSIZE
 40
0.0
  9
$PLINEWID
 40
0.0
  9
$SPLFRAME
 70
     0
  9
$SPLINETYPE
 70
     6
  9
$SPLINESEGS
 70
     8
  9
$HANDSEED
  5
267
  9
$SURFTAB1
 70
     6
  9
$SURFTAB2
 70
     6
  9
$SURFTYPE
 70
     6
  9
$SURFU
 70
     6
  9
$SURFV
 70
     6
  9
$UCSBASE
  2

  9
$UCSNAME
  2

  9
$UCSORG
 10
0.0
 20
0.0
 30
0.0
  9
$UCSXDIR
 10
1.0
 20
0.0
 30
0.0
  9
$UCSYDIR
 10
0.0
 20
1.0
 30
0.0
  9
$UCSORTHOREF
  2

  9
$UCSORTHOVIEW
 70
     0
  9
$UCSORGTOP
 10
0.0
 20
0.0
 30
0.0
  9
$UCSORGBOTTOM
 10
0.0
 20
0.0
 30
0.0
  9
$UCSORGLEFT
 10
0.0
 20
0.0
 30
0.0
  9
$UCSORGRIGHT
 10
0.0
 20
0.0
 30
0.0
  9
$UCSORGFRONT
 10
0.0
 20
0.0
 30
0.0
  9
$UCSORGBACK
 10
0.0
 20
0.0
 30
0.0
  9
$PUCSBASE
  2

  9
$PUCSNAME
  2

  9
$PUCSORG
 10
0.0
 20
0.0
 30
0.0
  9
$PUCSXDIR
 10
1.0
 20
0.0
 30
0.0
  9
$PUCSYDIR
 10
0.0
 20
1.0
 30
0.0
  9
$PUCSORTHOREF
  2

  9
$PUCSORTHOVIEW
 70
     0
  9
$PUCSORGTOP
 10
0.0
 20
0.0
 30
0.0
  9
$PUCSORGBOTTOM
 10
0.0
 20
0.0
 30
0.0
  9
$PUCSORGLEFT
 10
0.0
 20
0.0
 30
0.0
  9
$PUCSORGRIGHT
 10
0.0
 20
0.0
 30
0.0
  9
$PUCSORGFRONT
 10
0.0
 20
0.0
 30
0.0
  9
$PUCSORGBACK
 10
0.0
 20
0.0
 30
0.0
  9
$USERI1
 70
     0
  9
$USERI2
 70
     0
  9
$USERI3
 70
     0
  9
$USERI4
 70
     0
  9
$USERI5
 70
     0
  9
$USERR1
 40
0.0
  9
$USERR2
 40
0.0
  9
$USERR3
 40
0.0
  9
$USERR4
 40
0.0
  9
$USERR5
 40
0.0
  9
$WORLDVIEW
 70
     1
  9
$SHADEDGE
 70
     3
  9
$SHADEDIF
 70
    70
  9
$TILEMODE
 70
     1
  9
$MAXACTVP
 70
    64
  9
$PINSBASE
 10
0.0
 20
0.0
 30
0.0
  9
$PLIMCHECK
 70
     0
  9
$PEXTMIN
 10
1.000000000000000E+20
 20
1.000000000000000E+20
 30
1.000000000000000E+20
  9
$PEXTMAX
 10
-1.000000000000000E+20
 20
-1.000000000000000E+20
 30
-1.000000000000000E+20
  9
$PLIMMIN
 10
0.0
 20
0.0
  9
$PLIMMAX
 10
12.0
 20
9.0
  9
$UNITMODE
 70
     0
  9
$VISRETAIN
 70
     1
  9
$PLINEGEN
 70
     0
  9
$PSLTSCALE
 70
     1
  9
$TREEDEPTH
 70
  3020
  9
$CMLSTYLE
  2
Standard
  9
$CMLJUST
 70
     0
  9
$CMLSCALE
 40
1.0
  9
$PROXYGRAPHICS
 70
     1
  9
$MEASUREMENT
 70
     0
  9
$CELWEIGHT
370
    -1
  9
$ENDCAPS
280
     0
  9
$JOINSTYLE
280
     0
  9
$LWDISPLAY
290
     1
  9
$INSUNITS
 70
     4
  9
$HYPERLINKBASE
  1

  9
$STYLESHEET
  1

  9
$XEDIT
290
     1
  9
$CEPSNTYPE
380
     0
  9
$PSTYLEMODE
290
     1
  9
$FINGERPRINTGUID
  2
{071197C9-F6D0-45E2-8D3A-8260C77A21C3}
  9
$VERSIONGUID
  2
{FAEB1C32-E019-11D5-929B-00C0DF256EC4}
  9
$EXTNAMES
290
     1
  9
$PSVPSCALE
 40
0.0
  9
$OLESTARTUP
290
     0
  0
ENDSEC
  0
SECTION
  2
CLASSES
  0
CLASS
  1
ACDBDICTIONARYWDFLT
  2
AcDbDictionaryWithDefault
  3
ObjectDBX Classes
 90
        0
280
     0
281
     0
  0
CLASS
  1
VISUALSTYLE
  2
AcDbVisualStyle
  3
ObjectDBX Classes
 90
     4095
280
     0
281
     0
  0
CLASS
  1
MATERIAL
  2
AcDbMaterial
  3
ObjectDBX Classes
 90
     1153
280
     0
281
     0
  0
CLASS
  1
SPATIAL_FILTER
  2
AcDbSpatialFilter
  3
ObjectDBX Classes
 90
        0
280
     0
281
     0
  0
CLASS
  1
SCALE
  2
AcDbScale
  3
ObjectDBX Classes
 90
     1153
280
     0
281
     0
  0
CLASS
  1
DICTIONARYVAR
  2
AcDbDictionaryVar
  3
ObjectDBX Classes
 90
        0
280
     0
281
     0
  0
CLASS
  1
ACDBPLACEHOLDER
  2
AcDbPlaceHolder
  3
ObjectDBX Classes
 90
        0
280
     0
281
     0
  0
CLASS
  1
LAYOUT
  2
AcDbLayout
  3
ObjectDBX Classes
 90
        0
280
     0
281
     0
  0
ENDSEC
  0
SECTION
  2
TABLES
  0
TABLE
  2
VPORT
  5
8
330
0
100
AcDbSymbolTable
 70
     1
  0
VPORT
  5
29
330
8
100
AcDbSymbolTableRecord
100
AcDbViewportTableRecord
  2
*Active
 70
     0
 10
0.0
 20
0.0
 11
1.0
 21
1.0
 12
148.6203422501967
 22
90.60697291228917
 13
0.0
 23
0.0
 14
0.5
 24
0.5
 15
0.5
 25
0.5
 16
0.0
 26
0.0
 36
1.0
 17
0.0
 27
0.0
 37
0.0
 40
180.7033126276814
 41
1.598783624860885
 42
50.0
 43
0.0
 44
0.0
 50
0.0
 51
0.0
 71
     0
 72
   100
 73
     1
 74
     3
 75
     0
 76
     0
 77
     0
 78
     0
281
     0
 65
     1
110
0.0
120
0.0
130
0.0
111
1.0
121
0.0
131
0.0
112
0.0
122
1.0
132
0.0
 79
     0
146
0.0
  0
ENDTAB
  0
TABLE
  2
LTYPE
  5
5
330
0
100
AcDbSymbolTable
 70
     2
  0
LTYPE
  5
14
330
5
100
AcDbSymbolTableRecord
100
AcDbLinetypeTableRecord
  2
ByBlock
 70
     0
  3

 72
    65
 73
     0
 40
0.0
  0
LTYPE
  5
15
330
5
100
AcDbSymbolTableRecord
100
AcDbLinetypeTableRecord
  2
ByLayer
 70
     0
  3

 72
    65
 73
     0
 40
0.0
  0
LTYPE
  5
16
330
5
100
AcDbSymbolTableRecord
100
AcDbLinetypeTableRecord
  2
Continuous
 70
     0
  3
Solid line
 72
    65
 73
     0
 40
0.0
  0
LTYPE
  5
F2
330
5
100
AcDbSymbolTableRecord
100
AcDbLinetypeTableRecord
  2
Dashed
 70
     0
  3
- - - - - 
 72
    65
 73
     2
 40
5.644444465637207
 49
2.822222232818604
 74
     0
 49
-2.822222232818603
 74
     0
  0
ENDTAB
  0
TABLE
  2
LAYER
  5
2
330
0
100
AcDbSymbolTable
 70
     3
  0
LAYER
  5
10
330
2
100
AcDbSymbolTableRecord
100
AcDbLayerTableRecord
  2
0
 70
     0
 62
     7
  6
Continuous
370
    -3
390
F
  0
LAYER
  5
40
330
2
100
AcDbSymbolTableRecord
100
AcDbLayerTableRecord
  2
Doc_ Finishes
 70
     0
 62
     7
  6
Continuous
370
    -3
390
F
  0
LAYER
  5
DB
330
2
100
AcDbSymbolTableRecord
100
AcDbLayerTableRecord
  2
Doc_ Floor
 70
     0
 62
     7
  6
Continuous
370
    -3
390
F
  0
ENDTAB
  0
TABLE
  2
STYLE
  5
3
330
0
100
AcDbSymbolTable
 70
     4
  0
STYLE
  5
11
330
3
100
AcDbSymbolTableRecord
100
AcDbTextStyleTableRecord
  2
Standard
 70
     0
 40
0.0
 41
1.0
 50
0.0
 71
     0
 42
0.2
  3
txt
  4

  0
STYLE
  5
D6
330
3
100
AcDbSymbolTableRecord
100
AcDbTextStyleTableRecord
  2
GENERATED_STYLE_1
 70
     0
 40
0.0
 41
1.0
 50
0.0
 71
     0
 42
0.2
  3

  4

1001
ACAD
1000
Century Gothic
1071
       34
  0
STYLE
  5
D9
330
3
100
AcDbSymbolTableRecord
100
AcDbTextStyleTableRecord
  2
GENERATED_STYLE_2
 70
     0
 40
0.0
 41
1.0
 50
0.0
 71
     0
 42
0.2
  3

  4

1001
ACAD
1000
DilleniaUPC
1071
 33554450
  0
STYLE
  5
1F3
330
3
100
AcDbSymbolTableRecord
100
AcDbTextStyleTableRecord
  2
GENERATED_STYLE_3
 70
     0
 40
0.0
 41
1.0
 50
0.0
 71
     0
 42
0.2
  3

  4

1001
ACAD
1000
Arial
1071
       34
  0
ENDTAB
  0
TABLE
  2
VIEW
  5
6
330
0
100
AcDbSymbolTable
 70
     0
  0
ENDTAB
  0
TABLE
  2
UCS
  5
7
330
0
100
AcDbSymbolTable
 70
     0
  0
ENDTAB
  0
TABLE
  2
APPID
  5
9
330
0
100
AcDbSymbolTable
 70
     1
  0
APPID
  5
12
330
9
100
AcDbSymbolTableRecord
100
AcDbRegAppTableRecord
  2
ACAD
 70
     0
  0
ENDTAB
  0
TABLE
  2
DIMSTYLE
  5
A
330
0
100
AcDbSymbolTable
 70
     1
100
AcDbDimStyleTable
  0
DIMSTYLE
105
27
330
A
100
AcDbSymbolTableRecord
100
AcDbDimStyleTableRecord
  2
Standard
 70
     0
178
     0
340
11
  0
ENDTAB
  0
TABLE
  2
BLOCK_RECORD
  5
1
330
0
100
AcDbSymbolTable
 70
     3
  0
BLOCK_RECORD
  5
1F
330
1
100
AcDbSymbolTableRecord
100
AcDbBlockTableRecord
  2
*Model_Space
340
22
  0
BLOCK_RECORD
  5
1B
330
1
100
AcDbSymbolTableRecord
100
AcDbBlockTableRecord
  2
*Paper_Space
340
1E
  0
BLOCK_RECORD
  5
E3
330
1
100
AcDbSymbolTableRecord
100
AcDbBlockTableRecord
  2
Drawing_1_2
340
0
102
{BLKREFS
331
20D
102
}
  0
BLOCK_RECORD
  5
211
330
1
100
AcDbSymbolTableRecord
100
AcDbBlockTableRecord
  2
R-TRS9-16 PIPE PENETRATION DETA_STORY_MARKER
340
0
  0
ENDTAB
  0
ENDSEC
  0
SECTION
  2
BLOCKS
  0
BLOCK
  5
20
330
1F
100
AcDbEntity
  8
0
100
AcDbBlockBegin
  2
*Model_Space
 70
     0
 10
0.0
 20
0.0
 30
0.0
  3
*Model_Space
  1

  0
ENDBLK
  5
21
330
1F
100
AcDbEntity
  8
0
100
AcDbBlockEnd
  0
BLOCK
  5
1C
330
1B
100
AcDbEntity
 67
     1
  8
0
100
AcDbBlockBegin
  2
*Paper_Space
 70
     0
 10
0.0
 20
0.0
 30
0.0
  3
*Paper_Space
  1

  0
ENDBLK
  5
1D
330
1B
100
AcDbEntity
 67
     1
  8
0
100
AcDbBlockEnd
  0
BLOCK
  5
E4
330
E3
100
AcDbEntity
  8
0
100
AcDbBlockBegin
  2
Drawing_1_2
 70
     0
 10
141.8946852868089
 20
118.9470158502411
 30
0.0
  3
Drawing_1_2
  1

  0
LINE
  5
E6
330
E3
100
AcDbEntity
  8
0
  6
Continuous
100
AcDbLine
 10
219.3700314592042
 20
101.0386430628966
 30
0.0
 11
82.93292757575338
 21
101.0386430628966
 31
0.0
  0
LINE
  5
E7
330
E3
100
AcDbEntity
  8
0
  6
Continuous
100
AcDbLine
 10
225.4410031697599
 20
83.03864398845019
 30
0.0
 11
80.57680244321853
 21
83.03864398845019
 31
0.0
  0
HATCH
  5
E8
330
E3
100
AcDbEntity
  8
0
  6
Continuous
 62
   255
370
     0
100
AcDbHatch
 10
0.0
 20
0.0
 30
0.0
210
0.0
220
0.0
230
1.0
  2
SOLID
 70
     1
 71
     0
 91
        1
 92
        3
 72
     0
 73
     1
 93
        4
 10
131.0590484500991
 20
101.0386437587714
 10
131.0590484500991
 20
110.0386437587714
 10
69.29093539856618
 20
110.0386437587714
 10
69.29093539856618
 20
101.0386437587714
 97
        0
 75
     0
 76
     1
 98
        0
  0
LINE
  5
E9
330
E3
100
AcDbEntity
  8
0
  6
Continuous
100
AcDbLine
 10
131.0590491500925
 20
110.0386426001199
 30
0.0
 11
131.0590491500925
 21
101.0386430628966
 31
0.0
  0
LINE
  5
EA
330
E3
100
AcDbEntity
  8
0
  6
Continuous
100
AcDbLine
 10
69.29093696972913
 20
110.0386426001199
 30
0.0
 11
131.0590491500925
 21
110.0386426001199
 31
0.0
  0
LINE
  5
EB
330
E3
100
AcDbEntity
  8
0
  6
Continuous
100
AcDbLine
 10
69.29093696972913
 20
101.0386430628966
 30
0.0
 11
69.29093696972913
 21
110.0386426001199
 31
0.0
  0
LINE
  5
EC
330
E3
100
AcDbEntity
  8
0
  6
Continuous
100
AcDbLine
 10
131.0590491500925
 20
101.0386430628966
 30
0.0
 11
69.29093696972913
 21
101.0386430628966
 31
0.0
  0
HATCH
  5
ED
330
E3
100
AcDbEntity
  8
0
  6
Continuous
 62
   255
370
     0
100
AcDbHatch
 10
0.0
 20
0.0
 30
0.0
210
0.0
220
0.0
230
1.0
  2
SOLID
 70
     1
 71
     0
 91
        1
 92
        3
 72
     0
 73
     1
 93
        4
 10
214.75154645503
 20
101.0386437587714
 10
214.75154645503
 20
110.0386437587714
 10
152.983433403497
 20
110.0386437587714
 10
152.983433403497
 20
101.0386437587714
 97
        0
 75
     0
 76
     1
 98
        0
  0
LINE
  5
EE
330
E3
100
AcDbEntity
  8
0
  6
Continuous
100
AcDbLine
 10
214.7515468622412
 20
110.0386426001199
 30
0.0
 11
214.7515468622412
 21
101.0386430628966
 31
0.0
  0
LINE
  5
EF
330
E3
100
AcDbEntity
  8
0
  6
Continuous
100
AcDbLine
 10
152.9834346818778
 20
110.0386426001199
 30
0.0
 11
214.7515468622412
 21
110.0386426001199
 31
0.0
  0
LINE
  5
F0
330
E3
100
AcDbEntity
  8
0
  6
Continuous
100
AcDbLine
 10
152.9834346818778
 20
101.0386430628966
 30
0.0
 11
152.9834346818778
 21
110.0386426001199
 31
0.0
  0
LINE
  5
F1
330
E3
100
AcDbEntity
  8
0
  6
Continuous
100
AcDbLine
 10
214.7515468622412
 20
101.0386430628966
 30
0.0
 11
152.9834346818778
 21
101.0386430628966
 31
0.0
  0
LINE
  5
F3
330
E3
100
AcDbEntity
  8
0
  6
Dashed
100
AcDbLine
 10
211.6961625750477
 20
131.6789954893637
 30
0.0
 11
209.0294891260899
 21
131.208789321287
 31
0.0
  0
LINE
  5
F4
330
E3
100
AcDbEntity
  8
0
  6
Dashed
100
AcDbLine
 10
224.8019514089787
 20
110.7342353323332
 30
0.0
 11
79.09862701949916
 21
110.7342353323332
 31
0.0
  0
LWPOLYLINE
  5
F5
330
E3
100
AcDbEntity
  8
0
  6
Continuous
100
AcDbPolyline
 90
        4
 70
   128
 43
0.0
 10
87.55632344102219
 20
113.1429980637274
 10
91.49417053372756
 20
118.625270491048
 10
192.1396271136669
 20
118.625270491048
 10
195.81822464271
 20
113.415792666058
  0
LWPOLYLINE
  5
F6
330
E3
100
AcDbEntity
  8
0
  6
Continuous
100
AcDbPolyline
 90
       18
 70
   129
 43
0.0
 10
131.5292270756827
 20
145.9574998570311
 10
152.4771555707545
 20
146.00942797118
 10
152.4807406668599
 20
144.4774030176808
 10
152.9151535898503
 20
144.4774030176808
 10
157.0762189659783
 20
134.3830952357565
 10
158.7755035948643
 20
133.642003463793
 10
157.7163570000666
 20
132.734163525395
 10
164.5773643745055
 20
119.8890623122009
 10
168.027156140418
 20
119.8164351171292
 10
168.8622661231031
 20
118.625270491048
 10
117.2595312515048
 20
118.625270491048
 10
117.6720040583496
 20
119.5804834514612
 10
120.5668366322894
 20
119.839890307933
 10
126.0434001151775
 20
132.9971015862529
 10
124.702053578677
 20
133.9439344355475
 10
126.4379138023836
 20
134.4173508601947
 10
131.0229093464035
 20
144.115391052887
 10
131.6190181248014
 20
144.1095497289059
  0
LWPOLYLINE
  5
F7
330
E3
100
AcDbEntity
  8
0
  6
Continuous
100
AcDbPolyline
 90
       32
 70
   128
 43
0.0
 10
62.81792721866414
 20
111.1970491748224
 10
68.0179272186641
 20
118.3970491748223
 10
71.61792721866422
 20
118.3970491748223
 10
76.81792721866421
 20
111.1970491748224
 10
86.81792721866415
 20
111.1970491748224
 10
92.01792721866411
 20
118.3970491748223
 10
95.61792721866425
 20
118.3970491748223
 10
100.8179272186642
 20
111.1970491748224
 10
110.8179272186642
 20
111.1970491748224
 10
116.0179272186641
 20
118.3970491748223
 10
119.6179272186643
 20
118.3970491748223
 10
124.8179272186643
 20
111.1970491748224
 10
134.8179272186642
 20
111.1970491748224
 10
140.0179272186642
 20
118.3970491748223
 10
143.6179272186643
 20
118.3970491748223
 10
148.8179272186643
 20
111.1970491748224
 10
158.8179272186642
 20
111.1970491748224
 10
164.0179272186642
 20
118.3970491748223
 10
167.6179272186643
 20
118.3970491748223
 10
172.8179272186643
 20
111.1970491748224
 10
182.8179272186642
 20
111.1970491748224
 10
188.0179272186642
 20
118.3970491748223
 10
191.6179272186643
 20
118.3970491748223
 10
196.8179272186643
 20
111.1970491748224
 10
206.8179272186643
 20
111.1970491748224
 10
212.0179272186642
 20
118.3970491748223
 10
215.6179272186644
 20
118.3970491748223
 10
220.8179272186643
 20
111.1970491748224
 10
230.8179272186643
 20
111.1970491748224
 10
236.0179272186643
 20
118.3970491748223
 10
239.6179272186644
 20
118.3970491748223
 10
244.8179272186644
 20
111.1970491748224
  0
MTEXT
  5
F8
330
E3
100
AcDbEntity
  8
Doc_ Floor
  6
Continuous
100
AcDbMText
 10
178.3157200107017
 20
61.89916828442764
 30
0.0
 40
2.5
 41
0.0
 71
     4
 72
     1
  1
{UNDERLAY}
  7
GENERATED_STYLE_1
 73
     1
 44
1.0
  0
LINE
  5
F9
330
E3
100
AcDbEntity
  8
Doc_ Floor
  6
Continuous
100
AcDbLine
 10
162.4768065723103
 20
110.5683222103562
 30
0.0
 11
163.2313723250574
 21
106.779019566698
 31
0.0
  0
LINE
  5
FA
330
E3
100
AcDbEntity
  8
Doc_ Floor
  6
Continuous
100
AcDbLine
 10
162.4768065723103
 20
110.5683222103562
 30
0.0
 11
161.2356274944471
 21
106.9094060893841
 31
0.0
  0
LINE
  5
FB
330
E3
100
AcDbEntity
  8
Doc_ Floor
  6
Continuous
100
AcDbLine
 10
163.2313723250574
 20
106.779019566698
 30
0.0
 11
161.2356274944471
 21
106.9094060893841
 31
0.0
  0
LWPOLYLINE
  5
FC
330
E3
100
AcDbEntity
  8
Doc_ Floor
  6
Continuous
100
AcDbPolyline
 90
       17
 70
   128
 43
0.0
 10
162.2334992751514
 20
106.844212539558
 10
161.922867466264
 20
100.8074914557182
 10
161.7565388440132
 20
95.27624670127784
 10
161.7393990285444
 20
90.2344708991878
 10
161.8763336400028
 20
85.66615667239898
 10
162.1722282985336
 20
81.5552966438622
 10
162.6319686242821
 20
77.88588343652842
 10
163.2604402373937
 20
74.64190967334844
 10
164.0625287580135
 20
71.80736797727316
 10
165.0431198062869
 20
69.36625097125346
 10
166.2070990023591
 20
67.30255127824023
 10
167.5593519663753
 20
65.60026152118431
 10
169.1047643184809
 20
64.24337432303659
 10
170.848221678821
 20
63.21588230674796
 10
172.794609667541
 20
62.50177809526927
 10
174.9488139047862
 20
62.08505431155144
 10
177.3157200107017
 20
61.94970357854529
  0
MTEXT
  5
FD
330
E3
100
AcDbEntity
  8
Doc_ Floor
  6
Continuous
100
AcDbMText
 10
98.36462505066059
 20
142.9758213823307
 30
0.0
 40
2.5
 41
39.91102550062589
 71
     6
 72
     1
  1
{COWL FLASHING ALL THE WAY TO RIDGE}
  7
GENERATED_STYLE_1
 73
     1
 44
1.070162922071087
  0
LINE
  5
FE
330
E3
100
AcDbEntity
  8
Doc_ Floor
  6
Continuous
100
AcDbLine
 10
113.0509098838656
 20
118.6252705213857
 30
0.0
 11
111.2481876827764
 21
122.0426364597065
 31
0.0
  0
LINE
  5
FF
330
E3
100
AcDbEntity
  8
Doc_ Floor
  6
Continuous
100
AcDbLine
 10
113.0509098838656
 20
118.6252705213857
 30
0.0
 11
113.1983908092906
 21
122.486156810549
 31
0.0
  0
LINE
  5
100
330
E3
100
AcDbEntity
  8
Doc_ Floor
  6
Continuous
100
AcDbLine
 10
111.2481876827764
 20
122.0426364597065
 30
0.0
 11
113.1983908092906
 21
122.486156810549
 31
0.0
  0
LWPOLYLINE
  5
101
330
E3
100
AcDbEntity
  8
Doc_ Floor
  6
Continuous
100
AcDbPolyline
 90
       14
 70
   128
 43
0.0
 10
112.2232905311208
 20
122.2643969468714
 10
110.8581324315169
 20
127.5927018787891
 10
109.4883773489031
 20
132.0239823468625
 10
108.0817273340052
 20
135.615747058499
 10
107.3544736178016
 20
137.1147824767183
 10
106.6058844375492
 20
138.4255047211062
 10
105.8319225495888
 20
139.5551023800885
 10
105.0285507102609
 20
140.5107640420913
 10
104.1917316759065
 20
141.2996782955405
 10
103.3174282028662
 20
141.929033728862
 10
102.4016030474807
 20
142.4060189304817
 10
101.4402189660908
 20
142.7378224888255
 10
100.4292387150372
 20
142.9316329923195
 10
99.36462505066059
 20
142.9946390293895
  0
HATCH
  5
102
330
E3
100
AcDbEntity
  8
Doc_ Finishes
  6
Continuous
 62
   255
370
    18
100
AcDbHatch
 10
0.0
 20
0.0
 30
0.0
210
0.0
220
0.0
230
1.0
  2
SOLID
 70
     1
 71
     0
 91
        1
 92
        3
 72
     0
 73
     1
 93
        4
 10
132.1487639137487
 20
157.4061927570924
 10
132.1487639137487
 20
75.9490871301674
 10
152.1487639137487
 20
75.9490871301674
 10
152.1487639137487
 20
157.4061927570924
 97
        0
 75
     0
 76
     1
 98
        0
  0
LINE
  5
103
330
E3
100
AcDbEntity
  8
Doc_ Finishes
  6
Continuous
 62
   254
370
    25
100
AcDbLine
 10
132.148763946389
 20
157.406191712561
 30
0.0
 11
132.148763946389
 21
75.94908741149567
 31
0.0
  0
LINE
  5
104
330
E3
100
AcDbEntity
  8
Doc_ Finishes
  6
Continuous
 62
   254
370
    25
100
AcDbLine
 10
132.148763946389
 20
75.94908741149567
 30
0.0
 11
152.1487647714096
 21
75.94908741149567
 31
0.0
  0
LINE
  5
105
330
E3
100
AcDbEntity
  8
Doc_ Finishes
  6
Continuous
 62
   254
370
    25
100
AcDbLine
 10
152.1487647714096
 20
75.94908741149567
 30
0.0
 11
152.1487647714096
 21
157.406191712561
 31
0.0
  0
LINE
  5
106
330
E3
100
AcDbEntity
  8
Doc_ Finishes
  6
Continuous
 62
   254
370
    25
100
AcDbLine
 10
152.1487647714096
 20
157.406191712561
 30
0.0
 11
132.148763946389
 21
157.406191712561
 31
0.0
  0
HATCH
  5
107
330
E3
100
AcDbEntity
  8
0
  6
Continuous
 62
   255
370
     0
100
AcDbHatch
 10
0.0
 20
0.0
 30
0.0
210
0.0
220
0.0
230
1.0
  2
SOLID
 70
     1
 71
     0
 91
        1
 92
        3
 72
     0
 73
     1
 93
       39
 10
132.1487639137487
 20
175.1213305438508
 10
132.1487639137487
 20
157.4061927570924
 10
132.1868169328313
 20
157.8556273123679
 10
132.3006863836266
 20
158.2914060261062
 10
132.489505650858
 20
158.700287982605
 10
132.7518377058896
 20
159.0698495105204
 10
133.0856860433822
 20
159.3888616698339
 10
133.4885098759044
 20
159.6476314375126
 10
133.9572434708588
 20
159.8382962251094
 10
134.4883194825589
 20
159.9550627795342
 10
135.0776961018832
 20
159.9943832081176
 10
135.7208878168834
 20
159.9550627795342
 10
136.4129995502383
 20
159.8382962251094
 10
137.1487639137487
 20
159.6476314375126
 10
137.9225812963417
 20
159.3888616698339
 10
138.728562480492
 20
159.0698495105204
 10
139.5605734627235
 20
158.700287982605
 10
140.4122821370794
 20
158.2914060261062
 10
141.2772064862721
 20
157.8556273123679
 10
142.1487639137487
 20
157.4061927570924
 10
143.0203213412253
 20
156.956758201817
 10
143.885245690418
 20
156.5209794880787
 10
144.7369543647739
 20
156.1120975315798
 10
145.5689653470054
 20
155.7425360036644
 10
146.3749465311557
 20
155.423523844351
 10
147.1487639137487
 20
155.1647540766723
 10
147.8845282772592
 20
154.9740892890755
 10
148.5766400106141
 20
154.8573227346506
 10
149.2198317256142
 20
154.8180023060672
 10
149.8092083449385
 20
154.8573227346506
 10
150.3402843566386
 20
154.9740892890755
 10
150.8090179515931
 20
155.1647540766723
 10
151.2118417841152
 20
155.423523844351
 10
151.5456901216078
 20
155.7425360036644
 10
151.8080221766394
 20
156.1120975315798
 10
151.9968414438708
 20
156.5209794880787
 10
152.1107108946662
 20
156.956758201817
 10
152.1487639137487
 20
157.4061927570924
 10
152.1487639137487
 20
175.1213305438508
 97
        0
 75
     0
 76
     1
 98
        0
  0
HATCH
  5
108
330
E3
100
AcDbEntity
  8
0
  6
Continuous
 62
   255
370
    18
100
AcDbHatch
 10
0.0
 20
0.0
 30
0.0
210
0.0
220
0.0
230
1.0
  2
SOLID
 70
     1
 71
     0
 91
        1
 92
        3
 72
     0
 73
     1
 93
       36
 10
142.1487639137487
 20
157.4061927570924
 10
143.0203213412253
 20
156.956758201817
 10
143.885245690418
 20
156.5209794880787
 10
144.7369543647739
 20
156.1120975315798
 10
145.5689653470054
 20
155.7425360036644
 10
146.3749465311557
 20
155.423523844351
 10
147.1487639137487
 20
155.1647540766723
 10
147.8845282772592
 20
154.9740892890755
 10
148.5766400106141
 20
154.8573227346506
 10
149.2198317256142
 20
154.8180023060672
 10
149.8092083449385
 20
154.8573227346506
 10
150.3402843566386
 20
154.9740892890755
 10
150.8090179515931
 20
155.1647540766723
 10
151.2118417841152
 20
155.423523844351
 10
151.5456901216078
 20
155.7425360036644
 10
151.8080221766394
 20
156.1120975315798
 10
151.9968414438708
 20
156.5209794880787
 10
152.1107108946662
 20
156.956758201817
 10
152.1487639137487
 20
157.4061927570924
 10
152.1107108946662
 20
157.8556273123679
 10
151.9968414438708
 20
158.2914060261062
 10
151.8080221766394
 20
158.700287982605
 10
151.5456901216078
 20
159.0698495105204
 10
151.2118417841152
 20
159.3888616698339
 10
150.8090179515931
 20
159.6476314375126
 10
150.3402843566386
 20
159.8382962251094
 10
149.8092083449385
 20
159.9550627795342
 10
149.2198317256142
 20
159.9943832081176
 10
148.5766400106141
 20
159.9550627795342
 10
147.8845282772592
 20
159.8382962251094
 10
147.1487639137487
 20
159.6476314375126
 10
146.3749465311557
 20
159.3888616698339
 10
145.5689653470054
 20
159.0698495105204
 10
144.7369543647739
 20
158.700287982605
 10
143.885245690418
 20
158.2914060261062
 10
143.0203213412253
 20
157.8556273123679
 97
        0
 75
     0
 76
     1
 98
        0
  0
LINE
  5
109
330
E3
100
AcDbEntity
  8
0
  6
Continuous
100
AcDbLine
 10
142.1487626908272
 20
157.406191712561
 30
0.0
 11
143.0203203474086
 21
156.9567597142451
 31
0.0
  0
LINE
  5
10A
330
E3
100
AcDbEntity
  8
0
  6
Continuous
100
AcDbLine
 10
143.0203203474086
 20
156.9567597142451
 30
0.0
 11
143.8852457493754
 21
156.5209792178824
 31
0.0
  0
LINE
  5
10B
330
E3
100
AcDbEntity
  8
0
  6
Continuous
100
AcDbLine
 10
143.8852457493754
 20
156.5209792178824
 30
0.0
 11
144.7369533481316
 21
156.1120980519809
 31
0.0
  0
LINE
  5
10C
330
E3
100
AcDbEntity
  8
0
  6
Continuous
100
AcDbLine
 10
144.7369533481316
 20
156.1120980519809
 30
0.0
 11
145.5689643516945
 21
155.7425366812941
 31
0.0
  0
LINE
  5
10D
330
E3
100
AcDbEntity
  8
0
  6
Continuous
100
AcDbLine
 10
145.5689643516945
 20
155.7425366812941
 30
0.0
 11
146.3749467584251
 21
155.4235245671061
 31
0.0
  0
LINE
  5
10E
330
E3
100
AcDbEntity
  8
0
  6
Continuous
100
AcDbLine
 10
146.3749467584251
 20
155.4235245671061
 30
0.0
 11
147.1487653991905
 21
155.1647532082373
 31
0.0
  0
LINE
  5
10F
330
E3
100
AcDbEntity
  8
0
  6
Continuous
100
AcDbLine
 10
147.1487653991905
 20
155.1647532082373
 30
0.0
 11
147.8845286433825
 21
154.9740892326461
 31
0.0
  0
LINE
  5
110
330
E3
100
AcDbEntity
  8
0
  6
Continuous
100
AcDbLine
 10
147.8845286433825
 20
154.9740892326461
 30
0.0
 11
148.5766384410799
 21
154.8573241866155
 31
0.0
  0
LINE
  5
111
330
E3
100
AcDbEntity
  8
0
  6
Continuous
100
AcDbLine
 10
148.5766384410799
 20
154.8573241866155
 30
0.0
 11
149.2198303567789
 21
154.8180010552566
 31
0.0
  0
LINE
  5
112
330
E3
100
AcDbEntity
  8
0
  6
Continuous
100
AcDbLine
 10
149.2198303567789
 20
154.8180010552566
 30
0.0
 11
149.8092069308344
 21
154.8573241866155
 31
0.0
  0
LINE
  5
113
330
E3
100
AcDbEntity
  8
0
  6
Continuous
100
AcDbLine
 10
149.8092069308344
 20
154.8573241866155
 30
0.0
 11
150.340284385479
 21
154.9740892326461
 31
0.0
  0
LINE
  5
114
330
E3
100
AcDbEntity
  8
0
  6
Continuous
100
AcDbLine
 10
150.340284385479
 20
154.9740892326461
 30
0.0
 11
150.8090193139757
 21
155.1647532082373
 31
0.0
  0
LINE
  5
115
330
E3
100
AcDbEntity
  8
0
  6
Continuous
100
AcDbLine
 10
150.8090193139757
 20
155.1647532082373
 30
0.0
 11
151.2118420420603
 21
155.4235245671061
 31
0.0
  0
LINE
  5
116
330
E3
100
AcDbEntity
  8
0
  6
Continuous
100
AcDbLine
 10
151.2118420420603
 20
155.4235245671061
 30
0.0
 11
151.5456899893826
 21
155.7425366812941
 31
0.0
  0
LINE
  5
117
330
E3
100
AcDbEntity
  8
0
  6
Continuous
100
AcDbLine
 10
151.5456899893826
 20
155.7425366812941
 30
0.0
 11
151.8080210140832
 21
156.1120980519809
 31
0.0
  0
LINE
  5
118
330
E3
100
AcDbEntity
  8
0
  6
Continuous
100
AcDbLine
 10
151.8080210140832
 20
156.1120980519809
 30
0.0
 11
151.9968401019472
 21
156.5209792178824
 31
0.0
  0
LINE
  5
119
330
E3
100
AcDbEntity
  8
0
  6
Continuous
100
AcDbLine
 10
151.9968401019472
 20
156.5209792178824
 30
0.0
 11
152.1107093748362
 21
156.9567597142451
 31
0.0
  0
LINE
  5
11A
330
E3
100
AcDbEntity
  8
0
  6
Continuous
100
AcDbLine
 10
152.1107093748362
 20
156.9567597142451
 30
0.0
 11
152.1487647714096
 21
157.406191712561
 31
0.0
  0
LINE
  5
11B
330
E3
100
AcDbEntity
  8
0
  6
Continuous
100
AcDbLine
 10
152.1487647714096
 20
157.406191712561
 30
0.0
 11
152.1107093748362
 21
157.855627047021
 31
0.0
  0
LINE
  5
11C
330
E3
100
AcDbEntity
  8
0
  6
Continuous
100
AcDbLine
 10
152.1107093748362
 20
157.855627047021
 30
0.0
 11
151.9968401019472
 21
158.2914075433837
 31
0.0
  0
LINE
  5
11D
330
E3
100
AcDbEntity
  8
0
  6
Continuous
100
AcDbLine
 10
151.9968401019472
 20
158.2914075433837
 30
0.0
 11
151.8080210140832
 21
158.7002887092852
 31
0.0
  0
LINE
  5
11E
330
E3
100
AcDbEntity
  8
0
  6
Continuous
100
AcDbLine
 10
151.8080210140832
 20
158.7002887092852
 30
0.0
 11
151.5456899893826
 21
159.069850079972
 31
0.0
  0
LINE
  5
11F
330
E3
100
AcDbEntity
  8
0
  6
Continuous
100
AcDbLine
 10
151.5456899893826
 20
159.069850079972
 30
0.0
 11
151.2118420420603
 21
159.38886219416
 31
0.0
  0
LINE
  5
120
330
E3
100
AcDbEntity
  8
0
  6
Continuous
100
AcDbLine
 10
151.2118420420603
 20
159.38886219416
 30
0.0
 11
150.8090193139757
 21
159.6476302168846
 31
0.0
  0
LINE
  5
121
330
E3
100
AcDbEntity
  8
0
  6
Continuous
100
AcDbLine
 10
150.8090193139757
 20
159.6476302168846
 30
0.0
 11
150.340284385479
 21
159.83829752862
 31
0.0
  0
LINE
  5
122
330
E3
100
AcDbEntity
  8
0
  6
Continuous
100
AcDbLine
 10
150.340284385479
 20
159.83829752862
 30
0.0
 11
149.8092069308344
 21
159.9550625746506
 31
0.0
  0
LINE
  5
123
330
E3
100
AcDbEntity
  8
0
  6
Continuous
100
AcDbLine
 10
149.8092069308344
 20
159.9550625746506
 30
0.0
 11
149.2198303567789
 21
159.9943823698653
 31
0.0
  0
LINE
  5
124
330
E3
100
AcDbEntity
  8
0
  6
Continuous
100
AcDbLine
 10
149.2198303567789
 20
159.9943823698653
 30
0.0
 11
148.5766384410799
 21
159.9550625746506
 31
0.0
  0
LINE
  5
125
330
E3
100
AcDbEntity
  8
0
  6
Continuous
100
AcDbLine
 10
148.5766384410799
 20
159.9550625746506
 30
0.0
 11
147.8845286433825
 21
159.83829752862
 31
0.0
  0
LINE
  5
126
330
E3
100
AcDbEntity
  8
0
  6
Continuous
100
AcDbLine
 10
147.8845286433825
 20
159.83829752862
 30
0.0
 11
147.1487653991905
 21
159.6476302168846
 31
0.0
  0
LINE
  5
127
330
E3
100
AcDbEntity
  8
0
  6
Continuous
100
AcDbLine
 10
147.1487653991905
 20
159.6476302168846
 30
0.0
 11
146.3749467584251
 21
159.38886219416
 31
0.0
  0
LINE
  5
128
330
E3
100
AcDbEntity
  8
0
  6
Continuous
100
AcDbLine
 10
146.3749467584251
 20
159.38886219416
 30
0.0
 11
145.5689643516945
 21
159.069850079972
 31
0.0
  0
LINE
  5
129
330
E3
100
AcDbEntity
  8
0
  6
Continuous
100
AcDbLine
 10
145.5689643516945
 20
159.069850079972
 30
0.0
 11
144.7369533481316
 21
158.7002887092852
 31
0.0
  0
LINE
  5
12A
330
E3
100
AcDbEntity
  8
0
  6
Continuous
100
AcDbLine
 10
144.7369533481316
 20
158.7002887092852
 30
0.0
 11
143.8852457493754
 21
158.2914075433837
 31
0.0
  0
LINE
  5
12B
330
E3
100
AcDbEntity
  8
0
  6
Continuous
100
AcDbLine
 10
143.8852457493754
 20
158.2914075433837
 30
0.0
 11
143.0203203474086
 21
157.855627047021
 31
0.0
  0
LINE
  5
12C
330
E3
100
AcDbEntity
  8
0
  6
Continuous
100
AcDbLine
 10
143.0203203474086
 20
157.855627047021
 30
0.0
 11
142.1487626908272
 21
157.406191712561
 31
0.0
  0
HATCH
  5
12D
330
E3
100
AcDbEntity
  8
0
  6
Continuous
 62
   255
370
    18
100
AcDbHatch
 10
0.0
 20
0.0
 30
0.0
210
0.0
220
0.0
230
1.0
  2
SOLID
 70
     1
 71
     0
 91
        1
 92
        3
 72
     0
 73
     1
 93
       36
 10
142.1487639137487
 20
157.4061927570924
 10
142.9331655984776
 20
157.0017016573445
 10
143.7115975127511
 20
156.60950081498
 10
144.4781353196714
 20
156.2415070541311
 10
145.2269452036797
 20
155.9089016790072
 10
145.952328269415
 20
155.6217907356251
 10
146.6487639137487
 20
155.3888979447143
 10
147.3109518409081
 20
155.2172996358772
 10
147.9338524009276
 20
155.1122097368948
 10
148.5127249444276
 20
155.0768213511697
 10
149.0431639018196
 20
155.1122097368948
 10
149.5211323123496
 20
155.2172996358772
 10
149.9429925478087
 20
155.3888979447143
 10
150.3055339970786
 20
155.6217907356251
 10
150.6059975008219
 20
155.9089016790072
 10
150.8420963503503
 20
156.2415070541311
 10
151.0120336908586
 20
156.60950081498
 10
151.1145161965744
 20
157.0017016573445
 10
151.1487639137487
 20
157.4061927570924
 10
151.1145161965744
 20
157.8106838568403
 10
151.0120336908586
 20
158.2028846992048
 10
150.8420963503503
 20
158.5708784600538
 10
150.6059975008219
 20
158.9034838351776
 10
150.3055339970786
 20
159.1905947785597
 10
149.9429925478087
 20
159.4234875694706
 10
149.5211323123496
 20
159.5950858783077
 10
149.0431639018196
 20
159.70017577729
 10
148.5127249444276
 20
159.7355641630151
 10
147.9338524009276
 20
159.70017577729
 10
147.3109518409081
 20
159.5950858783077
 10
146.6487639137487
 20
159.4234875694706
 10
145.952328269415
 20
159.1905947785597
 10
145.2269452036797
 20
158.9034838351776
 10
144.4781353196714
 20
158.5708784600538
 10
143.7115975127511
 20
158.2028846992048
 10
142.9331655984776
 20
157.8106838568403
 97
        0
 75
     0
 76
     1
 98
        0
  0
LINE
  5
12E
330
E3
100
AcDbEntity
  8
0
  6
Continuous
100
AcDbLine
 10
142.1487626908272
 20
157.406191712561
 30
0.0
 11
142.9331669170514
 21
157.0017009123902
 31
0.0
  0
LINE
  5
12F
330
E3
100
AcDbEntity
  8
0
  6
Continuous
100
AcDbLine
 10
142.9331669170514
 20
157.0017009123902
 30
0.0
 11
143.7115961090629
 21
156.6095004673502
 31
0.0
  0
LINE
  5
130
330
E3
100
AcDbEntity
  8
0
  6
Continuous
100
AcDbLine
 10
143.7115961090629
 20
156.6095004673502
 30
0.0
 11
144.4781352832444
 21
156.2415070844245
 31
0.0
  0
LINE
  5
131
330
E3
100
AcDbEntity
  8
0
  6
Continuous
100
AcDbLine
 10
144.4781352832444
 20
156.2415070844245
 30
0.0
 11
145.2269461872943
 21
155.9089001827343
 31
0.0
  0
LINE
  5
132
330
E3
100
AcDbEntity
  8
0
  6
Continuous
100
AcDbLine
 10
145.2269461872943
 20
155.9089001827343
 30
0.0
 11
145.952327350822
 21
155.621791615266
 31
0.0
  0
LINE
  5
133
330
E3
100
AcDbEntity
  8
0
  6
Continuous
100
AcDbLine
 10
145.952327350822
 20
155.621791615266
 30
0.0
 11
146.6487641275109
 21
155.3888987267418
 31
0.0
  0
LINE
  5
134
330
E3
100
AcDbEntity
  8
0
  6
Continuous
100
AcDbLine
 10
146.6487641275109
 20
155.3888987267418
 30
0.0
 11
147.3109520481269
 21
155.2173008150953
 31
0.0
  0
LINE
  5
135
330
E3
100
AcDbEntity
  8
0
  6
Continuous
100
AcDbLine
 10
147.3109520481269
 20
155.2173008150953
 30
0.0
 11
147.93385353497
 21
155.1122089375236
 31
0.0
  0
LINE
  5
136
330
E3
100
AcDbEntity
  8
0
  6
Continuous
100
AcDbLine
 10
147.93385353497
 20
155.1122089375236
 30
0.0
 11
148.5127245910269
 21
155.0768224562879
 31
0.0
  0
LINE
  5
137
330
E3
100
AcDbEntity
  8
0
  6
Continuous
100
AcDbLine
 10
148.5127245910269
 20
155.0768224562879
 30
0.0
 11
149.0431648421346
 21
155.1122089375236
 31
0.0
  0
LINE
  5
138
330
E3
100
AcDbEntity
  8
0
  6
Continuous
100
AcDbLine
 10
149.0431648421346
 20
155.1122089375236
 30
0.0
 11
149.5211308815561
 21
155.2173008150953
 31
0.0
  0
LINE
  5
139
330
E3
100
AcDbEntity
  8
0
  6
Continuous
100
AcDbLine
 10
149.5211308815561
 20
155.2173008150953
 30
0.0
 11
149.942992984432
 21
155.3888987267418
 31
0.0
  0
LINE
  5
13A
330
E3
100
AcDbEntity
  8
0
  6
Continuous
100
AcDbLine
 10
149.942992984432
 20
155.3888987267418
 30
0.0
 11
150.3055351077803
 21
155.621791615266
 31
0.0
  0
LINE
  5
13B
330
E3
100
AcDbEntity
  8
0
  6
Continuous
100
AcDbLine
 10
150.3055351077803
 20
155.621791615266
 30
0.0
 11
150.6059982603703
 21
155.9089001827343
 31
0.0
  0
LINE
  5
13C
330
E3
100
AcDbEntity
  8
0
  6
Continuous
100
AcDbLine
 10
150.6059982603703
 20
155.9089001827343
 30
0.0
 11
150.8420971834441
 21
156.2415070844245
 31
0.0
  0
LINE
  5
13D
330
E3
100
AcDbEntity
  8
0
  6
Continuous
100
AcDbLine
 10
150.8420971834441
 20
156.2415070844245
 30
0.0
 11
151.0120336952928
 21
156.6095004673502
 31
0.0
  0
LINE
  5
13E
330
E3
100
AcDbEntity
  8
0
  6
Continuous
100
AcDbLine
 10
151.0120336952928
 20
156.6095004673502
 30
0.0
 11
151.1145167081218
 21
157.0017009123902
 31
0.0
  0
LINE
  5
13F
330
E3
100
AcDbEntity
  8
0
  6
Continuous
100
AcDbLine
 10
151.1145167081218
 20
157.0017009123902
 30
0.0
 11
151.1487655641947
 21
157.406191712561
 31
0.0
  0
LINE
  5
140
330
E3
100
AcDbEntity
  8
0
  6
Continuous
100
AcDbLine
 10
151.1487655641947
 20
157.406191712561
 30
0.0
 11
151.1145167081218
 21
157.8106825127317
 31
0.0
  0
LINE
  5
141
330
E3
100
AcDbEntity
  8
0
  6
Continuous
100
AcDbLine
 10
151.1145167081218
 20
157.8106825127317
 30
0.0
 11
151.0120336952928
 21
158.2028862939159
 31
0.0
  0
LINE
  5
142
330
E3
100
AcDbEntity
  8
0
  6
Continuous
100
AcDbLine
 10
151.0120336952928
 20
158.2028862939159
 30
0.0
 11
150.8420971834441
 21
158.5708796768416
 31
0.0
  0
LINE
  5
143
330
E3
100
AcDbEntity
  8
0
  6
Continuous
100
AcDbLine
 10
150.8420971834441
 20
158.5708796768416
 30
0.0
 11
150.6059982603703
 21
158.9034832423876
 31
0.0
  0
LINE
  5
144
330
E3
100
AcDbEntity
  8
0
  6
Continuous
100
AcDbLine
 10
150.6059982603703
 20
158.9034832423876
 30
0.0
 11
150.3055351077803
 21
159.1905951460001
 31
0.0
  0
LINE
  5
145
330
E3
100
AcDbEntity
  8
0
  6
Continuous
100
AcDbLine
 10
150.3055351077803
 20
159.1905951460001
 30
0.0
 11
149.942992984432
 21
159.4234880345243
 31
0.0
  0
LINE
  5
146
330
E3
100
AcDbEntity
  8
0
  6
Continuous
100
AcDbLine
 10
149.942992984432
 20
159.4234880345243
 30
0.0
 11
149.5211308815561
 21
159.5950859461708
 31
0.0
  0
LINE
  5
147
330
E3
100
AcDbEntity
  8
0
  6
Continuous
100
AcDbLine
 10
149.5211308815561
 20
159.5950859461708
 30
0.0
 11
149.0431648421346
 21
159.7001744875984
 31
0.0
  0
LINE
  5
148
330
E3
100
AcDbEntity
  8
0
  6
Continuous
100
AcDbLine
 10
149.0431648421346
 20
159.7001744875984
 30
0.0
 11
148.5127245910269
 21
159.7355643049781
 31
0.0
  0
LINE
  5
149
330
E3
100
AcDbEntity
  8
0
  6
Continuous
100
AcDbLine
 10
148.5127245910269
 20
159.7355643049781
 30
0.0
 11
147.93385353497
 21
159.7001744875984
 31
0.0
  0
LINE
  5
14A
330
E3
100
AcDbEntity
  8
0
  6
Continuous
100
AcDbLine
 10
147.93385353497
 20
159.7001744875984
 30
0.0
 11
147.3109520481269
 21
159.5950859461708
 31
0.0
  0
LINE
  5
14B
330
E3
100
AcDbEntity
  8
0
  6
Continuous
100
AcDbLine
 10
147.3109520481269
 20
159.5950859461708
 30
0.0
 11
146.6487641275109
 21
159.4234880345243
 31
0.0
  0
LINE
  5
14C
330
E3
100
AcDbEntity
  8
0
  6
Continuous
100
AcDbLine
 10
146.6487641275109
 20
159.4234880345243
 30
0.0
 11
145.952327350822
 21
159.1905951460001
 31
0.0
  0
LINE
  5
14D
330
E3
100
AcDbEntity
  8
0
  6
Continuous
100
AcDbLine
 10
145.952327350822
 20
159.1905951460001
 30
0.0
 11
145.2269461872943
 21
158.9034832423876
 31
0.0
  0
LINE
  5
14E
330
E3
100
AcDbEntity
  8
0
  6
Continuous
100
AcDbLine
 10
145.2269461872943
 20
158.9034832423876
 30
0.0
 11
144.4781352832444
 21
158.5708796768416
 31
0.0
  0
LINE
  5
14F
330
E3
100
AcDbEntity
  8
0
  6
Continuous
100
AcDbLine
 10
144.4781352832444
 20
158.5708796768416
 30
0.0
 11
143.7115961090629
 21
158.2028862939159
 31
0.0
  0
LINE
  5
150
330
E3
100
AcDbEntity
  8
0
  6
Continuous
100
AcDbLine
 10
143.7115961090629
 20
158.2028862939159
 30
0.0
 11
142.9331669170514
 21
157.8106825127317
 31
0.0
  0
LINE
  5
151
330
E3
100
AcDbEntity
  8
0
  6
Continuous
100
AcDbLine
 10
142.9331669170514
 20
157.8106825127317
 30
0.0
 11
142.1487626908272
 21
157.406191712561
 31
0.0
  0
LINE
  5
152
330
E3
100
AcDbEntity
  8
0
  6
Continuous
100
AcDbLine
 10
132.148763946389
 20
157.406191712561
 30
0.0
 11
132.1868160068183
 21
157.855627047021
 31
0.0
  0
LINE
  5
153
330
E3
100
AcDbEntity
  8
0
  6
Continuous
100
AcDbLine
 10
132.1868160068183
 20
157.855627047021
 30
0.0
 11
132.3006852797073
 21
158.2914075433837
 31
0.0
  0
LINE
  5
154
330
E3
100
AcDbEntity
  8
0
  6
Continuous
100
AcDbLine
 10
132.3006852797073
 20
158.2914075433837
 30
0.0
 11
132.4895043675713
 21
158.7002887092852
 31
0.0
  0
LINE
  5
155
330
E3
100
AcDbEntity
  8
0
  6
Continuous
100
AcDbLine
 10
132.4895043675713
 20
158.7002887092852
 30
0.0
 11
132.7518387284161
 21
159.069850079972
 31
0.0
  0
LINE
  5
156
330
E3
100
AcDbEntity
  8
0
  6
Continuous
100
AcDbLine
 10
132.7518387284161
 20
159.069850079972
 30
0.0
 11
133.0856866757383
 21
159.38886219416
 31
0.0
  0
LINE
  5
157
330
E3
100
AcDbEntity
  8
0
  6
Continuous
100
AcDbLine
 10
133.0856866757383
 20
159.38886219416
 30
0.0
 11
133.4885094038229
 21
159.6476302168846
 31
0.0
  0
LINE
  5
158
330
E3
100
AcDbEntity
  8
0
  6
Continuous
100
AcDbLine
 10
133.4885094038229
 20
159.6476302168846
 30
0.0
 11
133.9572443323196
 21
159.83829752862
 31
0.0
  0
LINE
  5
159
330
E3
100
AcDbEntity
  8
0
  6
Continuous
100
AcDbLine
 10
133.9572443323196
 20
159.83829752862
 30
0.0
 11
134.48831845082
 21
159.9550625746506
 31
0.0
  0
LINE
  5
15A
330
E3
100
AcDbEntity
  8
0
  6
Continuous
100
AcDbLine
 10
134.48831845082
 20
159.9550625746506
 30
0.0
 11
135.0776950248756
 21
159.9943823698653
 31
0.0
  0
LINE
  5
15B
330
E3
100
AcDbEntity
  8
0
  6
Continuous
100
AcDbLine
 10
135.0776950248756
 20
159.9943823698653
 30
0.0
 11
135.7208869405746
 21
159.9550625746506
 31
0.0
  0
LINE
  5
15C
330
E3
100
AcDbEntity
  8
0
  6
Continuous
100
AcDbLine
 10
135.7208869405746
 20
159.9550625746506
 30
0.0
 11
136.4130000744161
 21
159.83829752862
 31
0.0
  0
LINE
  5
15D
330
E3
100
AcDbEntity
  8
0
  6
Continuous
100
AcDbLine
 10
136.4130000744161
 20
159.83829752862
 30
0.0
 11
137.1487633186081
 21
159.6476302168846
 31
0.0
  0
LINE
  5
15E
330
E3
100
AcDbEntity
  8
0
  6
Continuous
100
AcDbLine
 10
137.1487633186081
 20
159.6476302168846
 30
0.0
 11
137.9225819593736
 21
159.38886219416
 31
0.0
  0
LINE
  5
15F
330
E3
100
AcDbEntity
  8
0
  6
Continuous
100
AcDbLine
 10
137.9225819593736
 20
159.38886219416
 30
0.0
 11
138.72856102996
 21
159.069850079972
 31
0.0
  0
LINE
  5
160
330
E3
100
AcDbEntity
  8
0
  6
Continuous
100
AcDbLine
 10
138.72856102996
 20
159.069850079972
 30
0.0
 11
139.5605720335229
 21
158.7002887092852
 31
0.0
  0
LINE
  5
161
330
E3
100
AcDbEntity
  8
0
  6
Continuous
100
AcDbLine
 10
139.5605720335229
 20
158.7002887092852
 30
0.0
 11
140.4122829684232
 21
158.2914075433837
 31
0.0
  0
LINE
  5
162
330
E3
100
AcDbEntity
  8
0
  6
Continuous
100
AcDbLine
 10
140.4122829684232
 20
158.2914075433837
 30
0.0
 11
141.2772050342459
 21
157.855627047021
 31
0.0
  0
LINE
  5
163
330
E3
100
AcDbEntity
  8
0
  6
Continuous
100
AcDbLine
 10
141.2772050342459
 20
157.855627047021
 30
0.0
 11
142.1487626908272
 21
157.406191712561
 31
0.0
  0
LINE
  5
164
330
E3
100
AcDbEntity
  8
0
  6
Continuous
100
AcDbLine
 10
142.1487626908272
 20
157.406191712561
 30
0.0
 11
143.0203203474086
 21
156.9567597142451
 31
0.0
  0
LINE
  5
165
330
E3
100
AcDbEntity
  8
0
  6
Continuous
100
AcDbLine
 10
143.0203203474086
 20
156.9567597142451
 30
0.0
 11
143.8852457493754
 21
156.5209792178824
 31
0.0
  0
LINE
  5
166
330
E3
100
AcDbEntity
  8
0
  6
Continuous
100
AcDbLine
 10
143.8852457493754
 20
156.5209792178824
 30
0.0
 11
144.7369533481316
 21
156.1120980519809
 31
0.0
  0
LINE
  5
167
330
E3
100
AcDbEntity
  8
0
  6
Continuous
100
AcDbLine
 10
144.7369533481316
 20
156.1120980519809
 30
0.0
 11
145.5689643516945
 21
155.7425366812941
 31
0.0
  0
LINE
  5
168
330
E3
100
AcDbEntity
  8
0
  6
Continuous
100
AcDbLine
 10
145.5689643516945
 20
155.7425366812941
 30
0.0
 11
146.3749467584251
 21
155.4235245671061
 31
0.0
  0
LINE
  5
169
330
E3
100
AcDbEntity
  8
0
  6
Continuous
100
AcDbLine
 10
146.3749467584251
 20
155.4235245671061
 30
0.0
 11
147.1487653991905
 21
155.1647532082373
 31
0.0
  0
LINE
  5
16A
330
E3
100
AcDbEntity
  8
0
  6
Continuous
100
AcDbLine
 10
147.1487653991905
 20
155.1647532082373
 30
0.0
 11
147.8845286433825
 21
154.9740892326461
 31
0.0
  0
LINE
  5
16B
330
E3
100
AcDbEntity
  8
0
  6
Continuous
100
AcDbLine
 10
147.8845286433825
 20
154.9740892326461
 30
0.0
 11
148.5766384410799
 21
154.8573241866155
 31
0.0
  0
LINE
  5
16C
330
E3
100
AcDbEntity
  8
0
  6
Continuous
100
AcDbLine
 10
148.5766384410799
 20
154.8573241866155
 30
0.0
 11
149.2198303567789
 21
154.8180010552566
 31
0.0
  0
LINE
  5
16D
330
E3
100
AcDbEntity
  8
0
  6
Continuous
100
AcDbLine
 10
149.2198303567789
 20
154.8180010552566
 30
0.0
 11
149.8092069308344
 21
154.8573241866155
 31
0.0
  0
LINE
  5
16E
330
E3
100
AcDbEntity
  8
0
  6
Continuous
100
AcDbLine
 10
149.8092069308344
 20
154.8573241866155
 30
0.0
 11
150.340284385479
 21
154.9740892326461
 31
0.0
  0
LINE
  5
16F
330
E3
100
AcDbEntity
  8
0
  6
Continuous
100
AcDbLine
 10
150.340284385479
 20
154.9740892326461
 30
0.0
 11
150.8090193139757
 21
155.1647532082373
 31
0.0
  0
LINE
  5
170
330
E3
100
AcDbEntity
  8
0
  6
Continuous
100
AcDbLine
 10
150.8090193139757
 20
155.1647532082373
 30
0.0
 11
151.2118420420603
 21
155.4235245671061
 31
0.0
  0
LINE
  5
171
330
E3
100
AcDbEntity
  8
0
  6
Continuous
100
AcDbLine
 10
151.2118420420603
 20
155.4235245671061
 30
0.0
 11
151.5456899893826
 21
155.7425366812941
 31
0.0
  0
LINE
  5
172
330
E3
100
AcDbEntity
  8
0
  6
Continuous
100
AcDbLine
 10
151.5456899893826
 20
155.7425366812941
 30
0.0
 11
151.8080210140832
 21
156.1120980519809
 31
0.0
  0
LINE
  5
173
330
E3
100
AcDbEntity
  8
0
  6
Continuous
100
AcDbLine
 10
151.8080210140832
 20
156.1120980519809
 30
0.0
 11
151.9968401019472
 21
156.5209792178824
 31
0.0
  0
LINE
  5
174
330
E3
100
AcDbEntity
  8
0
  6
Continuous
100
AcDbLine
 10
151.9968401019472
 20
156.5209792178824
 30
0.0
 11
152.1107093748362
 21
156.9567597142451
 31
0.0
  0
LINE
  5
175
330
E3
100
AcDbEntity
  8
0
  6
Continuous
100
AcDbLine
 10
152.1107093748362
 20
156.9567597142451
 30
0.0
 11
152.1487647714096
 21
157.406191712561
 31
0.0
  0
HATCH
  5
176
330
E3
100
AcDbEntity
  8
0
  6
Continuous
 62
   255
370
     0
100
AcDbHatch
 10
0.0
 20
0.0
 30
0.0
210
0.0
220
0.0
230
1.0
  2
SOLID
 70
     1
 71
     0
 91
        1
 92
        3
 72
     0
 73
     1
 93
       39
 10
132.1487639137487
 20
59.73749205291134
 10
152.1487639137487
 20
59.73749205291134
 10
152.1487639137487
 20
75.9490871301674
 10
152.1107108946662
 20
76.39852168544289
 10
151.9968414438708
 20
76.83430039918117
 10
151.8080221766394
 20
77.24318235568
 10
151.5456901216077
 20
77.61274388359543
 10
151.2118417841152
 20
77.93175604290886
 10
150.8090179515931
 20
78.19052581058756
 10
150.3402843566386
 20
78.38119059818435
 10
149.8092083449385
 20
78.4979571526092
 10
149.2198317256141
 20
78.53727758119261
 10
148.5766400106141
 20
78.4979571526092
 10
147.8845282772591
 20
78.38119059818435
 10
147.1487639137487
 20
78.19052581058756
 10
146.3749465311557
 20
77.93175604290886
 10
145.5689653470054
 20
77.61274388359543
 10
144.7369543647739
 20
77.24318235568
 10
143.885245690418
 20
76.83430039918117
 10
143.0203213412253
 20
76.39852168544289
 10
142.1487639137487
 20
75.9490871301674
 10
141.2772064862721
 20
75.49965257489194
 10
140.4122821370794
 20
75.06387386115364
 10
139.5605734627235
 20
74.65499190465479
 10
138.728562480492
 20
74.28543037673938
 10
137.9225812963417
 20
73.96641821742594
 10
137.1487639137487
 20
73.70764844974727
 10
136.4129995502382
 20
73.51698366215047
 10
135.7208878168833
 20
73.40021710772562
 10
135.0776961018832
 20
73.3608966791422
 10
134.4883194825589
 20
73.40021710772562
 10
133.9572434708588
 20
73.51698366215047
 10
133.4885098759043
 20
73.70764844974727
 10
133.0856860433822
 20
73.96641821742594
 10
132.7518377058896
 20
74.28543037673938
 10
132.489505650858
 20
74.65499190465479
 10
132.3006863836266
 20
75.06387386115365
 10
132.1868169328312
 20
75.49965257489194
 10
132.1487639137487
 20
75.9490871301674
 97
        0
 75
     0
 76
     1
 98
        0
  0
HATCH
  5
177
330
E3
100
AcDbEntity
  8
0
  6
Continuous
 62
   255
370
    18
100
AcDbHatch
 10
0.0
 20
0.0
 30
0.0
210
0.0
220
0.0
230
1.0
  2
SOLID
 70
     1
 71
     0
 91
        1
 92
        3
 72
     0
 73
     1
 93
       36
 10
142.1487639137487
 20
75.9490871301674
 10
143.0203213412253
 20
75.49965257489194
 10
143.885245690418
 20
75.06387386115364
 10
144.7369543647739
 20
74.65499190465479
 10
145.5689653470054
 20
74.28543037673938
 10
146.3749465311557
 20
73.96641821742594
 10
147.1487639137487
 20
73.70764844974727
 10
147.8845282772591
 20
73.51698366215047
 10
148.5766400106141
 20
73.40021710772562
 10
149.2198317256141
 20
73.3608966791422
 10
149.8092083449385
 20
73.40021710772562
 10
150.3402843566386
 20
73.51698366215047
 10
150.8090179515931
 20
73.70764844974727
 10
151.2118417841152
 20
73.96641821742594
 10
151.5456901216077
 20
74.28543037673938
 10
151.8080221766394
 20
74.65499190465479
 10
151.9968414438708
 20
75.06387386115364
 10
152.1107108946662
 20
75.49965257489194
 10
152.1487639137487
 20
75.9490871301674
 10
152.1107108946662
 20
76.39852168544289
 10
151.9968414438708
 20
76.83430039918117
 10
151.8080221766394
 20
77.24318235568
 10
151.5456901216077
 20
77.61274388359543
 10
151.2118417841152
 20
77.93175604290886
 10
150.8090179515931
 20
78.19052581058754
 10
150.3402843566386
 20
78.38119059818435
 10
149.8092083449385
 20
78.4979571526092
 10
149.2198317256141
 20
78.53727758119261
 10
148.5766400106141
 20
78.4979571526092
 10
147.8845282772591
 20
78.38119059818435
 10
147.1487639137487
 20
78.19052581058756
 10
146.3749465311557
 20
77.93175604290886
 10
145.5689653470054
 20
77.61274388359543
 10
144.7369543647739
 20
77.24318235568
 10
143.885245690418
 20
76.83430039918119
 10
143.0203213412253
 20
76.39852168544289
 97
        0
 75
     0
 76
     1
 98
        0
  0
LINE
  5
178
330
E3
100
AcDbEntity
  8
0
  6
Continuous
100
AcDbLine
 10
143.0203203474086
 20
75.49965207703568
 30
0.0
 11
142.1487626908272
 21
75.94908741149567
 31
0.0
  0
LINE
  5
179
330
E3
100
AcDbEntity
  8
0
  6
Continuous
100
AcDbLine
 10
143.8852457493754
 20
75.06387491681708
 30
0.0
 11
143.0203203474086
 21
75.49965207703568
 31
0.0
  0
LINE
  5
17A
330
E3
100
AcDbEntity
  8
0
  6
Continuous
100
AcDbLine
 10
144.7369533481316
 20
74.65499041477142
 30
0.0
 11
143.8852457493754
 21
75.06387491681708
 31
0.0
  0
LINE
  5
17B
330
E3
100
AcDbEntity
  8
0
  6
Continuous
100
AcDbLine
 10
145.5689643516945
 20
74.28542904408467
 30
0.0
 11
144.7369533481316
 21
74.65499041477142
 31
0.0
  0
LINE
  5
17C
330
E3
100
AcDbEntity
  8
0
  6
Continuous
100
AcDbLine
 10
146.3749467584251
 20
73.96641692989664
 30
0.0
 11
145.5689643516945
 21
74.28542904408467
 31
0.0
  0
LINE
  5
17D
330
E3
100
AcDbEntity
  8
0
  6
Continuous
100
AcDbLine
 10
147.1487653991905
 20
73.70764890717204
 30
0.0
 11
146.3749467584251
 21
73.96641692989664
 31
0.0
  0
LINE
  5
17E
330
E3
100
AcDbEntity
  8
0
  6
Continuous
100
AcDbLine
 10
147.8845286433825
 20
73.51698493158082
 30
0.0
 11
147.1487653991905
 21
73.70764890717204
 31
0.0
  0
LINE
  5
17F
330
E3
100
AcDbEntity
  8
0
  6
Continuous
100
AcDbLine
 10
148.5766384410799
 20
73.40021654940607
 30
0.0
 11
147.8845286433825
 21
73.51698493158082
 31
0.0
  0
LINE
  5
180
330
E3
100
AcDbEntity
  8
0
  6
Continuous
100
AcDbLine
 10
149.2198303567789
 20
73.36089675419133
 30
0.0
 11
148.5766384410799
 21
73.40021654940607
 31
0.0
  0
LINE
  5
181
330
E3
100
AcDbEntity
  8
0
  6
Continuous
100
AcDbLine
 10
149.8092069308344
 20
73.40021654940607
 30
0.0
 11
149.2198303567789
 21
73.36089675419133
 31
0.0
  0
LINE
  5
182
330
E3
100
AcDbEntity
  8
0
  6
Continuous
100
AcDbLine
 10
150.340284385479
 20
73.51698493158082
 30
0.0
 11
149.8092069308344
 21
73.40021654940607
 31
0.0
  0
LINE
  5
183
330
E3
100
AcDbEntity
  8
0
  6
Continuous
100
AcDbLine
 10
150.8090193139757
 20
73.70764890717204
 30
0.0
 11
150.340284385479
 21
73.51698493158082
 31
0.0
  0
LINE
  5
184
330
E3
100
AcDbEntity
  8
0
  6
Continuous
100
AcDbLine
 10
151.2118420420603
 20
73.96641692989664
 30
0.0
 11
150.8090193139757
 21
73.70764890717204
 31
0.0
  0
LINE
  5
185
330
E3
100
AcDbEntity
  8
0
  6
Continuous
100
AcDbLine
 10
151.5456899893826
 20
74.28542904408467
 30
0.0
 11
151.2118420420603
 21
73.96641692989664
 31
0.0
  0
LINE
  5
186
330
E3
100
AcDbEntity
  8
0
  6
Continuous
100
AcDbLine
 10
151.8080210140832
 20
74.65499041477142
 30
0.0
 11
151.5456899893826
 21
74.28542904408467
 31
0.0
  0
LINE
  5
187
330
E3
100
AcDbEntity
  8
0
  6
Continuous
100
AcDbLine
 10
151.9968401019472
 20
75.06387491681708
 30
0.0
 11
151.8080210140832
 21
74.65499041477142
 31
0.0
  0
LINE
  5
188
330
E3
100
AcDbEntity
  8
0
  6
Continuous
100
AcDbLine
 10
152.1107093748362
 20
75.49965207703568
 30
0.0
 11
151.9968401019472
 21
75.06387491681708
 31
0.0
  0
LINE
  5
189
330
E3
100
AcDbEntity
  8
0
  6
Continuous
100
AcDbLine
 10
152.1487647714096
 20
75.94908741149567
 30
0.0
 11
152.1107093748362
 21
75.49965207703568
 31
0.0
  0
LINE
  5
18A
330
E3
100
AcDbEntity
  8
0
  6
Continuous
100
AcDbLine
 10
152.1107093748362
 20
76.39852274595569
 30
0.0
 11
152.1487647714096
 21
75.94908741149567
 31
0.0
  0
LINE
  5
18B
330
E3
100
AcDbEntity
  8
0
  6
Continuous
100
AcDbLine
 10
151.9968401019472
 20
76.83429990617427
 30
0.0
 11
152.1107093748362
 21
76.39852274595569
 31
0.0
  0
LINE
  5
18C
330
E3
100
AcDbEntity
  8
0
  6
Continuous
100
AcDbLine
 10
151.8080210140832
 20
77.24318107207577
 30
0.0
 11
151.9968401019472
 21
76.83429990617427
 31
0.0
  0
LINE
  5
18D
330
E3
100
AcDbEntity
  8
0
  6
Continuous
100
AcDbLine
 10
151.5456899893826
 20
77.61274244276251
 30
0.0
 11
151.8080210140832
 21
77.24318107207577
 31
0.0
  0
LINE
  5
18E
330
E3
100
AcDbEntity
  8
0
  6
Continuous
100
AcDbLine
 10
151.2118420420603
 20
77.93175455695055
 30
0.0
 11
151.5456899893826
 21
77.61274244276251
 31
0.0
  0
LINE
  5
18F
330
E3
100
AcDbEntity
  8
0
  6
Continuous
100
AcDbLine
 10
150.8090193139757
 20
78.19052591581931
 30
0.0
 11
151.2118420420603
 21
77.93175455695055
 31
0.0
  0
LINE
  5
190
330
E3
100
AcDbEntity
  8
0
  6
Continuous
100
AcDbLine
 10
150.340284385479
 20
78.38118989141054
 30
0.0
 11
150.8090193139757
 21
78.19052591581931
 31
0.0
  0
LINE
  5
191
330
E3
100
AcDbEntity
  8
0
  6
Continuous
100
AcDbLine
 10
149.8092069308344
 20
78.49795827358527
 30
0.0
 11
150.340284385479
 21
78.38118989141054
 31
0.0
  0
LINE
  5
192
330
E3
100
AcDbEntity
  8
0
  6
Continuous
100
AcDbLine
 10
149.2198303567789
 20
78.53727806880003
 30
0.0
 11
149.8092069308344
 21
78.49795827358527
 31
0.0
  0
LINE
  5
193
330
E3
100
AcDbEntity
  8
0
  6
Continuous
100
AcDbLine
 10
148.5766384410799
 20
78.49795827358527
 30
0.0
 11
149.2198303567789
 21
78.53727806880003
 31
0.0
  0
LINE
  5
194
330
E3
100
AcDbEntity
  8
0
  6
Continuous
100
AcDbLine
 10
147.8845286433825
 20
78.38118989141054
 30
0.0
 11
148.5766384410799
 21
78.49795827358527
 31
0.0
  0
LINE
  5
195
330
E3
100
AcDbEntity
  8
0
  6
Continuous
100
AcDbLine
 10
147.1487653991905
 20
78.19052591581931
 30
0.0
 11
147.8845286433825
 21
78.38118989141054
 31
0.0
  0
LINE
  5
196
330
E3
100
AcDbEntity
  8
0
  6
Continuous
100
AcDbLine
 10
146.3749467584251
 20
77.93175455695055
 30
0.0
 11
147.1487653991905
 21
78.19052591581931
 31
0.0
  0
LINE
  5
197
330
E3
100
AcDbEntity
  8
0
  6
Continuous
100
AcDbLine
 10
145.5689643516945
 20
77.61274244276251
 30
0.0
 11
146.3749467584251
 21
77.93175455695055
 31
0.0
  0
LINE
  5
198
330
E3
100
AcDbEntity
  8
0
  6
Continuous
100
AcDbLine
 10
144.7369533481316
 20
77.24318107207577
 30
0.0
 11
145.5689643516945
 21
77.61274244276251
 31
0.0
  0
LINE
  5
199
330
E3
100
AcDbEntity
  8
0
  6
Continuous
100
AcDbLine
 10
143.8852457493754
 20
76.83429990617427
 30
0.0
 11
144.7369533481316
 21
77.24318107207577
 31
0.0
  0
LINE
  5
19A
330
E3
100
AcDbEntity
  8
0
  6
Continuous
100
AcDbLine
 10
143.0203203474086
 20
76.39852274595569
 30
0.0
 11
143.8852457493754
 21
76.83429990617427
 31
0.0
  0
LINE
  5
19B
330
E3
100
AcDbEntity
  8
0
  6
Continuous
100
AcDbLine
 10
142.1487626908272
 20
75.94908741149567
 30
0.0
 11
143.0203203474086
 21
76.39852274595569
 31
0.0
  0
HATCH
  5
19C
330
E3
100
AcDbEntity
  8
0
  6
Continuous
 62
   255
370
    18
100
AcDbHatch
 10
0.0
 20
0.0
 30
0.0
210
0.0
220
0.0
230
1.0
  2
SOLID
 70
     1
 71
     0
 91
        1
 92
        3
 72
     0
 73
     1
 93
       36
 10
142.1487639137487
 20
75.9490871301674
 10
142.9331655984776
 20
75.54459603041948
 10
143.7115975127511
 20
75.15239518805501
 10
144.4781353196714
 20
74.78440142720606
 10
145.2269452036797
 20
74.45179605208219
 10
145.9523282694149
 20
74.1646851087001
 10
146.6487639137487
 20
73.93179231778929
 10
147.3109518409081
 20
73.76019400895217
 10
147.9338524009275
 20
73.6551041099698
 10
148.5127249444276
 20
73.61971572424473
 10
149.0431639018195
 20
73.6551041099698
 10
149.5211323123496
 20
73.76019400895215
 10
149.9429925478086
 20
73.93179231778929
 10
150.3055339970785
 20
74.1646851087001
 10
150.6059975008219
 20
74.45179605208219
 10
150.8420963503503
 20
74.78440142720606
 10
151.0120336908585
 20
75.15239518805501
 10
151.1145161965744
 20
75.54459603041948
 10
151.1487639137487
 20
75.9490871301674
 10
151.1145161965744
 20
76.35357822991534
 10
151.0120336908585
 20
76.7457790722798
 10
150.8420963503503
 20
77.11377283312876
 10
150.6059975008219
 20
77.44637820825263
 10
150.3055339970785
 20
77.73348915163473
 10
149.9429925478086
 20
77.96638194254552
 10
149.5211323123496
 20
78.13798025138264
 10
149.0431639018195
 20
78.24307015036503
 10
148.5127249444276
 20
78.2784585360901
 10
147.9338524009275
 20
78.24307015036503
 10
147.3109518409081
 20
78.13798025138264
 10
146.6487639137487
 20
77.96638194254552
 10
145.9523282694149
 20
77.73348915163473
 10
145.2269452036797
 20
77.44637820825263
 10
144.4781353196714
 20
77.11377283312876
 10
143.7115975127511
 20
76.7457790722798
 10
142.9331655984776
 20
76.35357822991534
 97
        0
 75
     0
 76
     1
 98
        0
  0
LINE
  5
19D
330
E3
100
AcDbEntity
  8
0
  6
Continuous
100
AcDbLine
 10
142.9331669170514
 20
75.54459661132492
 30
0.0
 11
142.1487626908272
 21
75.94908741149567
 31
0.0
  0
LINE
  5
19E
330
E3
100
AcDbEntity
  8
0
  6
Continuous
100
AcDbLine
 10
143.7115961090629
 20
75.15239616628494
 30
0.0
 11
142.9331669170514
 21
75.54459661132492
 31
0.0
  0
LINE
  5
19F
330
E3
100
AcDbEntity
  8
0
  6
Continuous
100
AcDbLine
 10
144.4781352832444
 20
74.78440278335918
 30
0.0
 11
143.7115961090629
 21
75.15239616628494
 31
0.0
  0
LINE
  5
1A0
330
E3
100
AcDbEntity
  8
0
  6
Continuous
100
AcDbLine
 10
145.2269461872943
 20
74.45179588166901
 30
0.0
 11
144.4781352832444
 21
74.78440278335918
 31
0.0
  0
LINE
  5
1A1
330
E3
100
AcDbEntity
  8
0
  6
Continuous
100
AcDbLine
 10
145.952327350822
 20
74.16468397805654
 30
0.0
 11
145.2269461872943
 21
74.45179588166901
 31
0.0
  0
LINE
  5
1A2
330
E3
100
AcDbEntity
  8
0
  6
Continuous
100
AcDbLine
 10
146.6487641275109
 20
73.93179108953233
 30
0.0
 11
145.952327350822
 21
74.16468397805654
 31
0.0
  0
LINE
  5
1A3
330
E3
100
AcDbEntity
  8
0
  6
Continuous
100
AcDbLine
 10
147.3109520481269
 20
73.7601931778858
 30
0.0
 11
146.6487641275109
 21
73.93179108953233
 31
0.0
  0
LINE
  5
1A4
330
E3
100
AcDbEntity
  8
0
  6
Continuous
100
AcDbLine
 10
147.93385353497
 20
73.65510463645829
 30
0.0
 11
147.3109520481269
 21
73.7601931778858
 31
0.0
  0
LINE
  5
1A5
330
E3
100
AcDbEntity
  8
0
  6
Continuous
100
AcDbLine
 10
148.5127245910269
 20
73.6197148190785
 30
0.0
 11
147.93385353497
 21
73.65510463645829
 31
0.0
  0
LINE
  5
1A6
330
E3
100
AcDbEntity
  8
0
  6
Continuous
100
AcDbLine
 10
149.0431648421346
 20
73.65510463645829
 30
0.0
 11
148.5127245910269
 21
73.6197148190785
 31
0.0
  0
LINE
  5
1A7
330
E3
100
AcDbEntity
  8
0
  6
Continuous
100
AcDbLine
 10
149.5211308815561
 20
73.7601931778858
 30
0.0
 11
149.0431648421346
 21
73.65510463645829
 31
0.0
  0
LINE
  5
1A8
330
E3
100
AcDbEntity
  8
0
  6
Continuous
100
AcDbLine
 10
149.942992984432
 20
73.93179108953233
 30
0.0
 11
149.5211308815561
 21
73.7601931778858
 31
0.0
  0
LINE
  5
1A9
330
E3
100
AcDbEntity
  8
0
  6
Continuous
100
AcDbLine
 10
150.3055351077803
 20
74.16468397805654
 30
0.0
 11
149.942992984432
 21
73.93179108953233
 31
0.0
  0
LINE
  5
1AA
330
E3
100
AcDbEntity
  8
0
  6
Continuous
100
AcDbLine
 10
150.6059982603703
 20
74.45179588166901
 30
0.0
 11
150.3055351077803
 21
74.16468397805654
 31
0.0
  0
LINE
  5
1AB
330
E3
100
AcDbEntity
  8
0
  6
Continuous
100
AcDbLine
 10
150.8420971834441
 20
74.78440278335918
 30
0.0
 11
150.6059982603703
 21
74.45179588166901
 31
0.0
  0
LINE
  5
1AC
330
E3
100
AcDbEntity
  8
0
  6
Continuous
100
AcDbLine
 10
151.0120336952928
 20
75.15239616628494
 30
0.0
 11
150.8420971834441
 21
74.78440278335918
 31
0.0
  0
LINE
  5
1AD
330
E3
100
AcDbEntity
  8
0
  6
Continuous
100
AcDbLine
 10
151.1145167081218
 20
75.54459661132492
 30
0.0
 11
151.0120336952928
 21
75.15239616628494
 31
0.0
  0
LINE
  5
1AE
330
E3
100
AcDbEntity
  8
0
  6
Continuous
100
AcDbLine
 10
151.1487655641947
 20
75.94908741149567
 30
0.0
 11
151.1145167081218
 21
75.54459661132492
 31
0.0
  0
LINE
  5
1AF
330
E3
100
AcDbEntity
  8
0
  6
Continuous
100
AcDbLine
 10
151.1145167081218
 20
76.35357821166643
 30
0.0
 11
151.1487655641947
 21
75.94908741149567
 31
0.0
  0
LINE
  5
1B0
330
E3
100
AcDbEntity
  8
0
  6
Continuous
100
AcDbLine
 10
151.0120336952928
 20
76.7457786567064
 30
0.0
 11
151.1145167081218
 21
76.35357821166643
 31
0.0
  0
LINE
  5
1B1
330
E3
100
AcDbEntity
  8
0
  6
Continuous
100
AcDbLine
 10
150.8420971834441
 20
77.11377203963218
 30
0.0
 11
151.0120336952928
 21
76.7457786567064
 31
0.0
  0
LINE
  5
1B2
330
E3
100
AcDbEntity
  8
0
  6
Continuous
100
AcDbLine
 10
150.6059982603703
 20
77.44637894132234
 30
0.0
 11
150.8420971834441
 21
77.11377203963218
 31
0.0
  0
LINE
  5
1B3
330
E3
100
AcDbEntity
  8
0
  6
Continuous
100
AcDbLine
 10
150.3055351077803
 20
77.73348750879065
 30
0.0
 11
150.6059982603703
 21
77.44637894132234
 31
0.0
  0
LINE
  5
1B4
330
E3
100
AcDbEntity
  8
0
  6
Continuous
100
AcDbLine
 10
149.942992984432
 20
77.96638039731486
 30
0.0
 11
150.3055351077803
 21
77.73348750879065
 31
0.0
  0
LINE
  5
1B5
330
E3
100
AcDbEntity
  8
0
  6
Continuous
100
AcDbLine
 10
149.5211308815561
 20
78.13798164510555
 30
0.0
 11
149.942992984432
 21
77.96638039731486
 31
0.0
  0
LINE
  5
1B6
330
E3
100
AcDbEntity
  8
0
  6
Continuous
100
AcDbLine
 10
149.0431648421346
 20
78.24307018653306
 30
0.0
 11
149.5211308815561
 21
78.13798164510555
 31
0.0
  0
LINE
  5
1B7
330
E3
100
AcDbEntity
  8
0
  6
Continuous
100
AcDbLine
 10
148.5127245910269
 20
78.27846000391285
 30
0.0
 11
149.0431648421346
 21
78.24307018653306
 31
0.0
  0
LINE
  5
1B8
330
E3
100
AcDbEntity
  8
0
  6
Continuous
100
AcDbLine
 10
147.93385353497
 20
78.24307018653306
 30
0.0
 11
148.5127245910269
 21
78.27846000391285
 31
0.0
  0
LINE
  5
1B9
330
E3
100
AcDbEntity
  8
0
  6
Continuous
100
AcDbLine
 10
147.3109520481269
 20
78.13798164510555
 30
0.0
 11
147.93385353497
 21
78.24307018653306
 31
0.0
  0
LINE
  5
1BA
330
E3
100
AcDbEntity
  8
0
  6
Continuous
100
AcDbLine
 10
146.6487641275109
 20
77.96638039731486
 30
0.0
 11
147.3109520481269
 21
78.13798164510555
 31
0.0
  0
LINE
  5
1BB
330
E3
100
AcDbEntity
  8
0
  6
Continuous
100
AcDbLine
 10
145.952327350822
 20
77.73348750879065
 30
0.0
 11
146.6487641275109
 21
77.96638039731486
 31
0.0
  0
LINE
  5
1BC
330
E3
100
AcDbEntity
  8
0
  6
Continuous
100
AcDbLine
 10
145.2269461872943
 20
77.44637894132234
 30
0.0
 11
145.952327350822
 21
77.73348750879065
 31
0.0
  0
LINE
  5
1BD
330
E3
100
AcDbEntity
  8
0
  6
Continuous
100
AcDbLine
 10
144.4781352832444
 20
77.11377203963218
 30
0.0
 11
145.2269461872943
 21
77.44637894132234
 31
0.0
  0
LINE
  5
1BE
330
E3
100
AcDbEntity
  8
0
  6
Continuous
100
AcDbLine
 10
143.7115961090629
 20
76.7457786567064
 30
0.0
 11
144.4781352832444
 21
77.11377203963218
 31
0.0
  0
LINE
  5
1BF
330
E3
100
AcDbEntity
  8
0
  6
Continuous
100
AcDbLine
 10
142.9331669170514
 20
76.35357821166643
 30
0.0
 11
143.7115961090629
 21
76.7457786567064
 31
0.0
  0
LINE
  5
1C0
330
E3
100
AcDbEntity
  8
0
  6
Continuous
100
AcDbLine
 10
142.1487626908272
 20
75.94908741149567
 30
0.0
 11
142.9331669170514
 21
76.35357821166643
 31
0.0
  0
LINE
  5
1C1
330
E3
100
AcDbEntity
  8
0
  6
Continuous
100
AcDbLine
 10
132.148763946389
 20
75.94908741149567
 30
0.0
 11
132.1868160068183
 21
75.49965207703568
 31
0.0
  0
LINE
  5
1C2
330
E3
100
AcDbEntity
  8
0
  6
Continuous
100
AcDbLine
 10
132.1868160068183
 20
75.49965207703568
 30
0.0
 11
132.3006852797073
 21
75.06387491681708
 31
0.0
  0
LINE
  5
1C3
330
E3
100
AcDbEntity
  8
0
  6
Continuous
100
AcDbLine
 10
132.3006852797073
 20
75.06387491681708
 30
0.0
 11
132.4895043675713
 21
74.65499041477142
 31
0.0
  0
LINE
  5
1C4
330
E3
100
AcDbEntity
  8
0
  6
Continuous
100
AcDbLine
 10
132.4895043675713
 20
74.65499041477142
 30
0.0
 11
132.7518387284161
 21
74.28542904408467
 31
0.0
  0
LINE
  5
1C5
330
E3
100
AcDbEntity
  8
0
  6
Continuous
100
AcDbLine
 10
132.7518387284161
 20
74.28542904408467
 30
0.0
 11
133.0856866757383
 21
73.96641692989664
 31
0.0
  0
LINE
  5
1C6
330
E3
100
AcDbEntity
  8
0
  6
Continuous
100
AcDbLine
 10
133.0856866757383
 20
73.96641692989664
 30
0.0
 11
133.4885094038229
 21
73.70764890717204
 31
0.0
  0
LINE
  5
1C7
330
E3
100
AcDbEntity
  8
0
  6
Continuous
100
AcDbLine
 10
133.4885094038229
 20
73.70764890717204
 30
0.0
 11
133.9572443323196
 21
73.51698493158082
 31
0.0
  0
LINE
  5
1C8
330
E3
100
AcDbEntity
  8
0
  6
Continuous
100
AcDbLine
 10
133.9572443323196
 20
73.51698493158082
 30
0.0
 11
134.48831845082
 21
73.40021654940607
 31
0.0
  0
LINE
  5
1C9
330
E3
100
AcDbEntity
  8
0
  6
Continuous
100
AcDbLine
 10
134.48831845082
 20
73.40021654940607
 30
0.0
 11
135.0776950248756
 21
73.36089675419133
 31
0.0
  0
LINE
  5
1CA
330
E3
100
AcDbEntity
  8
0
  6
Continuous
100
AcDbLine
 10
135.0776950248756
 20
73.36089675419133
 30
0.0
 11
135.7208869405746
 21
73.40021654940607
 31
0.0
  0
LINE
  5
1CB
330
E3
100
AcDbEntity
  8
0
  6
Continuous
100
AcDbLine
 10
135.7208869405746
 20
73.40021654940607
 30
0.0
 11
136.4130000744161
 21
73.51698493158082
 31
0.0
  0
LINE
  5
1CC
330
E3
100
AcDbEntity
  8
0
  6
Continuous
100
AcDbLine
 10
136.4130000744161
 20
73.51698493158082
 30
0.0
 11
137.1487633186081
 21
73.70764890717204
 31
0.0
  0
LINE
  5
1CD
330
E3
100
AcDbEntity
  8
0
  6
Continuous
100
AcDbLine
 10
137.1487633186081
 20
73.70764890717204
 30
0.0
 11
137.9225819593736
 21
73.96641692989664
 31
0.0
  0
LINE
  5
1CE
330
E3
100
AcDbEntity
  8
0
  6
Continuous
100
AcDbLine
 10
137.9225819593736
 20
73.96641692989664
 30
0.0
 11
138.72856102996
 21
74.28542904408467
 31
0.0
  0
LINE
  5
1CF
330
E3
100
AcDbEntity
  8
0
  6
Continuous
100
AcDbLine
 10
138.72856102996
 20
74.28542904408467
 30
0.0
 11
139.5605720335229
 21
74.65499041477142
 31
0.0
  0
LINE
  5
1D0
330
E3
100
AcDbEntity
  8
0
  6
Continuous
100
AcDbLine
 10
139.5605720335229
 20
74.65499041477142
 30
0.0
 11
140.4122829684232
 21
75.06387491681708
 31
0.0
  0
LINE
  5
1D1
330
E3
100
AcDbEntity
  8
0
  6
Continuous
100
AcDbLine
 10
140.4122829684232
 20
75.06387491681708
 30
0.0
 11
141.2772050342459
 21
75.49965207703568
 31
0.0
  0
LINE
  5
1D2
330
E3
100
AcDbEntity
  8
0
  6
Continuous
100
AcDbLine
 10
141.2772050342459
 20
75.49965207703568
 30
0.0
 11
142.1487626908272
 21
75.94908741149567
 31
0.0
  0
LINE
  5
1D3
330
E3
100
AcDbEntity
  8
0
  6
Continuous
100
AcDbLine
 10
142.1487626908272
 20
75.94908741149567
 30
0.0
 11
143.0203203474086
 21
76.39852274595569
 31
0.0
  0
LINE
  5
1D4
330
E3
100
AcDbEntity
  8
0
  6
Continuous
100
AcDbLine
 10
143.0203203474086
 20
76.39852274595569
 30
0.0
 11
143.8852457493754
 21
76.83429990617427
 31
0.0
  0
LINE
  5
1D5
330
E3
100
AcDbEntity
  8
0
  6
Continuous
100
AcDbLine
 10
143.8852457493754
 20
76.83429990617427
 30
0.0
 11
144.7369533481316
 21
77.24318107207577
 31
0.0
  0
LINE
  5
1D6
330
E3
100
AcDbEntity
  8
0
  6
Continuous
100
AcDbLine
 10
144.7369533481316
 20
77.24318107207577
 30
0.0
 11
145.5689643516945
 21
77.61274244276251
 31
0.0
  0
LINE
  5
1D7
330
E3
100
AcDbEntity
  8
0
  6
Continuous
100
AcDbLine
 10
145.5689643516945
 20
77.61274244276251
 30
0.0
 11
146.3749467584251
 21
77.93175455695055
 31
0.0
  0
LINE
  5
1D8
330
E3
100
AcDbEntity
  8
0
  6
Continuous
100
AcDbLine
 10
146.3749467584251
 20
77.93175455695055
 30
0.0
 11
147.1487653991905
 21
78.19052591581931
 31
0.0
  0
LINE
  5
1D9
330
E3
100
AcDbEntity
  8
0
  6
Continuous
100
AcDbLine
 10
147.1487653991905
 20
78.19052591581931
 30
0.0
 11
147.8845286433825
 21
78.38118989141054
 31
0.0
  0
LINE
  5
1DA
330
E3
100
AcDbEntity
  8
0
  6
Continuous
100
AcDbLine
 10
147.8845286433825
 20
78.38118989141054
 30
0.0
 11
148.5766384410799
 21
78.49795827358527
 31
0.0
  0
LINE
  5
1DB
330
E3
100
AcDbEntity
  8
0
  6
Continuous
100
AcDbLine
 10
148.5766384410799
 20
78.49795827358527
 30
0.0
 11
149.2198303567789
 21
78.53727806880003
 31
0.0
  0
LINE
  5
1DC
330
E3
100
AcDbEntity
  8
0
  6
Continuous
100
AcDbLine
 10
149.2198303567789
 20
78.53727806880003
 30
0.0
 11
149.8092069308344
 21
78.49795827358527
 31
0.0
  0
LINE
  5
1DD
330
E3
100
AcDbEntity
  8
0
  6
Continuous
100
AcDbLine
 10
149.8092069308344
 20
78.49795827358527
 30
0.0
 11
150.340284385479
 21
78.38118989141054
 31
0.0
  0
LINE
  5
1DE
330
E3
100
AcDbEntity
  8
0
  6
Continuous
100
AcDbLine
 10
150.340284385479
 20
78.38118989141054
 30
0.0
 11
150.8090193139757
 21
78.19052591581931
 31
0.0
  0
LINE
  5
1DF
330
E3
100
AcDbEntity
  8
0
  6
Continuous
100
AcDbLine
 10
150.8090193139757
 20
78.19052591581931
 30
0.0
 11
151.2118420420603
 21
77.93175455695055
 31
0.0
  0
LINE
  5
1E0
330
E3
100
AcDbEntity
  8
0
  6
Continuous
100
AcDbLine
 10
151.2118420420603
 20
77.93175455695055
 30
0.0
 11
151.5456899893826
 21
77.61274244276251
 31
0.0
  0
LINE
  5
1E1
330
E3
100
AcDbEntity
  8
0
  6
Continuous
100
AcDbLine
 10
151.5456899893826
 20
77.61274244276251
 30
0.0
 11
151.8080210140832
 21
77.24318107207577
 31
0.0
  0
LINE
  5
1E2
330
E3
100
AcDbEntity
  8
0
  6
Continuous
100
AcDbLine
 10
151.8080210140832
 20
77.24318107207577
 30
0.0
 11
151.9968401019472
 21
76.83429990617427
 31
0.0
  0
LINE
  5
1E3
330
E3
100
AcDbEntity
  8
0
  6
Continuous
100
AcDbLine
 10
151.9968401019472
 20
76.83429990617427
 30
0.0
 11
152.1107093748362
 21
76.39852274595569
 31
0.0
  0
LINE
  5
1E4
330
E3
100
AcDbEntity
  8
0
  6
Continuous
100
AcDbLine
 10
152.1107093748362
 20
76.39852274595569
 30
0.0
 11
152.1487647714096
 21
75.94908741149567
 31
0.0
  0
HATCH
  5
1E5
330
E3
100
AcDbEntity
  8
0
  6
Continuous
 62
   255
370
     0
100
AcDbHatch
 10
0.0
 20
0.0
 30
0.0
210
0.0
220
0.0
230
1.0
  2
SOLID
 70
     1
 71
     0
 91
        1
 92
        3
 72
     0
 73
     1
 93
        8
 10
213.5841499488926
 20
103.9853991596958
 10
201.8156811955822
 20
102.6723195026312
 10
208.0472115167182
 20
101.3592431817107
 10
212.8418478621229
 20
74.16751636445883
 10
253.8370013018967
 20
74.16751636445883
 10
243.5531367221257
 20
132.4902022978682
 10
202.5579832823519
 20
132.4902022978682
 10
207.3526196277566
 20
105.2984754806163
 97
        0
 75
     0
 76
     1
 98
        0
  0
LINE
  5
1E6
330
E3
100
AcDbEntity
  8
0
  6
Continuous
100
AcDbLine
 10
202.5579832823519
 20
132.4902022978682
 30
0.0
 11
207.3526196277566
 21
105.2984754806163
 31
0.0
  0
LINE
  5
1E7
330
E3
100
AcDbEntity
  8
0
  6
Continuous
100
AcDbLine
 10
208.0472115167182
 20
101.3592431817107
 30
0.0
 11
212.8418478621229
 21
74.16751636445883
 31
0.0
  0
LINE
  5
1E8
330
E3
100
AcDbEntity
  8
0
  6
Continuous
100
AcDbLine
 10
208.0472115167182
 20
101.3592431817107
 30
0.0
 11
201.8156811955822
 21
102.6723195026312
 31
0.0
  0
LINE
  5
1E9
330
E3
100
AcDbEntity
  8
0
  6
Continuous
100
AcDbLine
 10
201.8156811955822
 20
102.6723195026312
 30
0.0
 11
213.5841499488926
 21
103.9853991596958
 31
0.0
  0
LINE
  5
1EA
330
E3
100
AcDbEntity
  8
0
  6
Continuous
100
AcDbLine
 10
213.5841499488926
 20
103.9853991596958
 30
0.0
 11
207.3526196277566
 21
105.2984754806163
 31
0.0
  0
HATCH
  5
1EB
330
E3
100
AcDbEntity
  8
0
  6
Continuous
 62
   255
370
     0
100
AcDbHatch
 10
0.0
 20
0.0
 30
0.0
210
0.0
220
0.0
230
1.0
  2
SOLID
 70
     1
 71
     0
 91
        1
 92
        3
 72
     0
 73
     1
 93
        8
 10
29.95236927172104
 20
133.4016135327319
 10
40.23623385149207
 20
75.07892759932251
 10
83.73781239105129
 20
75.07892759932251
 10
78.94317938179074
 20
102.2706544165744
 10
72.71164572451056
 20
103.5837307374949
 10
84.48011781396517
 20
104.8968103945595
 10
78.24858415668498
 20
106.20988671548
 10
73.45395114742442
 20
133.4016135327319
 97
        0
 75
     0
 76
     1
 98
        0
  0
LINE
  5
1EC
330
E3
100
AcDbEntity
  8
0
  6
Continuous
100
AcDbLine
 10
73.45395114742442
 20
133.4016135327319
 30
0.0
 11
78.24858415668498
 21
106.20988671548
 31
0.0
  0
LINE
  5
1ED
330
E3
100
AcDbEntity
  8
0
  6
Continuous
100
AcDbLine
 10
78.94317938179074
 20
102.2706544165744
 30
0.0
 11
83.73781239105129
 21
75.07892759932251
 31
0.0
  0
LINE
  5
1EE
330
E3
100
AcDbEntity
  8
0
  6
Continuous
100
AcDbLine
 10
78.94317938179074
 20
102.2706544165744
 30
0.0
 11
72.71164572451056
 21
103.5837307374949
 31
0.0
  0
LINE
  5
1EF
330
E3
100
AcDbEntity
  8
0
  6
Continuous
100
AcDbLine
 10
72.71164572451056
 20
103.5837307374949
 30
0.0
 11
84.48011781396517
 21
104.8968103945595
 31
0.0
  0
LINE
  5
1F0
330
E3
100
AcDbEntity
  8
0
  6
Continuous
100
AcDbLine
 10
84.48011781396517
 20
104.8968103945595
 30
0.0
 11
78.24858415668498
 21
106.20988671548
 31
0.0
  0
LINE
  5
1F1
330
E3
100
AcDbEntity
  8
0
  6
Continuous
100
AcDbLine
 10
132.148763946389
 20
157.406191712561
 30
0.0
 11
132.148763946389
 21
75.94908741149567
 31
0.0
  0
LINE
  5
1F2
330
E3
100
AcDbEntity
  8
0
  6
Continuous
100
AcDbLine
 10
152.1487647714096
 20
157.406191712561
 30
0.0
 11
152.1487647714096
 21
75.94908741149567
 31
0.0
  0
MTEXT
  5
1F4
330
E3
100
AcDbEntity
  8
Doc_ Floor
  6
Continuous
100
AcDbMText
 10
197.5284010337816
 20
142.9909927664425
 30
0.0
 40
2.499999999999999
 41
37.16984108392926
 71
     4
 72
     1
  1
\A1;{\fCentury Gothic|b0|i0|c0|p34;TRS 9\PMIN. ROOF PITCH 3\fArial|b0|i0|c0|p34;\H1.029412x;\U+00B0}
  7
GENERATED_STYLE_1
 73
     1
 44
1.056356172275314
  0
LINE
  5
1F5
330
E3
100
AcDbEntity
  8
Doc_ Floor
  6
Continuous
100
AcDbLine
 10
184.5143274252667
 20
113.5459076154517
 30
0.0
 11
184.0042076283125
 21
117.3757877806776
 31
0.0
  0
LINE
  5
1F6
330
E3
100
AcDbEntity
  8
Doc_ Floor
  6
Continuous
100
AcDbLine
 10
184.5143274252667
 20
113.5459076154517
 30
0.0
 11
185.9874919604393
 21
117.1177403650942
 31
0.0
  0
LINE
  5
1F7
330
E3
100
AcDbEntity
  8
Doc_ Floor
  6
Continuous
100
AcDbLine
 10
184.0042076283125
 20
117.3757877806776
 30
0.0
 11
185.9874919604393
 21
117.1177403650942
 31
0.0
  0
LWPOLYLINE
  5
1F8
330
E3
100
AcDbEntity
  8
Doc_ Floor
  6
Continuous
100
AcDbPolyline
 90
       14
 70
   128
 43
0.0
 10
184.995849397014
 20
117.2467646391576
 10
186.0030174031359
 20
123.8741477913272
 10
187.0754663742878
 20
129.3838153187831
 10
188.2426131063081
 20
133.8479104009714
 10
188.8708908813434
 20
135.7104130186669
 10
189.5338743950352
 20
137.3385762173377
 10
190.2352407468634
 20
138.7414178944145
 10
190.9786670363077
 20
139.9279559473281
 10
191.7678303628479
 20
140.907208273509
 10
192.6064078259639
 20
141.6881927703882
 10
193.4980765251355
 20
142.2799273353963
 10
194.4465135598424
 20
142.691429865964
 10
195.4553960295645
 20
142.9317182595221
 10
196.5284010337816
 20
143.0098104135013
  0
MTEXT
  5
1F9
330
E3
100
AcDbEntity
  8
Doc_ Floor
  6
Continuous
100
AcDbMText
 10
113.9933170288195
 20
62.96137339768008
 30
0.0
 40
2.5
 41
0.0
 71
     4
 72
     1
  1
{ROOF FRAME}
  7
GENERATED_STYLE_1
 73
     1
 44
1.0
  0
LINE
  5
1FA
330
E3
100
AcDbEntity
  8
Doc_ Floor
  6
Continuous
100
AcDbLine
 10
101.6738942793006
 20
89.05193376626674
 30
0.0
 11
102.9518143129334
 21
85.40568498471683
 31
0.0
  0
LINE
  5
1FB
330
E3
100
AcDbEntity
  8
Doc_ Floor
  6
Continuous
100
AcDbLine
 10
101.6738942793006
 20
89.05193376626674
 30
0.0
 11
100.957480671308
 21
85.25522821869018
 31
0.0
  0
LINE
  5
1FC
330
E3
100
AcDbEntity
  8
Doc_ Floor
  6
Continuous
100
AcDbLine
 10
102.9518143129334
 20
85.40568498471683
 30
0.0
 11
100.957480671308
 21
85.25522821869018
 31
0.0
  0
LWPOLYLINE
  5
1FD
330
E3
100
AcDbEntity
  8
Doc_ Floor
  6
Continuous
100
AcDbPolyline
 90
       15
 70
   128
 43
0.0
 10
101.9546478743199
 20
85.3304575514557
 10
102.5613297497593
 20
79.58440983945604
 10
103.3349312671882
 20
74.80619753295053
 10
103.7927614015555
 20
72.76060262984191
 10
104.3024428583082
 20
70.93365414580741
 10
104.8673494414089
 20
69.31758127008055
 10
105.4908549548204
 20
67.9046131918949
 10
106.1763332025054
 20
66.68697910048392
 10
106.9271579884264
 20
65.65690818508119
 10
107.7467031165461
 20
64.80662963492023
 10
108.6383423908273
 20
64.12837263923456
 10
109.6054496152326
 20
63.6143663872577
 10
110.6513985937246
 20
63.25684006822321
 10
111.779563130266
 20
63.04802287136459
 10
112.9933170288195
 20
62.98014398591538
  0
MTEXT
  5
1FE
330
E3
100
AcDbEntity
  8
Doc_ Floor
  6
Continuous
100
AcDbMText
 10
159.9662913458908
 20
175.9255575337016
 30
0.0
 40
2.5
 41
0.0
 71
     4
 72
     1
  1
{PIPE PENETRATION}
  7
GENERATED_STYLE_1
 73
     1
 44
1.0
  0
LINE
  5
1FF
330
E3
100
AcDbEntity
  8
Doc_ Floor
  6
Continuous
100
AcDbLine
 10
145.694596868935
 20
158.3407224265387
 30
0.0
 11
145.7960023071963
 21
162.2030932998587
 31
0.0
  0
LINE
  5
200
330
E3
100
AcDbEntity
  8
Doc_ Floor
  6
Continuous
100
AcDbLine
 10
145.694596868935
 20
158.3407224265387
 30
0.0
 11
147.7136046328588
 21
161.6349312665948
 31
0.0
  0
LINE
  5
201
330
E3
100
AcDbEntity
  8
Doc_ Floor
  6
Continuous
100
AcDbLine
 10
145.7960023071963
 20
162.2030932998587
 30
0.0
 11
147.7136046328588
 21
161.6349312665948
 31
0.0
  0
LWPOLYLINE
  5
202
330
E3
100
AcDbEntity
  8
Doc_ Floor
  6
Continuous
100
AcDbPolyline
 90
       12
 70
   128
 43
0.0
 10
146.7548035630145
 20
161.9190130980692
 10
147.9940100454951
 20
165.516890798631
 10
149.2579175616183
 20
168.5116191029027
 10
150.5752083789026
 20
170.9412422343755
 10
151.9745647648666
 20
172.8438044165401
 10
152.7139807547031
 20
173.6093264714728
 10
153.4846689870289
 20
174.2573498728876
 10
154.2902147452839
 20
174.7926301487209
 10
155.134203312908
 20
175.219922826909
 10
156.0202199733409
 20
175.5439834353882
 10
156.9518500100224
 20
175.769567502095
 10
158.9662913458908
 20
175.9443281219369
  0
MTEXT
  5
203
330
E3
100
AcDbEntity
  8
Doc_ Floor
  6
Continuous
100
AcDbMText
 10
169.9355462417725
 20
164.126415102509
 30
0.0
 40
2.5
 41
0.0
 71
     4
 72
     1
  1
{EPDM FLEXIBLE CONE SLEEVE}
  7
GENERATED_STYLE_1
 73
     1
 44
1.0
  0
LINE
  5
204
330
E3
100
AcDbEntity
  8
Doc_ Floor
  6
Continuous
100
AcDbLine
 10
157.076219688602
 20
133.1830960894461
 30
0.0
 11
156.5224631258741
 21
137.0069078084226
 31
0.0
  0
LINE
  5
205
330
E3
100
AcDbEntity
  8
Doc_ Floor
  6
Continuous
100
AcDbLine
 10
157.076219688602
 20
133.1830960894461
 30
0.0
 11
158.5085598275381
 21
136.7714927949041
 31
0.0
  0
LINE
  5
206
330
E3
100
AcDbEntity
  8
Doc_ Floor
  6
Continuous
100
AcDbLine
 10
156.5224631258741
 20
137.0069078084226
 30
0.0
 11
158.5085598275381
 21
136.7714927949041
 31
0.0
  0
LWPOLYLINE
  5
207
330
E3
100
AcDbEntity
  8
Doc_ Floor
  6
Continuous
100
AcDbPolyline
 90
       14
 70
   128
 43
0.0
 10
157.5155117848984
 20
136.8892008863808
 10
158.4895322993859
 20
143.9020610432383
 10
159.5345174863627
 20
149.7316776611492
 10
160.67976840853
 20
154.454549358685
 10
161.2991501024042
 20
156.4248616806158
 10
161.9545861285892
 20
158.1471747544173
 10
162.6497391199224
 20
159.6310509074108
 10
163.3882717092417
 20
160.8860524669178
 10
164.1738465293846
 20
161.9217417602597
 10
165.0101262131888
 20
162.7476811147581
 10
165.900773393492
 20
163.3734328577342
 10
166.849450703132
 20
163.8085593165097
 10
167.8598207749462
 20
164.0626228184059
 10
168.9355462417725
 20
164.1451856907443
  0
MTEXT
  5
208
330
E3
100
AcDbEntity
  8
Doc_ Floor
  6
Continuous
100
AcDbMText
 10
208.2157000171881
 20
69.40652257177054
 30
0.0
 40
2.500000000000001
 41
0.0
 71
     4
 72
     1
  1
{PURLIN}
  7
GENERATED_STYLE_1
 73
     1
 44
1.0
  0
LINE
  5
209
330
E3
100
AcDbEntity
  8
Doc_ Floor
  6
Continuous
100
AcDbLine
 10
186.5151331865864
 20
106.8701196556111
 30
0.0
 11
187.7866044535341
 21
103.2216189767449
 31
0.0
  0
LINE
  5
20A
330
E3
100
AcDbEntity
  8
Doc_ Floor
  6
Continuous
100
AcDbLine
 10
186.5151331865864
 20
106.8701196556111
 30
0.0
 11
185.7920072565191
 21
103.0746885151083
 31
0.0
  0
LINE
  5
20B
330
E3
100
AcDbEntity
  8
Doc_ Floor
  6
Continuous
100
AcDbLine
 10
187.7866044535341
 20
103.2216189767449
 30
0.0
 11
185.7920072565191
 21
103.0746885151083
 31
0.0
  0
LWPOLYLINE
  5
20C
330
E3
100
AcDbEntity
  8
Doc_ Floor
  6
Continuous
100
AcDbPolyline
 90
       17
 70
   128
 43
0.0
 10
186.789306205083
 20
103.1481536999406
 10
187.2155750302179
 20
98.62169815716942
 10
187.724472260873
 20
94.47359703652961
 10
188.3225884040974
 20
90.69193902051131
 10
189.0165139669403
 20
87.26481279160478
 10
189.8128394564509
 20
84.18030703230025
 10
190.7181553796782
 20
81.42651042508795
 10
191.7390522436716
 20
78.99151165245812
 10
192.8821205554799
 20
76.86339939690096
 10
194.1539508221526
 20
75.03026234090673
 10
195.5611335507386
 20
73.48018916696563
 10
197.1102592482872
 20
72.20126855756793
 10
198.8079184218474
 20
71.18158919520384
 10
200.6607015784685
 20
70.40923976236357
 10
202.6751992251995
 20
69.8723089415374
 10
204.8580018690897
 20
69.55888541521551
 10
207.2157000171881
 20
69.45705786588819
  0
ENDBLK
  5
E5
330
E3
100
AcDbEntity
  8
0
100
AcDbBlockEnd
  0
BLOCK
  5
212
330
211
100
AcDbEntity
  8
0
100
AcDbBlockBegin
  2
R-TRS9-16 PIPE PENETRATION DETA_STORY_MARKER
 70
     0
 10
0.0
 20
0.0
 30
0.0
  3
R-TRS9-16 PIPE PENETRATION DETA_STORY_MARKER
  1

  0
ENDBLK
  5
213
330
211
100
AcDbEntity
  8
0
100
AcDbBlockEnd
  0
ENDSEC
  0
SECTION
  2
ENTITIES
  0
HATCH
  5
3F
330
1F
100
AcDbEntity
  8
Doc_ Finishes
  6
Continuous
100
AcDbHatch
 10
0.0
 20
0.0
 30
0.0
210
0.0
220
0.0
230
1.0
  2
SOLID
 70
     1
 71
     0
 91
        1
 92
        3
 72
     0
 73
     1
 93
       54
 10
27.4117749414874
 20
16.87044408857867
 10
26.89356552397386
 20
16.5825499677378
 10
26.5480925789648
 20
16.29465584689693
 10
26.12584786839819
 20
16.02595466744544
 10
25.76118198199976
 20
15.60370995687884
 10
25.39651609560134
 20
15.33500877742737
 10
25.07023609198168
 20
14.89357112547136
 10
24.49444785029994
 20
14.45213347351537
 10
23.93785255000758
 20
14.02988876294876
 10
23.43883607388344
 20
13.81876640766546
 10
22.74789018386533
 20
13.39652169709885
 10
22.09533017662603
 20
12.99346992792163
 10
21.63469958328064
 20
12.55203227596564
 10
20.90536781048376
 20
12.12978756539902
 10
20.59828074825351
 20
11.7459287376112
 10
20.04168544796116
 20
11.28529814426581
 10
19.36993249933246
 20
10.8630534336992
 10
18.73656543348255
 20
10.42161578174319
 10
18.04561954346447
 20
10.15291460229172
 10
17.1051654153843
 20
9.692284008946325
 10
16.39502658397681
 20
9.020531060317637
 10
15.83843128368446
 20
8.598286349751023
 10
15.12829245227699
 20
8.137655756405634
 10
14.84039833143612
 20
7.98411222529051
 10
14.37976773809073
 20
7.81137575278599
 10
14.07268067586046
 20
7.523481631945121
 10
14.0151018516923
 20
7.216394569714853
 10
14.14945244141803
 20
6.890114566095209
 10
14.4373465622589
 20
6.563834562475543
 10
14.8787842142149
 20
6.659799269422514
 10
15.51215128006482
 20
7.06285103859973
 10
16.01116775618899
 20
7.389131042219374
 10
16.33744775980864
 20
7.696218104449641
 10
16.51018423231316
 20
7.907340459732938
 10
17.01303929671522
 20
8.421711288968723
 10
17.33548071205699
 20
8.652026585641417
 10
17.75004824606785
 20
8.99749953065046
 10
18.14158425041142
 20
9.204783297655894
 10
19.24709767444037
 20
9.75754000967037
 10
20.23745345013295
 20
10.47151742935572
 10
21.4120614631637
 20
11.1624633193738
 10
21.84966052684182
 20
11.64612544238645
 10
22.49454335752537
 20
12.06069297639732
 10
23.78430901889248
 20
12.9819541630881
 10
24.3600972605742
 20
13.25833251909534
 10
25.6498629219413
 20
14.24868829478776
 10
25.85714668894673
 20
14.64022429913134
 10
26.68628175696843
 20
15.23904407048036
 10
27.28510152831745
 20
15.72270619349301
 10
27.81482671066464
 20
16.1142421978366
 10
28.27545730401003
 20
16.52880973184745
 10
28.22939424467549
 20
16.7821565581874
 10
28.09120506667188
 20
16.89731420652375
 10
27.56147988432467
 20
16.89731420652375
 97
        0
 75
     0
 76
     1
 98
        0
  0
LINE
  5
41
330
1F
100
AcDbEntity
  8
Doc_ Finishes
  6
Continuous
100
AcDbLine
 10
27.41177566876475
 20
16.87044600708104
 30
0.0
 11
26.89356756490952
 21
16.58254868214004
 31
0.0
  0
LINE
  5
42
330
1F
100
AcDbEntity
  8
Doc_ Finishes
  6
Continuous
100
AcDbLine
 10
26.89356756490952
 20
16.58254868214004
 30
0.0
 11
26.54809254523997
 21
16.29465578284815
 31
0.0
  0
LINE
  5
43
330
1F
100
AcDbEntity
  8
Doc_ Finishes
  6
Continuous
100
AcDbLine
 10
26.54809254523997
 20
16.29465578284815
 30
0.0
 11
26.12584579071597
 21
16.02595249803305
 31
0.0
  0
LINE
  5
44
330
1F
100
AcDbEntity
  8
Doc_ Finishes
  6
Continuous
100
AcDbLine
 10
26.12584579071597
 20
16.02595249803305
 30
0.0
 11
25.76118115656963
 21
15.60371016915814
 31
0.0
  0
LINE
  5
45
330
1F
100
AcDbEntity
  8
Doc_ Finishes
  6
Continuous
100
AcDbLine
 10
25.76118115656963
 20
15.60371016915814
 30
0.0
 11
25.39651652242329
 21
15.33500688434304
 31
0.0
  0
LINE
  5
46
330
1F
100
AcDbEntity
  8
Doc_ Finishes
  6
Continuous
100
AcDbLine
 10
25.39651652242329
 20
15.33500688434304
 30
0.0
 11
25.07023554287962
 21
14.89357051534225
 31
0.0
  0
LINE
  5
47
330
1F
100
AcDbEntity
  8
Doc_ Finishes
  6
Continuous
100
AcDbLine
 10
25.07023554287962
 20
14.89357051534225
 30
0.0
 11
24.49444974429583
 21
14.45213414634146
 31
0.0
  0
LINE
  5
48
330
1F
100
AcDbEntity
  8
Doc_ Finishes
  6
Continuous
100
AcDbLine
 10
24.49444974429583
 20
14.45213414634146
 30
0.0
 11
23.93785356018882
 21
14.02988739181747
 31
0.0
  0
LINE
  5
49
330
1F
100
AcDbEntity
  8
Doc_ Finishes
  6
Continuous
100
AcDbLine
 10
23.93785356018882
 20
14.02988739181747
 30
0.0
 11
23.43883507081038
 21
13.81876622738001
 31
0.0
  0
LINE
  5
4A
330
1F
100
AcDbEntity
  8
Doc_ Finishes
  6
Continuous
100
AcDbLine
 10
23.43883507081038
 20
13.81876622738001
 30
0.0
 11
22.74788945712038
 21
13.39652389850511
 31
0.0
  0
LINE
  5
4B
330
1F
100
AcDbEntity
  8
Doc_ Finishes
  6
Continuous
100
AcDbLine
 10
22.74788945712038
 20
13.39652389850511
 30
0.0
 11
22.09533192368214
 21
12.993471184107
 31
0.0
  0
LINE
  5
4C
330
1F
100
AcDbEntity
  8
Doc_ Finishes
  6
Continuous
100
AcDbLine
 10
22.09533192368214
 20
12.993471184107
 30
0.0
 11
21.63470151455547
 21
12.55203038945712
 31
0.0
  0
LINE
  5
4D
330
1F
100
AcDbEntity
  8
Doc_ Finishes
  6
Continuous
100
AcDbLine
 10
21.63470151455547
 20
12.55203038945712
 30
0.0
 11
20.90536782061369
 21
12.12978806058222
 31
0.0
  0
LINE
  5
4E
330
1F
100
AcDbEntity
  8
Doc_ Finishes
  6
Continuous
100
AcDbLine
 10
20.90536782061369
 20
12.12978806058222
 30
0.0
 11
20.59828088119591
 21
11.74592938630999
 31
0.0
  0
LINE
  5
4F
330
1F
100
AcDbEntity
  8
Doc_ Finishes
  6
Continuous
100
AcDbLine
 10
20.59828088119591
 20
11.74592938630999
 30
0.0
 11
20.0416846970889
 21
11.28529897718332
 31
0.0
  0
LINE
  5
50
330
1F
100
AcDbEntity
  8
Doc_ Finishes
  6
Continuous
100
AcDbLine
 10
20.0416846970889
 20
11.28529897718332
 30
0.0
 11
19.36993312352478
 21
10.86305222265932
 31
0.0
  0
LINE
  5
51
330
1F
100
AcDbEntity
  8
Doc_ Finishes
  6
Continuous
100
AcDbLine
 10
19.36993312352478
 20
10.86305222265932
 30
0.0
 11
18.73656520456333
 21
10.42161585365854
 31
0.0
  0
LINE
  5
52
330
1F
100
AcDbEntity
  8
Doc_ Finishes
  6
Continuous
100
AcDbLine
 10
18.73656520456333
 20
10.42161585365854
 30
0.0
 11
18.04561959087333
 21
10.15291256884343
 31
0.0
  0
LINE
  5
53
330
1F
100
AcDbEntity
  8
Doc_ Finishes
  6
Continuous
100
AcDbLine
 10
18.04561959087333
 20
10.15291256884343
 30
0.0
 11
17.1051647324941
 21
9.692282159716758
 31
0.0
  0
LINE
  5
54
330
1F
100
AcDbEntity
  8
Doc_ Finishes
  6
Continuous
100
AcDbLine
 10
17.1051647324941
 20
9.692282159716758
 30
0.0
 11
16.3950250786782
 21
9.020530586152635
 31
0.0
  0
LINE
  5
55
330
1F
100
AcDbEntity
  8
Doc_ Finishes
  6
Continuous
100
AcDbLine
 10
16.3950250786782
 20
9.020530586152635
 30
0.0
 11
15.8384333202203
 21
8.598288257277733
 31
0.0
  0
LINE
  5
56
330
1F
100
AcDbEntity
  8
Doc_ Finishes
  6
Continuous
100
AcDbLine
 10
15.8384333202203
 20
8.598288257277733
 30
0.0
 11
15.1282936664044
 21
8.137657848151063
 31
0.0
  0
LINE
  5
57
330
1F
100
AcDbEntity
  8
Doc_ Finishes
  6
Continuous
100
AcDbLine
 10
15.1282936664044
 20
8.137657848151063
 30
0.0
 11
14.84039634146341
 21
7.984114378442171
 31
0.0
  0
LINE
  5
58
330
1F
100
AcDbEntity
  8
Doc_ Finishes
  6
Continuous
100
AcDbLine
 10
14.84039634146341
 20
7.984114378442171
 30
0.0
 11
14.37976593233674
 21
7.811376868607396
 31
0.0
  0
LINE
  5
59
330
1F
100
AcDbEntity
  8
Doc_ Finishes
  6
Continuous
100
AcDbLine
 10
14.37976593233674
 20
7.811376868607396
 30
0.0
 11
14.07267899291896
 21
7.523479543666405
 31
0.0
  0
LINE
  5
5A
330
1F
100
AcDbEntity
  8
Doc_ Finishes
  6
Continuous
100
AcDbLine
 10
14.07267899291896
 20
7.523479543666405
 30
0.0
 11
14.0151012981904
 21
7.216392604248622
 31
0.0
  0
LINE
  5
5B
330
1F
100
AcDbEntity
  8
Doc_ Finishes
  6
Continuous
100
AcDbLine
 10
14.0151012981904
 20
7.216392604248622
 30
0.0
 11
14.14945072777341
 21
6.890116050354051
 31
0.0
  0
LINE
  5
5C
330
1F
100
AcDbEntity
  8
Doc_ Finishes
  6
Continuous
100
AcDbLine
 10
14.14945072777341
 20
6.890116050354051
 30
0.0
 11
14.4373480527144
 21
6.563835070810386
 31
0.0
  0
LINE
  5
5D
330
1F
100
AcDbEntity
  8
Doc_ Finishes
  6
Continuous
100
AcDbLine
 10
14.4373480527144
 20
6.563835070810386
 30
0.0
 11
14.87878442171519
 21
6.659800845790715
 31
0.0
  0
LINE
  5
5E
330
1F
100
AcDbEntity
  8
Doc_ Finishes
  6
Continuous
100
AcDbLine
 10
14.87878442171519
 20
6.659800845790715
 30
0.0
 11
15.51215234067663
 21
7.062849134539732
 31
0.0
  0
LINE
  5
5F
330
1F
100
AcDbEntity
  8
Doc_ Finishes
  6
Continuous
100
AcDbLine
 10
15.51215234067663
 20
7.062849134539732
 30
0.0
 11
16.01116640440598
 21
7.389130114083398
 31
0.0
  0
LINE
  5
60
330
1F
100
AcDbEntity
  8
Doc_ Finishes
  6
Continuous
100
AcDbLine
 10
16.01116640440598
 20
7.389130114083398
 30
0.0
 11
16.33744738394964
 21
7.69621705350118
 31
0.0
  0
LINE
  5
61
330
1F
100
AcDbEntity
  8
Doc_ Finishes
  6
Continuous
100
AcDbLine
 10
16.33744738394964
 20
7.69621705350118
 30
0.0
 11
16.51018489378442
 21
7.907342643587726
 31
0.0
  0
LINE
  5
62
330
1F
100
AcDbEntity
  8
Doc_ Finishes
  6
Continuous
100
AcDbLine
 10
16.51018489378442
 20
7.907342643587726
 30
0.0
 11
17.0130404209284
 21
8.421709284028323
 31
0.0
  0
LINE
  5
63
330
1F
100
AcDbEntity
  8
Doc_ Finishes
  6
Continuous
100
AcDbLine
 10
17.0130404209284
 20
8.421709284028323
 30
0.0
 11
17.33547993705743
 21
8.65202448859166
 31
0.0
  0
LINE
  5
64
330
1F
100
AcDbEntity
  8
Doc_ Finishes
  6
Continuous
100
AcDbLine
 10
17.33547993705743
 20
8.65202448859166
 30
0.0
 11
17.75004819040126
 21
8.997499508261212
 31
0.0
  0
LINE
  5
65
330
1F
100
AcDbEntity
  8
Doc_ Finishes
  6
Continuous
100
AcDbLine
 10
17.75004819040126
 20
8.997499508261212
 30
0.0
 11
18.14158536585366
 21
9.204783634933122
 31
0.0
  0
LINE
  5
66
330
1F
100
AcDbEntity
  8
Doc_ Finishes
  6
Continuous
100
AcDbLine
 10
18.14158536585366
 20
9.204783634933122
 30
0.0
 11
19.24709923288749
 21
9.75753835562549
 31
0.0
  0
LINE
  5
67
330
1F
100
AcDbEntity
  8
Doc_ Finishes
  6
Continuous
100
AcDbLine
 10
19.24709923288749
 20
9.75753835562549
 30
0.0
 11
20.23745328481511
 21
10.47151947285602
 31
0.0
  0
LINE
  5
68
330
1F
100
AcDbEntity
  8
Doc_ Finishes
  6
Continuous
100
AcDbLine
 10
20.23745328481511
 20
10.47151947285602
 30
0.0
 11
21.41206038552321
 21
11.16246508654602
 31
0.0
  0
LINE
  5
69
330
1F
100
AcDbEntity
  8
Doc_ Finishes
  6
Continuous
100
AcDbLine
 10
21.41206038552321
 20
11.16246508654602
 30
0.0
 11
21.84965971675846
 21
11.64612657356412
 31
0.0
  0
LINE
  5
6A
330
1F
100
AcDbEntity
  8
Doc_ Finishes
  6
Continuous
100
AcDbLine
 10
21.84965971675846
 20
11.64612657356412
 30
0.0
 11
22.49454317466562
 21
12.06069482690795
 31
0.0
  0
LINE
  5
6B
330
1F
100
AcDbEntity
  8
Doc_ Finishes
  6
Continuous
100
AcDbLine
 10
22.49454317466562
 20
12.06069482690795
 30
0.0
 11
23.78431009047993
 21
12.98195564516129
 31
0.0
  0
LINE
  5
6C
330
1F
100
AcDbEntity
  8
Doc_ Finishes
  6
Continuous
100
AcDbLine
 10
23.78431009047993
 20
12.98195564516129
 30
0.0
 11
24.36009588906373
 21
13.25833300550747
 31
0.0
  0
LINE
  5
6D
330
1F
100
AcDbEntity
  8
Doc_ Finishes
  6
Continuous
100
AcDbLine
 10
24.36009588906373
 20
13.25833300550747
 30
0.0
 11
25.64986280487805
 21
14.24868705743509
 31
0.0
  0
LINE
  5
6E
330
1F
100
AcDbEntity
  8
Doc_ Finishes
  6
Continuous
100
AcDbLine
 10
25.64986280487805
 20
14.24868705743509
 30
0.0
 11
25.85714693154996
 21
14.64022423288749
 31
0.0
  0
LINE
  5
6F
330
1F
100
AcDbEntity
  8
Doc_ Finishes
  6
Continuous
100
AcDbLine
 10
25.85714693154996
 20
14.64022423288749
 30
0.0
 11
26.68628343823761
 21
15.2390455350118
 31
0.0
  0
LINE
  5
70
330
1F
100
AcDbEntity
  8
Doc_ Finishes
  6
Continuous
100
AcDbLine
 10
26.68628343823761
 20
15.2390455350118
 30
0.0
 11
27.28510031471282
 21
15.7227070220299
 31
0.0
  0
LINE
  5
71
330
1F
100
AcDbEntity
  8
Doc_ Finishes
  6
Continuous
100
AcDbLine
 10
27.28510031471282
 20
15.7227070220299
 30
0.0
 11
27.81482838316287
 21
16.1142441974823
 31
0.0
  0
LINE
  5
72
330
1F
100
AcDbEntity
  8
Doc_ Finishes
  6
Continuous
100
AcDbLine
 10
27.81482838316287
 20
16.1142441974823
 30
0.0
 11
28.27545879228953
 21
16.52880802517702
 31
0.0
  0
LINE
  5
73
330
1F
100
AcDbEntity
  8
Doc_ Finishes
  6
Continuous
100
AcDbLine
 10
28.27545879228953
 20
16.52880802517702
 30
0.0
 11
28.22939221085759
 21
16.78215873328088
 31
0.0
  0
LINE
  5
74
330
1F
100
AcDbEntity
  8
Doc_ Finishes
  6
Continuous
100
AcDbLine
 10
28.22939221085759
 20
16.78215873328088
 30
0.0
 11
28.09120574350905
 21
16.897314122738
 31
0.0
  0
LINE
  5
75
330
1F
100
AcDbEntity
  8
Doc_ Finishes
  6
Continuous
100
AcDbLine
 10
28.09120574350905
 20
16.897314122738
 30
0.0
 11
27.56147767505901
 21
16.897314122738
 31
0.0
  0
LINE
  5
76
330
1F
100
AcDbEntity
  8
Doc_ Finishes
  6
Continuous
100
AcDbLine
 10
27.56147767505901
 20
16.897314122738
 30
0.0
 11
27.41177566876475
 21
16.87044600708104
 31
0.0
  0
HATCH
  5
77
330
1F
100
AcDbEntity
  8
Doc_ Finishes
  6
Continuous
100
AcDbHatch
 10
0.0
 20
0.0
 30
0.0
210
0.0
220
0.0
230
1.0
  2
SOLID
 70
     1
 71
     0
 91
        1
 92
        3
 72
     0
 73
     1
 93
       39
 10
27.65360600299377
 20
13.12014334109181
 10
27.21600693931564
 20
12.77467039608275
 10
26.54809257896482
 20
12.24494521373555
 10
25.92624127794851
 20
11.85340920939199
 10
25.32742150659951
 20
11.32368402704478
 10
24.72860173525052
 20
11.04730567103754
 10
24.08371890456698
 20
10.56364354802488
 10
23.62308831122158
 20
10.33332825135219
 10
23.231552306878
 20
10.03391836567767
 10
22.81698477286715
 20
9.619350831666825
 10
22.40241723885631
 20
9.38903553499415
 10
21.91875511584363
 20
9.043562589985086
 10
21.66540828950367
 20
8.859310352646935
 10
21.25084075549282
 20
8.582931996639696
 10
20.09926427212933
 20
7.753796928618002
 10
19.75379132712029
 20
7.477418572610764
 10
19.2931607337749
 20
7.316197864939873
 10
19.22406614477309
 20
6.993756449598113
 10
19.3622553227767
 20
6.717378093590874
 10
19.63863367878394
 20
6.602220445254527
 10
20.00713815346026
 20
6.8325357419272
 10
20.26048497980021
 20
7.131945627601722
 10
20.55989486547472
 20
7.362260924274415
 10
21.31993534449462
 20
7.707733869283458
 10
21.84966052684182
 20
8.122301403294307
 10
22.88607936186895
 20
8.882341882314256
 10
23.20852077721072
 20
9.342972475659646
 10
24.01462431556515
 20
9.734508480003234
 10
24.5673810275796
 20
10.05694989534501
 10
25.46561068460312
 20
10.60970660735953
 10
25.88017821861399
 20
11.07033720070492
 10
26.31777728229212
 20
11.34671555671216
 10
26.70931328663569
 20
11.30065249737762
 10
27.21600693931562
 20
11.55399932371759
 10
28.0681735370046
 20
12.17585062473387
 10
28.41364648201364
 20
12.49829204007566
 10
28.39061495234636
 20
12.77467039608289
 10
28.22939424467547
 20
13.00498569275559
 10
28.04514200733732
 20
13.05104875209013
 97
        0
 75
     0
 76
     1
 98
        0
  0
LINE
  5
78
330
1F
100
AcDbEntity
  8
Doc_ Finishes
  6
Continuous
100
AcDbLine
 10
27.6536064122738
 20
13.12014211250983
 30
0.0
 11
27.21600708103855
 21
12.77467151848938
 31
0.0
  0
LINE
  5
79
330
1F
100
AcDbEntity
  8
Doc_ Finishes
  6
Continuous
100
AcDbLine
 10
27.21600708103855
 20
12.77467151848938
 30
0.0
 11
26.54809254523997
 21
12.24494345003934
 31
0.0
  0
LINE
  5
7A
330
1F
100
AcDbEntity
  8
Doc_ Finishes
  6
Continuous
100
AcDbLine
 10
26.54809254523997
 20
12.24494345003934
 30
0.0
 11
25.92624016522423
 21
11.85341070023603
 31
0.0
  0
LINE
  5
7B
330
1F
100
AcDbEntity
  8
Doc_ Finishes
  6
Continuous
100
AcDbLine
 10
25.92624016522423
 20
11.85341070023603
 30
0.0
 11
25.32742328874902
 21
11.32368263178599
 31
0.0
  0
LINE
  5
7C
330
1F
100
AcDbEntity
  8
Doc_ Finishes
  6
Continuous
100
AcDbLine
 10
25.32742328874902
 20
11.32368263178599
 30
0.0
 11
24.72860198662471
 21
11.04730527143981
 31
0.0
  0
LINE
  5
7D
330
1F
100
AcDbEntity
  8
Doc_ Finishes
  6
Continuous
100
AcDbLine
 10
24.72860198662471
 20
11.04730527143981
 30
0.0
 11
24.08371852871754
 21
10.56364378442171
 31
0.0
  0
LINE
  5
7E
330
1F
100
AcDbEntity
  8
Doc_ Finishes
  6
Continuous
100
AcDbLine
 10
24.08371852871754
 20
10.56364378442171
 30
0.0
 11
23.62308811959087
 21
10.33332857985838
 31
0.0
  0
LINE
  5
7F
330
1F
100
AcDbEntity
  8
Doc_ Finishes
  6
Continuous
100
AcDbLine
 10
23.62308811959087
 20
10.33332857985838
 30
0.0
 11
23.23155094413847
 21
10.03392014162077
 31
0.0
  0
LINE
  5
80
330
1F
100
AcDbEntity
  8
Doc_ Finishes
  6
Continuous
100
AcDbLine
 10
23.23155094413847
 20
10.03392014162077
 30
0.0
 11
22.81698269079465
 21
9.619351888276947
 31
0.0
  0
LINE
  5
81
330
1F
100
AcDbEntity
  8
Doc_ Finishes
  6
Continuous
100
AcDbLine
 10
22.81698269079465
 20
9.619351888276947
 30
0.0
 11
22.40241886309992
 21
9.389036683713611
 31
0.0
  0
LINE
  5
82
330
1F
100
AcDbEntity
  8
Doc_ Finishes
  6
Continuous
100
AcDbLine
 10
22.40241886309992
 20
9.389036683713611
 30
0.0
 11
21.91875295043273
 21
9.04356166404406
 31
0.0
  0
LINE
  5
83
330
1F
100
AcDbEntity
  8
Doc_ Finishes
  6
Continuous
100
AcDbLine
 10
21.91875295043273
 20
9.04356166404406
 30
0.0
 11
21.66540666797797
 21
8.859308615263572
 31
0.0
  0
LINE
  5
84
330
1F
100
AcDbEntity
  8
Doc_ Finishes
  6
Continuous
100
AcDbLine
 10
21.66540666797797
 20
8.859308615263572
 30
0.0
 11
21.25084284028324
 21
8.582931254917387
 31
0.0
  0
LINE
  5
85
330
1F
100
AcDbEntity
  8
Doc_ Finishes
  6
Continuous
100
AcDbLine
 10
21.25084284028324
 20
8.582931254917387
 30
0.0
 11
20.09926239181747
 21
7.75379474822974
 31
0.0
  0
LINE
  5
86
330
1F
100
AcDbEntity
  8
Doc_ Finishes
  6
Continuous
100
AcDbLine
 10
20.09926239181747
 20
7.75379474822974
 30
0.0
 11
19.75379179779701
 21
7.477417387883556
 31
0.0
  0
LINE
  5
87
330
1F
100
AcDbEntity
  8
Doc_ Finishes
  6
Continuous
100
AcDbLine
 10
19.75379179779701
 20
7.477417387883556
 30
0.0
 11
19.29316138867033
 21
7.316199842643588
 31
0.0
  0
LINE
  5
88
330
1F
100
AcDbEntity
  8
Doc_ Finishes
  6
Continuous
100
AcDbLine
 10
19.29316138867033
 20
7.316199842643588
 30
0.0
 11
19.22406815499606
 21
6.993755900865461
 31
0.0
  0
LINE
  5
89
330
1F
100
AcDbEntity
  8
Doc_ Finishes
  6
Continuous
100
AcDbLine
 10
19.22406815499606
 20
6.993755900865461
 30
0.0
 11
19.36225462234461
 21
6.717378540519276
 31
0.0
  0
LINE
  5
8A
330
1F
100
AcDbEntity
  8
Doc_ Finishes
  6
Continuous
100
AcDbLine
 10
19.36225462234461
 20
6.717378540519276
 30
0.0
 11
19.63863198269079
 21
6.602218725413059
 31
0.0
  0
LINE
  5
8B
330
1F
100
AcDbEntity
  8
Doc_ Finishes
  6
Continuous
100
AcDbLine
 10
19.63863198269079
 20
6.602218725413059
 30
0.0
 11
20.00713808025177
 21
6.832533929976396
 31
0.0
  0
LINE
  5
8C
330
1F
100
AcDbEntity
  8
Doc_ Finishes
  6
Continuous
100
AcDbLine
 10
20.00713808025177
 20
6.832533929976396
 30
0.0
 11
20.26048436270653
 21
7.1319467938631
 31
0.0
  0
LINE
  5
8D
330
1F
100
AcDbEntity
  8
Doc_ Finishes
  6
Continuous
100
AcDbLine
 10
20.26048436270653
 20
7.1319467938631
 30
0.0
 11
20.55989280094414
 21
7.362261998426435
 31
0.0
  0
LINE
  5
8E
330
1F
100
AcDbEntity
  8
Doc_ Finishes
  6
Continuous
100
AcDbLine
 10
20.55989280094414
 20
7.362261998426435
 30
0.0
 11
21.31993607395751
 21
7.707732592446892
 31
0.0
  0
LINE
  5
8F
330
1F
100
AcDbEntity
  8
Doc_ Finishes
  6
Continuous
100
AcDbLine
 10
21.31993607395751
 20
7.707732592446892
 30
0.0
 11
21.84965971675846
 21
8.122300845790717
 31
0.0
  0
LINE
  5
90
330
1F
100
AcDbEntity
  8
Doc_ Finishes
  6
Continuous
100
AcDbLine
 10
21.84965971675846
 20
8.122300845790717
 30
0.0
 11
22.88608035011802
 21
8.882339693154996
 31
0.0
  0
LINE
  5
91
330
1F
100
AcDbEntity
  8
Doc_ Finishes
  6
Continuous
100
AcDbLine
 10
22.88608035011802
 20
8.882339693154996
 30
0.0
 11
23.20851986624705
 21
9.342974527930762
 31
0.0
  0
LINE
  5
92
330
1F
100
AcDbEntity
  8
Doc_ Finishes
  6
Continuous
100
AcDbLine
 10
23.20851986624705
 20
9.342974527930762
 30
0.0
 11
24.01462529504327
 21
9.734507277734066
 31
0.0
  0
LINE
  5
93
330
1F
100
AcDbEntity
  8
Doc_ Finishes
  6
Continuous
100
AcDbLine
 10
24.01462529504327
 20
9.734507277734066
 30
0.0
 11
24.56738001573564
 21
10.05695121951219
 31
0.0
  0
LINE
  5
94
330
1F
100
AcDbEntity
  8
Doc_ Finishes
  6
Continuous
100
AcDbLine
 10
24.56738001573564
 20
10.05695121951219
 30
0.0
 11
25.46560975609756
 21
10.60970594020456
 31
0.0
  0
LINE
  5
95
330
1F
100
AcDbEntity
  8
Doc_ Finishes
  6
Continuous
100
AcDbLine
 10
25.46560975609756
 20
10.60970594020456
 30
0.0
 11
25.88017800944139
 21
11.07033634933124
 31
0.0
  0
LINE
  5
96
330
1F
100
AcDbEntity
  8
Doc_ Finishes
  6
Continuous
100
AcDbLine
 10
25.88017800944139
 20
11.07033634933124
 30
0.0
 11
26.31777734067663
 21
11.34671370967742
 31
0.0
  0
LINE
  5
97
330
1F
100
AcDbEntity
  8
Doc_ Finishes
  6
Continuous
100
AcDbLine
 10
26.31777734067663
 20
11.34671370967742
 30
0.0
 11
26.70931451612903
 21
11.30065155389457
 31
0.0
  0
LINE
  5
98
330
1F
100
AcDbEntity
  8
Doc_ Finishes
  6
Continuous
100
AcDbLine
 10
26.70931451612903
 20
11.30065155389457
 30
0.0
 11
27.21600708103855
 21
11.55399783634933
 31
0.0
  0
LINE
  5
99
330
1F
100
AcDbEntity
  8
Doc_ Finishes
  6
Continuous
100
AcDbLine
 10
27.21600708103855
 20
11.55399783634933
 30
0.0
 11
28.06817466561763
 21
12.17585021636507
 31
0.0
  0
LINE
  5
9A
330
1F
100
AcDbEntity
  8
Doc_ Finishes
  6
Continuous
100
AcDbLine
 10
28.06817466561763
 20
12.17585021636507
 30
0.0
 11
28.41364525963808
 21
12.49829415814319
 31
0.0
  0
LINE
  5
9B
330
1F
100
AcDbEntity
  8
Doc_ Finishes
  6
Continuous
100
AcDbLine
 10
28.41364525963808
 20
12.49829415814319
 30
0.0
 11
28.39061418174666
 21
12.77467151848938
 31
0.0
  0
LINE
  5
9C
330
1F
100
AcDbEntity
  8
Doc_ Finishes
  6
Continuous
100
AcDbLine
 10
28.39061418174666
 20
12.77467151848938
 30
0.0
 11
28.22939221085759
 21
13.00498672305271
 31
0.0
  0
LINE
  5
9D
330
1F
100
AcDbEntity
  8
Doc_ Finishes
  6
Continuous
100
AcDbLine
 10
28.22939221085759
 20
13.00498672305271
 30
0.0
 11
28.04514358772619
 21
13.05104887883556
 31
0.0
  0
LINE
  5
9E
330
1F
100
AcDbEntity
  8
Doc_ Finishes
  6
Continuous
100
AcDbLine
 10
28.04514358772619
 20
13.05104887883556
 30
0.0
 11
27.6536064122738
 21
13.12014211250983
 31
0.0
  0
HATCH
  5
9F
330
1F
100
AcDbEntity
  8
Doc_ Finishes
  6
Continuous
100
AcDbHatch
 10
0.0
 20
0.0
 30
0.0
210
0.0
220
0.0
230
1.0
  2
SOLID
 70
     1
 71
     0
 91
        1
 92
        3
 72
     0
 73
     1
 93
       47
 10
28.06817353700456
 20
15.74573772316067
 10
28.30309513961077
 20
15.62136746295728
 10
28.4412843176144
 20
15.4002647781515
 10
28.93876535842742
 20
15.17916209334572
 10
29.82317609765057
 20
14.40530269652538
 10
30.92868952167951
 20
13.74199464210799
 10
31.59199757609689
 20
13.3827027792986
 10
32.20002995931279
 20
13.07868658769064
 10
33.55428390374828
 20
12.08372450606458
 10
34.07940278016201
 20
11.69679480765445
 10
34.88090001258301
 20
11.08876242443854
 10
35.59948373820179
 20
10.50836787682334
 10
36.5668079842271
 20
9.817421986805197
 10
37.06428902504012
 20
9.458130123995785
 10
37.81051058625966
 20
8.933011247582023
 10
38.61200781868061
 20
8.407892371168286
 10
38.77783483228498
 20
8.186789686362482
 10
39.38586721550092
 20
7.744584316750918
 10
40.18736444792187
 20
6.915449248729224
 10
40.7953968311378
 20
6.44560604351692
 10
41.56925622795804
 20
6.169227687509681
 10
42.23256428237543
 20
6.086314180707507
 10
42.48130480278193
 20
6.30741686551329
 10
42.14965077557326
 20
6.611433057121246
 10
41.48634272115586
 20
6.998362755531397
 10
40.76775899553709
 20
7.357654618340788
 10
40.18736444792187
 20
8.048600508358874
 10
38.99893751709079
 20
8.822459905179112
 10
38.47381864067705
 20
9.319940945992132
 10
38.22507812027052
 20
9.734508480003
 10
37.17484036744301
 20
10.31490302761817
 10
36.73263499783144
 20
10.78474623283046
 10
36.2351539570184
 20
11.17167593124059
 10
35.48893239579888
 20
11.61388130085215
 10
34.85326217698223
 20
12.16663801286669
 10
34.35578113616919
 20
12.58120554687754
 10
33.69247308175183
 20
12.99577308088841
 10
33.22262987653953
 20
13.32742710809708
 10
32.7251488357265
 20
13.5761676285036
 10
31.93747052110588
 20
14.06443605744977
 10
31.43077686842594
 20
14.38687747279155
 10
30.92408321574601
 20
14.70931888813342
 10
30.62467333007151
 20
15.100854892477
 10
29.95675896972068
 20
15.67664313415887
 10
29.47309684670803
 20
15.9530214901661
 10
28.82821401602447
 20
16.36758902417695
 10
28.50577260068269
 20
16.22939984617334
 97
        0
 75
     0
 76
     1
 98
        0
  0
LINE
  5
A0
330
1F
100
AcDbEntity
  8
Doc_ Finishes
  6
Continuous
100
AcDbLine
 10
28.30309697088906
 20
15.62136850904799
 30
0.0
 11
28.06817466561763
 21
15.74573809992132
 31
0.0
  0
LINE
  5
A1
330
1F
100
AcDbEntity
  8
Doc_ Finishes
  6
Continuous
100
AcDbLine
 10
28.44128343823761
 20
15.40026308025177
 30
0.0
 11
28.30309697088906
 21
15.62136850904799
 31
0.0
  0
LINE
  5
A2
330
1F
100
AcDbEntity
  8
Doc_ Finishes
  6
Continuous
100
AcDbLine
 10
28.93876622738001
 20
15.17916207710464
 30
0.0
 11
28.44128343823761
 21
15.40026308025177
 31
0.0
  0
LINE
  5
A3
330
1F
100
AcDbEntity
  8
Doc_ Finishes
  6
Continuous
100
AcDbLine
 10
29.82317466561762
 20
14.40530192761605
 30
0.0
 11
28.93876622738001
 21
15.17916207710464
 31
0.0
  0
LINE
  5
A4
330
1F
100
AcDbEntity
  8
Doc_ Finishes
  6
Continuous
100
AcDbLine
 10
30.92868853265146
 20
13.74199449252557
 30
0.0
 11
29.82317466561762
 21
14.40530192761605
 31
0.0
  0
LINE
  5
A5
330
1F
100
AcDbEntity
  8
Doc_ Finishes
  6
Continuous
100
AcDbLine
 10
31.59199596774193
 20
13.3827025963808
 30
0.0
 11
30.92868853265146
 21
13.74199449252557
 31
0.0
  0
LINE
  5
A6
330
1F
100
AcDbEntity
  8
Doc_ Finishes
  6
Continuous
100
AcDbLine
 10
32.20003147128246
 20
13.07868705743509
 30
0.0
 11
31.59199596774193
 21
13.3827025963808
 31
0.0
  0
LINE
  5
A7
330
1F
100
AcDbEntity
  8
Doc_ Finishes
  6
Continuous
100
AcDbLine
 10
33.55428452006294
 20
12.08372590479937
 30
0.0
 11
32.20003147128246
 21
13.07868705743509
 31
0.0
  0
LINE
  5
A8
330
1F
100
AcDbEntity
  8
Doc_ Finishes
  6
Continuous
100
AcDbLine
 10
34.07940106215578
 20
11.69679583005508
 30
0.0
 11
33.55428452006294
 21
12.08372590479937
 31
0.0
  0
LINE
  5
A9
330
1F
100
AcDbEntity
  8
Doc_ Finishes
  6
Continuous
100
AcDbLine
 10
34.8808993902439
 20
11.08876032651456
 30
0.0
 11
34.07940106215578
 21
11.69679583005508
 31
0.0
  0
LINE
  5
AA
330
1F
100
AcDbEntity
  8
Doc_ Finishes
  6
Continuous
100
AcDbLine
 10
35.59948318253343
 20
10.50836742722266
 30
0.0
 11
34.8808993902439
 21
11.08876032651456
 31
0.0
  0
LINE
  5
AB
330
1F
100
AcDbEntity
  8
Doc_ Finishes
  6
Continuous
100
AcDbLine
 10
36.56680615656963
 20
9.817421813532652
 30
0.0
 11
35.59948318253343
 21
10.50836742722266
 31
0.0
  0
LINE
  5
AC
330
1F
100
AcDbEntity
  8
Doc_ Finishes
  6
Continuous
100
AcDbLine
 10
37.06428894571204
 20
9.458129917387884
 30
0.0
 11
36.56680615656963
 21
9.817421813532652
 31
0.0
  0
LINE
  5
AD
330
1F
100
AcDbEntity
  8
Doc_ Finishes
  6
Continuous
100
AcDbLine
 10
37.8105109166011
 20
8.933013375295044
 30
0.0
 11
37.06428894571204
 21
9.458129917387884
 31
0.0
  0
LINE
  5
AE
330
1F
100
AcDbEntity
  8
Doc_ Finishes
  6
Continuous
100
AcDbLine
 10
38.61200924468922
 20
8.407892407553108
 30
0.0
 11
37.8105109166011
 21
8.933013375295044
 31
0.0
  0
LINE
  5
AF
330
1F
100
AcDbEntity
  8
Doc_ Finishes
  6
Continuous
100
AcDbLine
 10
38.77783389063729
 20
8.18679140440598
 30
0.0
 11
38.61200924468922
 21
8.407892407553108
 31
0.0
  0
LINE
  5
B0
330
1F
100
AcDbEntity
  8
Doc_ Finishes
  6
Continuous
100
AcDbLine
 10
39.3858693941778
 20
7.744584972462627
 30
0.0
 11
38.77783389063729
 21
8.18679140440598
 31
0.0
  0
LINE
  5
B1
330
1F
100
AcDbEntity
  8
Doc_ Finishes
  6
Continuous
100
AcDbLine
 10
40.18736329661684
 20
6.915448465774981
 30
0.0
 11
39.3858693941778
 21
7.744584972462627
 31
0.0
  0
LINE
  5
B2
330
1F
100
AcDbEntity
  8
Doc_ Finishes
  6
Continuous
100
AcDbLine
 10
40.79539880015735
 20
6.4456038552321
 30
0.0
 11
40.18736329661684
 21
6.915448465774981
 31
0.0
  0
LINE
  5
B3
330
1F
100
AcDbEntity
  8
Doc_ Finishes
  6
Continuous
100
AcDbLine
 10
41.56925452399685
 20
6.169226494885916
 30
0.0
 11
40.79539880015735
 21
6.4456038552321
 31
0.0
  0
LINE
  5
B4
330
1F
100
AcDbEntity
  8
Doc_ Finishes
  6
Continuous
100
AcDbLine
 10
42.23256638473643
 20
6.086316384736428
 30
0.0
 11
41.56925452399685
 21
6.169226494885916
 31
0.0
  0
LINE
  5
B5
330
1F
100
AcDbEntity
  8
Doc_ Finishes
  6
Continuous
100
AcDbLine
 10
42.48130556648308
 20
6.307417387883556
 30
0.0
 11
42.23256638473643
 21
6.086316384736428
 31
0.0
  0
LINE
  5
B6
330
1F
100
AcDbEntity
  8
Doc_ Finishes
  6
Continuous
100
AcDbLine
 10
42.14965184893784
 20
6.611432926829268
 30
0.0
 11
42.48130556648308
 21
6.307417387883556
 31
0.0
  0
LINE
  5
B7
330
1F
100
AcDbEntity
  8
Doc_ Finishes
  6
Continuous
100
AcDbLine
 10
41.48634441384736
 20
6.998363001573564
 30
0.0
 11
42.14965184893784
 21
6.611432926829268
 31
0.0
  0
LINE
  5
B8
330
1F
100
AcDbEntity
  8
Doc_ Finishes
  6
Continuous
100
AcDbLine
 10
40.76776062155783
 20
7.357654897718332
 30
0.0
 11
41.48634441384736
 21
6.998363001573564
 31
0.0
  0
LINE
  5
B9
330
1F
100
AcDbEntity
  8
Doc_ Finishes
  6
Continuous
100
AcDbLine
 10
40.18736329661684
 20
8.048600511408338
 30
0.0
 11
40.76776062155783
 21
7.357654897718332
 31
0.0
  0
LINE
  5
BA
330
1F
100
AcDbEntity
  8
Doc_ Finishes
  6
Continuous
100
AcDbLine
 10
38.99893931943352
 20
8.822460660896931
 30
0.0
 11
40.18736329661684
 21
8.048600511408338
 31
0.0
  0
LINE
  5
BB
330
1F
100
AcDbEntity
  8
Doc_ Finishes
  6
Continuous
100
AcDbLine
 10
38.47381835169158
 20
9.319939024390242
 30
0.0
 11
38.99893931943352
 21
8.822460660896931
 31
0.0
  0
LINE
  5
BC
330
1F
100
AcDbEntity
  8
Doc_ Finishes
  6
Continuous
100
AcDbLine
 10
38.22507916994492
 20
9.734507277734066
 30
0.0
 11
38.47381835169158
 21
9.319939024390242
 31
0.0
  0
LINE
  5
BD
330
1F
100
AcDbEntity
  8
Doc_ Finishes
  6
Continuous
100
AcDbLine
 10
37.17484166011014
 20
10.31490460267506
 30
0.0
 11
38.22507916994492
 21
9.734507277734066
 31
0.0
  0
LINE
  5
BE
330
1F
100
AcDbEntity
  8
Doc_ Finishes
  6
Continuous
100
AcDbLine
 10
36.7326352281668
 20
10.78474478756884
 30
0.0
 11
37.17484166011014
 21
10.31490460267506
 31
0.0
  0
LINE
  5
BF
330
1F
100
AcDbEntity
  8
Doc_ Finishes
  6
Continuous
100
AcDbLine
 10
36.23515243902439
 20
11.17167486231314
 30
0.0
 11
36.7326352281668
 21
10.78474478756884
 31
0.0
  0
LINE
  5
C0
330
1F
100
AcDbEntity
  8
Doc_ Finishes
  6
Continuous
100
AcDbLine
 10
35.48893046813532
 20
11.61388129425649
 30
0.0
 11
36.23515243902439
 21
11.17167486231314
 31
0.0
  0
LINE
  5
C1
330
1F
100
AcDbEntity
  8
Doc_ Finishes
  6
Continuous
100
AcDbLine
 10
34.85326121164437
 20
12.16663601494886
 30
0.0
 11
35.48893046813532
 21
11.61388129425649
 31
0.0
  0
LINE
  5
C2
330
1F
100
AcDbEntity
  8
Doc_ Finishes
  6
Continuous
100
AcDbLine
 10
34.35578284815106
 20
12.58120426829268
 30
0.0
 11
34.85326121164437
 21
12.16663601494886
 31
0.0
  0
LINE
  5
C3
330
1F
100
AcDbEntity
  8
Doc_ Finishes
  6
Continuous
100
AcDbLine
 10
33.69247098741149
 20
12.99577252163651
 30
0.0
 11
34.35578284815106
 21
12.58120426829268
 31
0.0
  0
LINE
  5
C4
330
1F
100
AcDbEntity
  8
Doc_ Finishes
  6
Continuous
100
AcDbLine
 10
33.2226308025177
 20
13.32742623918175
 30
0.0
 11
33.69247098741149
 21
12.99577252163651
 31
0.0
  0
LINE
  5
C5
330
1F
100
AcDbEntity
  8
Doc_ Finishes
  6
Continuous
100
AcDbLine
 10
32.7251480133753
 20
13.5761654209284
 30
0.0
 11
33.2226308025177
 21
13.32742623918175
 31
0.0
  0
LINE
  5
C6
330
1F
100
AcDbEntity
  8
Doc_ Finishes
  6
Continuous
100
AcDbLine
 10
31.93747098741148
 20
14.0644340086546
 30
0.0
 11
32.7251480133753
 21
13.5761654209284
 31
0.0
  0
LINE
  5
C7
330
1F
100
AcDbEntity
  8
Doc_ Finishes
  6
Continuous
100
AcDbLine
 10
31.43077842250197
 20
14.38687795043273
 30
0.0
 11
31.93747098741148
 21
14.0644340086546
 31
0.0
  0
LINE
  5
C8
330
1F
100
AcDbEntity
  8
Doc_ Finishes
  6
Continuous
100
AcDbLine
 10
30.92408143194335
 20
14.70931746656176
 30
0.0
 11
31.43077842250197
 21
14.38687795043273
 31
0.0
  0
LINE
  5
C9
330
1F
100
AcDbEntity
  8
Doc_ Finishes
  6
Continuous
100
AcDbLine
 10
30.62467299370574
 20
15.10085464201416
 30
0.0
 11
30.92408143194335
 21
14.70931746656176
 31
0.0
  0
LINE
  5
CA
330
1F
100
AcDbEntity
  8
Doc_ Finishes
  6
Continuous
100
AcDbLine
 10
29.95675845790716
 20
15.67664486624705
 30
0.0
 11
30.62467299370574
 21
15.10085464201416
 31
0.0
  0
LINE
  5
CB
330
1F
100
AcDbEntity
  8
Doc_ Finishes
  6
Continuous
100
AcDbLine
 10
29.47309697088906
 20
15.95302222659323
 30
0.0
 11
29.95675845790716
 21
15.67664486624705
 31
0.0
  0
LINE
  5
CC
330
1F
100
AcDbEntity
  8
Doc_ Finishes
  6
Continuous
100
AcDbLine
 10
28.8282135129819
 20
16.36759047993706
 30
0.0
 11
29.47309697088906
 21
15.95302222659323
 31
0.0
  0
LINE
  5
CD
330
1F
100
AcDbEntity
  8
Doc_ Finishes
  6
Continuous
100
AcDbLine
 10
28.50577399685287
 20
16.22939958693942
 30
0.0
 11
28.8282135129819
 21
16.36759047993706
 31
0.0
  0
LINE
  5
CE
330
1F
100
AcDbEntity
  8
Doc_ Finishes
  6
Continuous
100
AcDbLine
 10
28.06817466561763
 20
15.74573809992132
 30
0.0
 11
28.50577399685287
 21
16.22939958693942
 31
0.0
  0
LINE
  5
CF
330
1F
100
AcDbEntity
  8
Doc_ Finishes
  6
Continuous
 62
   254
370
    18
100
AcDbLine
 10
97.43333792289535
 20
5.093360051140834
 30
0.0
 11
97.43333792289535
 21
20.69901750590086
 31
0.0
  0
LINE
  5
D0
330
1F
100
AcDbEntity
  8
Doc_ Finishes
  6
Continuous
 62
   254
370
    18
100
AcDbLine
 10
7.000000491738787
 20
20.69901750590086
 30
0.0
 11
290.2406840086546
 21
20.69901750590086
 31
0.0
  0
LINE
  5
D1
330
1F
100
AcDbEntity
  8
Doc_ Finishes
  6
Continuous
 62
   254
370
    18
100
AcDbLine
 10
290.2406840086546
 20
20.69901750590086
 30
0.0
 11
290.2406840086546
 21
5.000000983477577
 31
0.0
  0
LINE
  5
D2
330
1F
100
AcDbEntity
  8
Doc_ Finishes
  6
Continuous
 62
   254
370
    18
100
AcDbLine
 10
290.2406840086546
 20
5.000000983477577
 30
0.0
 11
7.000000491738787
 21
5.000000983477577
 31
0.0
  0
LINE
  5
D3
330
1F
100
AcDbEntity
  8
Doc_ Finishes
  6
Continuous
 62
   254
370
    18
100
AcDbLine
 10
7.000000491738787
 20
20.69901750590086
 30
0.0
 11
7.000000491738787
 21
5.000000983477577
 31
0.0
  0
LINE
  5
D4
330
1F
100
AcDbEntity
  8
Doc_ Finishes
  6
Continuous
 62
   254
370
    18
100
AcDbLine
 10
190.2919443351691
 20
5.093360051140834
 30
0.0
 11
190.2919443351691
 21
20.69901750590086
 31
0.0
  0
LINE
  5
D5
330
1F
100
AcDbEntity
  8
Doc_ Finishes
  6
Continuous
 62
   254
370
    18
100
AcDbLine
 10
190.2919443351691
 20
12.8961909913454
 30
0.0
 11
290.2406840086546
 21
12.8961909913454
 31
0.0
  0
MTEXT
  5
D7
330
1F
100
AcDbEntity
  8
0
  6
Continuous
100
AcDbMText
 10
210.3494767103412
 20
15.00228492609298
 30
0.0
 40
2.25
 41
0.0
 71
     7
 72
     1
  1
{R-TRS9-16}
  7
GENERATED_STYLE_1
 73
     1
 44
1.0
  0
MTEXT
  5
D8
330
1F
100
AcDbEntity
  8
0
  6
Continuous
100
AcDbMText
 10
210.3494767103412
 20
11.03300550383743
 30
0.0
 40
3.0
 41
0.0
 71
     1
 72
     1
  1
{PIPE PENETRATION DETAIL - SECTIONAL}
  7
GENERATED_STYLE_1
 73
     1
 44
1.0
  0
MTEXT
  5
DA
330
1F
100
AcDbEntity
  8
Doc_ Floor
  6
Continuous
100
AcDbMText
 10
29.78353726544612
 20
13.33283672870609
 30
0.0
 40
5.603347280334726
 41
0.0
 71
     1
 72
     1
  1
{The Roofing Store}
  7
GENERATED_STYLE_2
 73
     1
 44
1.0
  0
MTEXT
  5
DC
102
{ACAD_XDICTIONARY
360
23F
102
}
330
1F
100
AcDbEntity
  8
0
  6
Continuous
100
AcDbMText
 10
102.7389238446655
 20
6.378784417288159
 30
0.0
 40
1.5
 41
0.0
 71
     7
 72
     1
  1
{P: HEAD OFFICE              09 277 2717\P    ALBANY             09 972 0060\P    KATIKAIT            07 549 5190\P    WELLINGTON              04 974 5792\P    CHRISTCHURCH          03 348 6528}
  7
GENERATED_STYLE_1
 73
     1
 44
1.062946161486498
  0
MTEXT
  5
DD
330
1F
100
AcDbEntity
  8
0
  6
Continuous
100
AcDbMText
 10
149.4184566143587
 20
9.199084231526156
 30
0.0
 40
1.5
 41
0.0
 71
     7
 72
     1
  1
{WEB: www.theroofingstore.co.nz}
  7
GENERATED_STYLE_1
 73
     1
 44
1.0
  0
MTEXT
  5
DE
330
1F
100
AcDbEntity
  8
0
  6
Continuous
100
AcDbMText
 10
149.4184566143587
 20
6.620946023411263
 30
0.0
 40
1.5
 41
0.0
 71
     7
 72
     1
  1
{Copyright \U+00A9 The Roofing Store 2013}
  7
GENERATED_STYLE_1
 73
     1
 44
1.0
  0
MTEXT
  5
DF
330
1F
100
AcDbEntity
  8
0
  6
Continuous
100
AcDbMText
 10
273.9546684065315
 20
15.01595325993831
 30
0.0
 40
2.25
 41
0.0
 71
     7
 72
     1
  1
{1:5}
  7
GENERATED_STYLE_1
 73
     1
 44
1.0
  0
MTEXT
  5
E0
330
1F
100
AcDbEntity
  8
0
  6
Continuous
100
AcDbMText
 10
264.8396605309016
 20
15.51746459162148
 30
0.0
 40
1.5
 41
0.0
 71
     7
 72
     1
  1
{SCALE:}
  7
GENERATED_STYLE_1
 73
     1
 44
1.0
  0
MTEXT
  5
E1
330
1F
100
AcDbEntity
  8
0
  6
Continuous
100
AcDbMText
 10
191.5066235617487
 20
15.48695559872207
 30
0.0
 40
1.5
 41
0.0
 71
     7
 72
     1
  1
{DETAIL NUMBER:}
  7
GENERATED_STYLE_1
 73
     1
 44
1.0
  0
MTEXT
  5
E2
330
1F
100
AcDbEntity
  8
0
  6
Continuous
100
AcDbMText
 10
191.5066235617487
 20
9.005462392315325
 30
0.0
 40
1.5
 41
0.0
 71
     7
 72
     1
  1
{TITLE:}
  7
GENERATED_STYLE_1
 73
     1
 44
1.0
  0
INSERT
  5
20D
102
{ACAD_XDICTIONARY
360
20E
102
}
330
1F
100
AcDbEntity
  8
0
  6
Continuous
100
AcDbBlockReference
  2
Drawing_1_2
 10
141.8946852868089
 20
118.9470158502411
 30
0.0
  0
ENDSEC
  0
SECTION
  2
OBJECTS
  0
DICTIONARY
  5
C
330
0
100
AcDbDictionary
281
     1
  3
ACAD_GROUP
350
D
  3
ACAD_LAYOUT
350
1A
  3
ACAD_MATERIAL
350
3B
  3
ACAD_MLEADERSTYLE
350
23A
  3
ACAD_MLINESTYLE
350
17
  3
ACAD_PLOTSETTINGS
350
19
  3
ACAD_PLOTSTYLENAME
350
E
  3
ACAD_SCALELIST
350
214
  3
ACAD_VISUALSTYLE
350
2A
  3
AcDbVariableDictionary
350
238
  3
WATERMARKS
350
236
  0
DICTIONARY
  5
23F
330
DC
100
AcDbDictionary
280
     1
281
     1
  3
ACAD_MTEXT_RT
360
240
  0
DICTIONARY
  5
20E
330
20D
100
AcDbDictionary
280
     1
281
     1
  3
ACAD_FILTER
360
20F
  0
DICTIONARY
  5
D
102
{ACAD_REACTORS
330
C
102
}
330
C
100
AcDbDictionary
281
     1
  0
DICTIONARY
  5
1A
102
{ACAD_REACTORS
330
C
102
}
330
C
100
AcDbDictionary
281
     1
  3
Layout1
350
1E
  3
Model
350
22
  0
DICTIONARY
  5
3B
102
{ACAD_REACTORS
330
C
102
}
330
C
100
AcDbDictionary
281
     1
  3
ByBlock
350
3D
  3
ByLayer
350
3C
  3
Global
350
3E
  0
DICTIONARY
  5
23A
102
{ACAD_REACTORS
330
C
102
}
330
C
100
AcDbDictionary
281
     1
  0
DICTIONARY
  5
17
102
{ACAD_REACTORS
330
C
102
}
330
C
100
AcDbDictionary
281
     1
  3
Standard
350
18
  0
DICTIONARY
  5
19
102
{ACAD_REACTORS
330
C
102
}
330
C
100
AcDbDictionary
281
     1
  0
ACDBDICTIONARYWDFLT
  5
E
102
{ACAD_REACTORS
330
C
102
}
330
C
100
AcDbDictionary
281
     1
  3
Normal
350
F
100
AcDbDictionaryWithDefault
340
F
  0
DICTIONARY
  5
214
102
{ACAD_REACTORS
330
C
102
}
330
C
100
AcDbDictionary
281
     1
  3
A0
350
215
  3
A1
350
216
  3
A2
350
217
  3
A3
350
218
  3
A4
350
219
  3
A5
350
21A
  3
A6
350
21B
  3
A7
350
21C
  3
A8
350
21D
  3
A9
350
21E
  3
B0
350
21F
  3
B1
350
220
  3
B2
350
221
  3
B3
350
222
  3
B4
350
223
  3
B5
350
224
  3
B6
350
225
  3
B7
350
226
  3
B8
350
227
  3
B9
350
228
  3
C0
350
229
  3
C1
350
22A
  3
C2
350
22B
  3
C3
350
22C
  3
C4
350
22D
  3
C5
350
22E
  3
C6
350
22F
  3
C7
350
230
  3
C8
350
231
  3
C9
350
232
  3
D0
350
233
  3
D1
350
234
  3
D2
350
235
  0
DICTIONARY
  5
2A
102
{ACAD_REACTORS
330
C
102
}
330
C
100
AcDbDictionary
281
     1
  3
2dWireframe
350
2F
  3
3D Hidden
350
31
  3
3dWireframe
350
30
  3
Basic
350
32
  3
Brighten
350
36
  3
ColorChange
350
3A
  3
Conceptual
350
34
  3
Dim
350
35
  3
Facepattern
350
39
  3
Flat
350
2B
  3
FlatWithEdges
350
2C
  3
Gouraud
350
2D
  3
GouraudWithEdges
350
2E
  3
Linepattern
350
38
  3
Realistic
350
33
  3
Thicken
350
37
  0
DICTIONARY
  5
238
102
{ACAD_REACTORS
330
C
102
}
330
C
100
AcDbDictionary
281
     1
  3
CANNOSCALE
350
23C
  3
DIMASSOC
350
23D
  3
HIDETEXT
350
23E
  3
XCLIPFRAME
350
23B
  0
DICTIONARY
  5
236
102
{ACAD_REACTORS
330
C
102
}
330
C
100
AcDbDictionary
281
     1
  3
AC_WATERMARK
350
237
  0
XRECORD
  5
240
102
{ACAD_REACTORS
330
23F
102
}
330
23F
100
AcDbXrecord
280
     1
 40
956118.0
  1
{P: HEAD OFFICE ^I^I09 277 2717\P    ALBANY ^I^I09 972 0060\P    KATIKAIT^I^I07 549 5190\P    WELLINGTON^I^I04 974 5792\P    CHRISTCHURCH^I^I03 348 6528}
  0
DICTIONARY
  5
20F
102
{ACAD_REACTORS
330
20E
102
}
330
20E
100
AcDbDictionary
280
     1
281
     1
  3
SPATIAL
360
210
  0
LAYOUT
  5
1E
102
{ACAD_REACTORS
330
1A
102
}
330
1A
100
AcDbPlotSettings
  1

  2
none_device
  4

  6

 40
0.0
 41
0.0
 42
0.0
 43
0.0
 44
0.0
 45
0.0
 46
0.0
 47
0.0
 48
0.0
 49
0.0
140
0.0
141
0.0
142
1.0
143
1.0
 70
   688
 72
     0
 73
     0
 74
     5
  7

 75
    16
147
1.0
148
0.0
149
0.0
100
AcDbLayout
  1
Layout1
 70
     1
 71
     1
 10
0.0
 20
0.0
 11
12.0
 21
9.0
 12
0.0
 22
0.0
 32
0.0
 14
1.000000000000000E+20
 24
1.000000000000000E+20
 34
1.000000000000000E+20
 15
-1.000000000000000E+20
 25
-1.000000000000000E+20
 35
-1.000000000000000E+20
146
0.0
 13
0.0
 23
0.0
 33
0.0
 16
1.0
 26
0.0
 36
0.0
 17
0.0
 27
1.0
 37
0.0
 76
     0
330
1B
  0
LAYOUT
  5
22
102
{ACAD_REACTORS
330
1A
102
}
330
1A
100
AcDbPlotSettings
  1

  2
none_device
  4

  6

 40
0.0
 41
0.0
 42
0.0
 43
0.0
 44
0.0
 45
0.0
 46
0.0
 47
0.0
 48
0.0
 49
0.0
140
0.0
141
0.0
142
1.0
143
1.0
 70
  1712
 72
     0
 73
     0
 74
     0
  7

 75
     0
147
1.0
148
0.0
149
0.0
100
AcDbLayout
  1
Model
 70
     1
 71
     0
 10
0.0
 20
0.0
 11
12.0
 21
9.0
 12
0.0
 22
0.0
 32
0.0
 14
1.000000000000000E+20
 24
1.000000000000000E+20
 34
1.000000000000000E+20
 15
-1.000000000000000E+20
 25
-1.000000000000000E+20
 35
-1.000000000000000E+20
146
0.0
 13
0.0
 23
0.0
 33
0.0
 16
1.0
 26
0.0
 36
0.0
 17
0.0
 27
1.0
 37
0.0
 76
     0
330
1F
331
29
  0
MATERIAL
  5
3D
102
{ACAD_REACTORS
330
3B
102
}
102
{ACAD_XDICTIONARY
360
263
102
}
330
3B
100
AcDbMaterial
  1
ByBlock
  0
MATERIAL
  5
3C
102
{ACAD_REACTORS
330
3B
102
}
102
{ACAD_XDICTIONARY
360
261
102
}
330
3B
100
AcDbMaterial
  1
ByLayer
  0
MATERIAL
  5
3E
102
{ACAD_REACTORS
330
3B
102
}
102
{ACAD_XDICTIONARY
360
265
102
}
330
3B
100
AcDbMaterial
  1
Global
  0
MLINESTYLE
  5
18
102
{ACAD_REACTORS
330
17
102
}
330
17
100
AcDbMlineStyle
  2
Standard
 70
     0
  3

 62
   256
 51
90.0
 52
90.0
 71
     2
 49
0.5
 62
   256
  6
BYLAYER
 49
-0.5
 62
   256
  6
BYLAYER
  0
ACDBPLACEHOLDER
  5
F
102
{ACAD_REACTORS
330
E
102
}
330
E
  0
SCALE
  5
215
102
{ACAD_REACTORS
330
214
102
}
330
214
100
AcDbScale
 70
     0
300
1:1
140
1.0
141
1.0
290
     1
  0
SCALE
  5
216
102
{ACAD_REACTORS
330
214
102
}
330
214
100
AcDbScale
 70
     0
300
1:2
140
1.0
141
2.0
290
     0
  0
SCALE
  5
217
102
{ACAD_REACTORS
330
214
102
}
330
214
100
AcDbScale
 70
     0
300
1:4
140
1.0
141
4.0
290
     0
  0
SCALE
  5
218
102
{ACAD_REACTORS
330
214
102
}
330
214
100
AcDbScale
 70
     0
300
1:5
140
1.0
141
5.0
290
     0
  0
SCALE
  5
219
102
{ACAD_REACTORS
330
214
102
}
330
214
100
AcDbScale
 70
     0
300
1:8
140
1.0
141
8.0
290
     0
  0
SCALE
  5
21A
102
{ACAD_REACTORS
330
214
102
}
330
214
100
AcDbScale
 70
     0
300
1:10
140
1.0
141
10.0
290
     0
  0
SCALE
  5
21B
102
{ACAD_REACTORS
330
214
102
}
330
214
100
AcDbScale
 70
     0
300
1:16
140
1.0
141
16.0
290
     0
  0
SCALE
  5
21C
102
{ACAD_REACTORS
330
214
102
}
330
214
100
AcDbScale
 70
     0
300
1:20
140
1.0
141
20.0
290
     0
  0
SCALE
  5
21D
102
{ACAD_REACTORS
330
214
102
}
330
214
100
AcDbScale
 70
     0
300
1:30
140
1.0
141
30.0
290
     0
  0
SCALE
  5
21E
102
{ACAD_REACTORS
330
214
102
}
330
214
100
AcDbScale
 70
     0
300
1:40
140
1.0
141
40.0
290
     0
  0
SCALE
  5
21F
102
{ACAD_REACTORS
330
214
102
}
330
214
100
AcDbScale
 70
     0
300
1:50
140
1.0
141
50.0
290
     0
  0
SCALE
  5
220
102
{ACAD_REACTORS
330
214
102
}
330
214
100
AcDbScale
 70
     0
300
1:100
140
1.0
141
100.0
290
     0
  0
SCALE
  5
221
102
{ACAD_REACTORS
330
214
102
}
330
214
100
AcDbScale
 70
     0
300
2:1
140
2.0
141
1.0
290
     0
  0
SCALE
  5
222
102
{ACAD_REACTORS
330
214
102
}
330
214
100
AcDbScale
 70
     0
300
4:1
140
4.0
141
1.0
290
     0
  0
SCALE
  5
223
102
{ACAD_REACTORS
330
214
102
}
330
214
100
AcDbScale
 70
     0
300
8:1
140
8.0
141
1.0
290
     0
  0
SCALE
  5
224
102
{ACAD_REACTORS
330
214
102
}
330
214
100
AcDbScale
 70
     0
300
10:1
140
10.0
141
1.0
290
     0
  0
SCALE
  5
225
102
{ACAD_REACTORS
330
214
102
}
330
214
100
AcDbScale
 70
     0
300
100:1
140
100.0
141
1.0
290
     0
  0
SCALE
  5
226
102
{ACAD_REACTORS
330
214
102
}
330
214
100
AcDbScale
 70
     0
300
1/128" = 1'-0"
140
0.0078125
141
12.0
290
     0
  0
SCALE
  5
227
102
{ACAD_REACTORS
330
214
102
}
330
214
100
AcDbScale
 70
     0
300
1/64" = 1'-0"
140
0.015625
141
12.0
290
     0
  0
SCALE
  5
228
102
{ACAD_REACTORS
330
214
102
}
330
214
100
AcDbScale
 70
     0
300
1/32" = 1'-0"
140
0.03125
141
12.0
290
     0
  0
SCALE
  5
229
102
{ACAD_REACTORS
330
214
102
}
330
214
100
AcDbScale
 70
     0
300
1/16" = 1'-0"
140
0.0625
141
12.0
290
     0
  0
SCALE
  5
22A
102
{ACAD_REACTORS
330
214
102
}
330
214
100
AcDbScale
 70
     0
300
3/32" = 1'-0"
140
0.09375
141
12.0
290
     0
  0
SCALE
  5
22B
102
{ACAD_REACTORS
330
214
102
}
330
214
100
AcDbScale
 70
     0
300
1/8" = 1'-0"
140
0.125
141
12.0
290
     0
  0
SCALE
  5
22C
102
{ACAD_REACTORS
330
214
102
}
330
214
100
AcDbScale
 70
     0
300
3/16" = 1'-0"
140
0.1875
141
12.0
290
     0
  0
SCALE
  5
22D
102
{ACAD_REACTORS
330
214
102
}
330
214
100
AcDbScale
 70
     0
300
1/4" = 1'-0"
140
0.25
141
12.0
290
     0
  0
SCALE
  5
22E
102
{ACAD_REACTORS
330
214
102
}
330
214
100
AcDbScale
 70
     0
300
3/8" = 1'-0"
140
0.375
141
12.0
290
     0
  0
SCALE
  5
22F
102
{ACAD_REACTORS
330
214
102
}
330
214
100
AcDbScale
 70
     0
300
1/2" = 1'-0"
140
0.5
141
12.0
290
     0
  0
SCALE
  5
230
102
{ACAD_REACTORS
330
214
102
}
330
214
100
AcDbScale
 70
     0
300
3/4" = 1'-0"
140
0.75
141
12.0
290
     0
  0
SCALE
  5
231
102
{ACAD_REACTORS
330
214
102
}
330
214
100
AcDbScale
 70
     0
300
1" = 1'-0"
140
1.0
141
12.0
290
     0
  0
SCALE
  5
232
102
{ACAD_REACTORS
330
214
102
}
330
214
100
AcDbScale
 70
     0
300
1-1/2" = 1'-0"
140
1.5
141
12.0
290
     0
  0
SCALE
  5
233
102
{ACAD_REACTORS
330
214
102
}
330
214
100
AcDbScale
 70
     0
300
3" = 1'-0"
140
3.0
141
12.0
290
     0
  0
SCALE
  5
234
102
{ACAD_REACTORS
330
214
102
}
330
214
100
AcDbScale
 70
     0
300
6" = 1'-0"
140
6.0
141
12.0
290
     0
  0
SCALE
  5
235
102
{ACAD_REACTORS
330
214
102
}
330
214
100
AcDbScale
 70
     0
300
1'-0" = 1'-0"
140
12.0
141
12.0
290
     0
  0
VISUALSTYLE
  5
2F
102
{ACAD_REACTORS
330
2A
102
}
102
{ACAD_XDICTIONARY
360
249
102
}
330
2A
100
AcDbVisualStyle
  2
2dWireframe
 70
     4
 71
     0
 72
     2
 73
     0
 90
        0
 40
-0.6
 41
-30.0
 62
     5
 63
     7
 74
     1
 91
        4
 64
     7
 65
   257
 75
     1
175
     1
 42
1.0
 92
        0
 66
   257
 43
1.0
 76
     1
 77
     6
 78
     2
 67
     7
 79
     5
170
     0
171
     0
290
     0
174
     0
 93
        1
 44
0.0
173
     0
291
     0
 45
0.0
1001
ACAD
1000
AcDbSavedByObjectVersion
1070
     0
  0
VISUALSTYLE
  5
31
102
{ACAD_REACTORS
330
2A
102
}
102
{ACAD_XDICTIONARY
360
24D
102
}
330
2A
100
AcDbVisualStyle
  2
3D Hidden
 70
     6
 71
     1
 72
     2
 73
     2
 90
        0
 40
-0.6
 41
-30.0
 62
     5
 63
     7
 74
     2
 91
        2
 64
     7
 65
   257
 75
     2
175
     1
 42
40.0
 92
        0
 66
   257
 43
1.0
 76
     1
 77
     6
 78
     2
 67
     7
 79
     3
170
     0
171
     0
290
     0
174
     0
 93
        1
 44
0.0
173
     0
291
     0
 45
0.0
1001
ACAD
1000
AcDbSavedByObjectVersion
1070
     0
  0
VISUALSTYLE
  5
30
102
{ACAD_REACTORS
330
2A
102
}
102
{ACAD_XDICTIONARY
360
24B
102
}
330
2A
100
AcDbVisualStyle
  2
3dWireframe
 70
     5
 71
     0
 72
     2
 73
     0
 90
        0
 40
-0.6
 41
-30.0
 62
     5
 63
     7
 74
     1
 91
        4
 64
     7
 65
   257
 75
     1
175
     1
 42
1.0
 92
        0
 66
   257
 43
1.0
 76
     1
 77
     6
 78
     2
 67
     7
 79
     5
170
     0
171
     0
290
     0
174
     0
 93
        1
 44
0.0
173
     0
291
     0
 45
0.0
1001
ACAD
1000
AcDbSavedByObjectVersion
1070
     0
  0
VISUALSTYLE
  5
32
102
{ACAD_REACTORS
330
2A
102
}
102
{ACAD_XDICTIONARY
360
24F
102
}
330
2A
100
AcDbVisualStyle
  2
Basic
 70
     7
 71
     1
 72
     0
 73
     1
 90
        0
 40
-0.6
 41
-30.0
 62
     5
 63
     7
 74
     0
 91
        4
 64
     7
 65
   257
 75
     1
175
     1
 42
1.0
 92
        8
 66
     7
 43
1.0
 76
     1
 77
     6
 78
     2
 67
     7
 79
     5
170
     0
171
     0
290
     0
174
     0
 93
        1
 44
0.0
173
     0
291
     1
 45
0.0
1001
ACAD
1000
AcDbSavedByObjectVersion
1070
     0
  0
VISUALSTYLE
  5
36
102
{ACAD_REACTORS
330
2A
102
}
102
{ACAD_XDICTIONARY
360
257
102
}
330
2A
100
AcDbVisualStyle
  2
Brighten
 70
    12
 71
     2
 72
     2
 73
     0
 90
        0
 40
-0.6
 41
-30.0
 62
     5
 63
     7
 74
     1
 91
        4
 64
     7
 65
   257
 75
     1
175
     1
 42
1.0
 92
        8
 66
     7
 43
1.0
 76
     1
 77
     6
 78
     2
 67
     7
 79
     5
170
     0
171
     0
290
     0
174
     0
 93
        1
 44
50.0
173
     0
291
     1
 45
0.0
1001
ACAD
1000
AcDbSavedByObjectVersion
1070
     0
  0
VISUALSTYLE
  5
3A
102
{ACAD_REACTORS
330
2A
102
}
102
{ACAD_XDICTIONARY
360
25F
102
}
330
2A
100
AcDbVisualStyle
  2
ColorChange
 70
    16
 71
     2
 72
     2
 73
     3
 90
        0
 40
-0.6
 41
-30.0
 62
     5
 63
     8
 74
     1
 91
        4
 64
     7
 65
   257
 75
     1
175
     1
 42
1.0
 92
        8
 66
     8
 43
1.0
 76
     1
 77
     6
 78
     2
 67
     7
 79
     5
170
     0
171
     0
290
     0
174
     0
 93
        1
 44
0.0
173
     0
291
     1
 45
0.0
1001
ACAD
1000
AcDbSavedByObjectVersion
1070
     0
  0
VISUALSTYLE
  5
34
102
{ACAD_REACTORS
330
2A
102
}
102
{ACAD_XDICTIONARY
360
253
102
}
330
2A
100
AcDbVisualStyle
  2
Conceptual
 70
     9
 71
     3
 72
     2
 73
     0
 90
        0
 40
-0.6
 41
-30.0
 62
     5
 63
     7
 74
     2
 91
        2
 64
     7
 65
   257
 75
     1
175
     1
 42
40.0
 92
        8
 66
     7
 43
1.0
 76
     1
 77
     6
 78
     2
 67
     7
 79
     3
170
     0
171
     0
290
     0
174
     0
 93
        1
 44
0.0
173
     0
291
     0
 45
0.0
1001
ACAD
1000
AcDbSavedByObjectVersion
1070
     0
  0
VISUALSTYLE
  5
35
102
{ACAD_REACTORS
330
2A
102
}
102
{ACAD_XDICTIONARY
360
255
102
}
330
2A
100
AcDbVisualStyle
  2
Dim
 70
    11
 71
     2
 72
     2
 73
     0
 90
        0
 40
-0.6
 41
-30.0
 62
     5
 63
     7
 74
     1
 91
        4
 64
     7
 65
   257
 75
     1
175
     1
 42
1.0
 92
        8
 66
     7
 43
1.0
 76
     1
 77
     6
 78
     2
 67
     7
 79
     5
170
     0
171
     0
290
     0
174
     0
 93
        1
 44
-50.0
173
     0
291
     1
 45
0.0
1001
ACAD
1000
AcDbSavedByObjectVersion
1070
     0
  0
VISUALSTYLE
  5
39
102
{ACAD_REACTORS
330
2A
102
}
102
{ACAD_XDICTIONARY
360
25D
102
}
330
2A
100
AcDbVisualStyle
  2
Facepattern
 70
    15
 71
     2
 72
     2
 73
     0
 90
        0
 40
-0.6
 41
-30.0
 62
     5
 63
     7
 74
     1
 91
        4
 64
     7
 65
   257
 75
     1
175
     1
 42
1.0
 92
        8
 66
     7
 43
1.0
 76
     1
 77
     6
 78
     2
 67
     7
 79
     5
170
     0
171
     0
290
     0
174
     0
 93
        1
 44
0.0
173
     0
291
     1
 45
0.0
1001
ACAD
1000
AcDbSavedByObjectVersion
1070
     0
  0
VISUALSTYLE
  5
2B
102
{ACAD_REACTORS
330
2A
102
}
102
{ACAD_XDICTIONARY
360
241
102
}
330
2A
100
AcDbVisualStyle
  2
Flat
 70
     0
 71
     2
 72
     1
 73
     1
 90
        2
 40
-0.6
 41
30.0
 62
     5
 63
     7
 74
     0
 91
        4
 64
     7
 65
   257
 75
     1
175
     1
 42
1.0
 92
        8
 66
     7
 43
1.0
 76
     1
 77
     6
 78
     2
 67
     7
 79
     5
170
     0
171
     0
290
     0
174
     0
 93
       13
 44
0.0
173
     0
291
     1
 45
0.0
1001
ACAD
1000
AcDbSavedByObjectVersion
1070
     0
  0
VISUALSTYLE
  5
2C
102
{ACAD_REACTORS
330
2A
102
}
102
{ACAD_XDICTIONARY
360
243
102
}
330
2A
100
AcDbVisualStyle
  2
FlatWithEdges
 70
     1
 71
     2
 72
     1
 73
     1
 90
        2
 40
-0.6
 41
30.0
 62
     5
 63
     7
 74
     1
 91
        4
 64
     7
 65
   257
 75
     1
175
     1
 42
1.0
 92
        0
 66
   257
 43
1.0
 76
     1
 77
     6
 78
     2
 67
     7
 79
     5
170
     0
171
     0
290
     0
174
     0
 93
       13
 44
0.0
173
     0
291
     1
 45
0.0
1001
ACAD
1000
AcDbSavedByObjectVersion
1070
     0
  0
VISUALSTYLE
  5
2D
102
{ACAD_REACTORS
330
2A
102
}
102
{ACAD_XDICTIONARY
360
245
102
}
330
2A
100
AcDbVisualStyle
  2
Gouraud
 70
     2
 71
     2
 72
     2
 73
     1
 90
        2
 40
-0.6
 41
30.0
 62
     5
 63
     7
 74
     0
 91
        4
 64
     7
 65
   257
 75
     1
175
     1
 42
1.0
 92
        0
 66
     7
 43
1.0
 76
     1
 77
     6
 78
     2
 67
     7
 79
     5
170
     0
171
     0
290
     0
174
     0
 93
       13
 44
0.0
173
     0
291
     1
 45
0.0
1001
ACAD
1000
AcDbSavedByObjectVersion
1070
     0
  0
VISUALSTYLE
  5
2E
102
{ACAD_REACTORS
330
2A
102
}
102
{ACAD_XDICTIONARY
360
247
102
}
330
2A
100
AcDbVisualStyle
  2
GouraudWithEdges
 70
     3
 71
     2
 72
     2
 73
     1
 90
        2
 40
-0.6
 41
30.0
 62
     5
 63
     7
 74
     1
 91
        4
 64
     7
 65
   257
 75
     1
175
     1
 42
1.0
 92
        0
 66
   257
 43
1.0
 76
     1
 77
     6
 78
     2
 67
     7
 79
     5
170
     0
171
     0
290
     0
174
     0
 93
       13
 44
0.0
173
     0
291
     1
 45
0.0
1001
ACAD
1000
AcDbSavedByObjectVersion
1070
     0
  0
VISUALSTYLE
  5
38
102
{ACAD_REACTORS
330
2A
102
}
102
{ACAD_XDICTIONARY
360
25B
102
}
330
2A
100
AcDbVisualStyle
  2
Linepattern
 70
    14
 71
     2
 72
     2
 73
     0
 90
        0
 40
-0.6
 41
-30.0
 62
     5
 63
     7
 74
     1
 91
        4
 64
     7
 65
   257
 75
     7
175
     7
 42
1.0
 92
        8
 66
     7
 43
1.0
 76
     1
 77
     6
 78
     2
 67
     7
 79
     5
170
     0
171
     0
290
     0
174
     0
 93
        1
 44
0.0
173
     0
291
     1
 45
0.0
1001
ACAD
1000
AcDbSavedByObjectVersion
1070
     0
  0
VISUALSTYLE
  5
33
102
{ACAD_REACTORS
330
2A
102
}
102
{ACAD_XDICTIONARY
360
251
102
}
330
2A
100
AcDbVisualStyle
  2
Realistic
 70
     8
 71
     2
 72
     2
 73
     0
 90
        0
 40
-0.6
 41
-30.0
 62
     5
 63
     7
 74
     1
 91
        0
 64
     7
 65
   257
 75
     1
175
     1
 42
1.0
 92
        8
 66
     8
 43
1.0
 76
     1
 77
     6
 78
     2
 67
     7
 79
     5
170
     0
171
     0
290
     0
174
     0
 93
       13
 44
0.0
173
     0
291
     0
 45
0.0
1001
ACAD
1000
AcDbSavedByObjectVersion
1070
     0
  0
VISUALSTYLE
  5
37
102
{ACAD_REACTORS
330
2A
102
}
102
{ACAD_XDICTIONARY
360
259
102
}
330
2A
100
AcDbVisualStyle
  2
Thicken
 70
    13
 71
     2
 72
     2
 73
     0
 90
        0
 40
-0.6
 41
-30.0
 62
     5
 63
     7
 74
     1
 91
        4
 64
     7
 65
   257
 75
     1
175
     1
 42
1.0
 92
       12
 66
     7
 43
1.0
 76
     1
 77
     6
 78
     2
 67
     7
 79
     5
170
     0
171
     0
290
     0
174
     0
 93
        1
 44
0.0
173
     0
291
     1
 45
0.0
1001
ACAD
1000
AcDbSavedByObjectVersion
1070
     0
  0
DICTIONARYVAR
  5
23C
102
{ACAD_REACTORS
330
238
102
}
330
238
100
DictionaryVariables
280
     0
  1
1:1
  0
DICTIONARYVAR
  5
23D
102
{ACAD_REACTORS
330
238
102
}
330
238
100
DictionaryVariables
280
     0
  1
2
  0
DICTIONARYVAR
  5
23E
102
{ACAD_REACTORS
330
238
102
}
330
238
100
DictionaryVariables
280
     0
  1
1
  0
DICTIONARYVAR
  5
23B
102
{ACAD_REACTORS
330
238
102
}
330
238
100
DictionaryVariables
280
     0
  1
0
  0
XRECORD
  5
237
102
{ACAD_REACTORS
330
236
102
}
330
236
100
AcDbXrecord
280
     1
1000
This DWG file was created in ArchiCAD(TM)®
  0
SPATIAL_FILTER
  5
210
102
{ACAD_REACTORS
330
20F
102
}
330
20F
100
AcDbFilter
100
AcDbSpatialFilter
 70
     4
 10
29.95236927172104
 20
58.7070035785453
 10
253.8370013018967
 20
58.7070035785453
 10
253.8370013018967
 20
179.1870281219369
 10
29.95236927172104
 20
179.1870281219369
210
0.0
220
0.0
230
1.0
 11
0.0
 21
0.0
 31
0.0
 71
     1
 72
     0
 73
     0
 40
1.0
 40
0.0
 40
0.0
 40
0.0
 40
0.0
 40
1.0
 40
0.0
 40
0.0
 40
0.0
 40
0.0
 40
1.0
 40
0.0
 40
1.0
 40
0.0
 40
0.0
 40
0.0
 40
0.0
 40
1.0
 40
0.0
 40
0.0
 40
0.0
 40
0.0
 40
1.0
 40
0.0
  0
DICTIONARY
  5
263
330
3D
100
AcDbDictionary
280
     1
281
     1
  3
ACAD_XREC_ROUNDTRIP
360
264
  0
DICTIONARY
  5
261
330
3C
100
AcDbDictionary
280
     1
281
     1
  3
ACAD_XREC_ROUNDTRIP
360
262
  0
DICTIONARY
  5
265
330
3E
100
AcDbDictionary
280
     1
281
     1
  3
ACAD_XREC_ROUNDTRIP
360
266
  0
DICTIONARY
  5
249
330
2F
100
AcDbDictionary
280
     1
281
     1
  3
ACAD_XREC_ROUNDTRIP
360
24A
  0
DICTIONARY
  5
24D
330
31
100
AcDbDictionary
280
     1
281
     1
  3
ACAD_XREC_ROUNDTRIP
360
24E
  0
DICTIONARY
  5
24B
330
30
100
AcDbDictionary
280
     1
281
     1
  3
ACAD_XREC_ROUNDTRIP
360
24C
  0
DICTIONARY
  5
24F
330
32
100
AcDbDictionary
280
     1
281
     1
  3
ACAD_XREC_ROUNDTRIP
360
250
  0
DICTIONARY
  5
257
330
36
100
AcDbDictionary
280
     1
281
     1
  3
ACAD_XREC_ROUNDTRIP
360
258
  0
DICTIONARY
  5
25F
330
3A
100
AcDbDictionary
280
     1
281
     1
  3
ACAD_XREC_ROUNDTRIP
360
260
  0
DICTIONARY
  5
253
330
34
100
AcDbDictionary
280
     1
281
     1
  3
ACAD_XREC_ROUNDTRIP
360
254
  0
DICTIONARY
  5
255
330
35
100
AcDbDictionary
280
     1
281
     1
  3
ACAD_XREC_ROUNDTRIP
360
256
  0
DICTIONARY
  5
25D
330
39
100
AcDbDictionary
280
     1
281
     1
  3
ACAD_XREC_ROUNDTRIP
360
25E
  0
DICTIONARY
  5
241
330
2B
100
AcDbDictionary
280
     1
281
     1
  3
ACAD_XREC_ROUNDTRIP
360
242
  0
DICTIONARY
  5
243
330
2C
100
AcDbDictionary
280
     1
281
     1
  3
ACAD_XREC_ROUNDTRIP
360
244
  0
DICTIONARY
  5
245
330
2D
100
AcDbDictionary
280
     1
281
     1
  3
ACAD_XREC_ROUNDTRIP
360
246
  0
DICTIONARY
  5
247
330
2E
100
AcDbDictionary
280
     1
281
     1
  3
ACAD_XREC_ROUNDTRIP
360
248
  0
DICTIONARY
  5
25B
330
38
100
AcDbDictionary
280
     1
281
     1
  3
ACAD_XREC_ROUNDTRIP
360
25C
  0
DICTIONARY
  5
251
330
33
100
AcDbDictionary
280
     1
281
     1
  3
ACAD_XREC_ROUNDTRIP
360
252
  0
DICTIONARY
  5
259
330
37
100
AcDbDictionary
280
     1
281
     1
  3
ACAD_XREC_ROUNDTRIP
360
25A
  0
XRECORD
  5
264
102
{ACAD_REACTORS
330
263
102
}
330
263
100
AcDbXrecord
280
     1
102
MATERIAL
148
0.0
149
0.0
149
0.0
 93
        0
 94
      127
282
     0
 72
     1
 77
     1
171
     1
175
     1
179
     1
273
     0
  0
XRECORD
  5
262
102
{ACAD_REACTORS
330
261
102
}
330
261
100
AcDbXrecord
280
     1
102
MATERIAL
148
0.0
149
0.0
149
0.0
 93
        0
 94
      127
282
     0
 72
     1
 77
     1
171
     1
175
     1
179
     1
273
     0
  0
XRECORD
  5
266
102
{ACAD_REACTORS
330
265
102
}
330
265
100
AcDbXrecord
280
     1
102
MATERIAL
148
0.0
149
0.0
149
0.0
 93
        0
 94
      127
282
     0
 72
     1
 77
     1
171
     1
175
     1
179
     1
273
     0
  0
XRECORD
  5
24A
102
{ACAD_REACTORS
330
249
102
}
330
249
100
AcDbXrecord
280
     1
102
RTVSPropertyOp0
 70
     1
102
RTVSPropertyOp1
 70
     1
102
RTVSPropertyOp2
 70
     1
102
RTVSPropertyOp3
 70
     1
102
RTVSPropertyOp4
 70
     1
102
RTVSPropertyOp5
 70
     1
102
RTVSPropertyOp6
 70
     1
102
RTVSPropertyOp7
 70
     1
102
RTVSPropertyOp8
 70
     1
102
RTVSPropertyOp9
 70
     1
102
RTVSPropertyOp10
 70
     1
102
RTVSPropertyOp11
 70
     1
102
RTVSPropertyOp12
 70
     1
102
RTVSPropertyOp13
 70
     1
102
RTVSPropertyOp14
 70
     1
102
RTVSPropertyOp15
 70
     1
102
RTVSPropertyOp16
 70
     1
102
RTVSPropertyOp17
 70
     1
102
RTVSPropertyOp18
 70
     1
102
RTVSPropertyOp19
 70
     1
102
RTVSPropertyOp20
 70
     1
102
RTVSPropertyOp21
 70
     1
102
RTVSPropertyOp22
 70
     1
102
RTVSPropertyOp23
 70
     1
102
RTVSPropertyOp24
 70
     1
102
RTVSPropertyOp25
 70
     1
102
RTVSPropertyOp26
 70
     1
102
RTVSPropertyOp27
 70
     1
102
RTVSPropertyOp28
 70
     1
102
RTVSPropertyOp29
 70
     1
102
RTVSPropertyOp30
 70
     1
102
RTVSPropertyOp31
 70
     1
102
RTVSPropertyOp32
 70
     1
  0
XRECORD
  5
24E
102
{ACAD_REACTORS
330
24D
102
}
330
24D
100
AcDbXrecord
280
     1
102
RTVSPropertyOp0
 70
     1
102
RTVSPropertyOp1
 70
     1
102
RTVSPropertyOp2
 70
     1
102
RTVSPropertyOp3
 70
     1
102
RTVSPropertyOp4
 70
     1
102
RTVSPropertyOp5
 70
     1
102
RTVSPropertyOp6
 70
     1
102
RTVSPropertyOp7
 70
     1
102
RTVSPropertyOp8
 70
     1
102
RTVSPropertyOp9
 70
     1
102
RTVSPropertyOp10
 70
     1
102
RTVSPropertyOp11
 70
     1
102
RTVSPropertyOp12
 70
     1
102
RTVSPropertyOp13
 70
     1
102
RTVSPropertyOp14
 70
     1
102
RTVSPropertyOp15
 70
     1
102
RTVSPropertyOp16
 70
     1
102
RTVSPropertyOp17
 70
     1
102
RTVSPropertyOp18
 70
     1
102
RTVSPropertyOp19
 70
     1
102
RTVSPropertyOp20
 70
     1
102
RTVSPropertyOp21
 70
     1
102
RTVSPropertyOp22
 70
     1
102
RTVSPropertyOp23
 70
     1
102
RTVSPropertyOp24
 70
     1
102
RTVSPropertyOp25
 70
     1
102
RTVSPropertyOp26
 70
     1
102
RTVSPropertyOp27
 70
     1
102
RTVSPropertyOp28
 70
     1
102
RTVSPropertyOp29
 70
     1
102
RTVSPropertyOp30
 70
     1
102
RTVSPropertyOp31
 70
     1
102
RTVSPropertyOp32
 70
     1
  0
XRECORD
  5
24C
102
{ACAD_REACTORS
330
24B
102
}
330
24B
100
AcDbXrecord
280
     1
102
RTVSPropertyOp0
 70
     1
102
RTVSPropertyOp1
 70
     1
102
RTVSPropertyOp2
 70
     1
102
RTVSPropertyOp3
 70
     1
102
RTVSPropertyOp4
 70
     1
102
RTVSPropertyOp5
 70
     1
102
RTVSPropertyOp6
 70
     1
102
RTVSPropertyOp7
 70
     1
102
RTVSPropertyOp8
 70
     1
102
RTVSPropertyOp9
 70
     1
102
RTVSPropertyOp10
 70
     1
102
RTVSPropertyOp11
 70
     1
102
RTVSPropertyOp12
 70
     1
102
RTVSPropertyOp13
 70
     1
102
RTVSPropertyOp14
 70
     1
102
RTVSPropertyOp15
 70
     1
102
RTVSPropertyOp16
 70
     1
102
RTVSPropertyOp17
 70
     1
102
RTVSPropertyOp18
 70
     1
102
RTVSPropertyOp19
 70
     1
102
RTVSPropertyOp20
 70
     1
102
RTVSPropertyOp21
 70
     1
102
RTVSPropertyOp22
 70
     1
102
RTVSPropertyOp23
 70
     1
102
RTVSPropertyOp24
 70
     1
102
RTVSPropertyOp25
 70
     1
102
RTVSPropertyOp26
 70
     1
102
RTVSPropertyOp27
 70
     1
102
RTVSPropertyOp28
 70
     1
102
RTVSPropertyOp29
 70
     1
102
RTVSPropertyOp30
 70
     1
102
RTVSPropertyOp31
 70
     1
102
RTVSPropertyOp32
 70
     1
  0
XRECORD
  5
250
102
{ACAD_REACTORS
330
24F
102
}
330
24F
100
AcDbXrecord
280
     1
102
RTVSPropertyOp0
 70
     1
102
RTVSPropertyOp1
 70
     1
102
RTVSPropertyOp2
 70
     1
102
RTVSPropertyOp3
 70
     1
102
RTVSPropertyOp4
 70
     1
102
RTVSPropertyOp5
 70
     1
102
RTVSPropertyOp6
 70
     1
102
RTVSPropertyOp7
 70
     1
102
RTVSPropertyOp8
 70
     1
102
RTVSPropertyOp9
 70
     1
102
RTVSPropertyOp10
 70
     1
102
RTVSPropertyOp11
 70
     1
102
RTVSPropertyOp12
 70
     1
102
RTVSPropertyOp13
 70
     1
102
RTVSPropertyOp14
 70
     1
102
RTVSPropertyOp15
 70
     1
102
RTVSPropertyOp16
 70
     1
102
RTVSPropertyOp17
 70
     1
102
RTVSPropertyOp18
 70
     1
102
RTVSPropertyOp19
 70
     1
102
RTVSPropertyOp20
 70
     1
102
RTVSPropertyOp21
 70
     1
102
RTVSPropertyOp22
 70
     1
102
RTVSPropertyOp23
 70
     1
102
RTVSPropertyOp24
 70
     1
102
RTVSPropertyOp25
 70
     1
102
RTVSPropertyOp26
 70
     1
102
RTVSPropertyOp27
 70
     1
102
RTVSPropertyOp28
 70
     1
102
RTVSPropertyOp29
 70
     1
102
RTVSPropertyOp30
 70
     1
102
RTVSPropertyOp31
 70
     1
102
RTVSPropertyOp32
 70
     1
  0
XRECORD
  5
258
102
{ACAD_REACTORS
330
257
102
}
330
257
100
AcDbXrecord
280
     1
102
RTVSPropertyOp0
 70
     1
102
RTVSPropertyOp1
 70
     1
102
RTVSPropertyOp2
 70
     1
102
RTVSPropertyOp3
 70
     1
102
RTVSPropertyOp4
 70
     1
102
RTVSPropertyOp5
 70
     1
102
RTVSPropertyOp6
 70
     1
102
RTVSPropertyOp7
 70
     1
102
RTVSPropertyOp8
 70
     1
102
RTVSPropertyOp9
 70
     1
102
RTVSPropertyOp10
 70
     1
102
RTVSPropertyOp11
 70
     1
102
RTVSPropertyOp12
 70
     1
102
RTVSPropertyOp13
 70
     1
102
RTVSPropertyOp14
 70
     1
102
RTVSPropertyOp15
 70
     1
102
RTVSPropertyOp16
 70
     1
102
RTVSPropertyOp17
 70
     1
102
RTVSPropertyOp18
 70
     1
102
RTVSPropertyOp19
 70
     1
102
RTVSPropertyOp20
 70
     1
102
RTVSPropertyOp21
 70
     1
102
RTVSPropertyOp22
 70
     1
102
RTVSPropertyOp23
 70
     1
102
RTVSPropertyOp24
 70
     1
102
RTVSPropertyOp25
 70
     1
102
RTVSPropertyOp26
 70
     1
102
RTVSPropertyOp27
 70
     1
102
RTVSPropertyOp28
 70
     1
102
RTVSPropertyOp29
 70
     1
102
RTVSPropertyOp30
 70
     1
102
RTVSPropertyOp31
 70
     1
102
RTVSPropertyOp32
 70
     1
  0
XRECORD
  5
260
102
{ACAD_REACTORS
330
25F
102
}
330
25F
100
AcDbXrecord
280
     1
102
RTVSPropertyOp0
 70
     1
102
RTVSPropertyOp1
 70
     1
102
RTVSPropertyOp2
 70
     1
102
RTVSPropertyOp3
 70
     1
102
RTVSPropertyOp4
 70
     1
102
RTVSPropertyOp5
 70
     1
102
RTVSPropertyOp6
 70
     1
102
RTVSPropertyOp7
 70
     1
102
RTVSPropertyOp8
 70
     1
102
RTVSPropertyOp9
 70
     1
102
RTVSPropertyOp10
 70
     1
102
RTVSPropertyOp11
 70
     1
102
RTVSPropertyOp12
 70
     1
102
RTVSPropertyOp13
 70
     1
102
RTVSPropertyOp14
 70
     1
102
RTVSPropertyOp15
 70
     1
102
RTVSPropertyOp16
 70
     1
102
RTVSPropertyOp17
 70
     1
102
RTVSPropertyOp18
 70
     1
102
RTVSPropertyOp19
 70
     1
102
RTVSPropertyOp20
 70
     1
102
RTVSPropertyOp21
 70
     1
102
RTVSPropertyOp22
 70
     1
102
RTVSPropertyOp23
 70
     1
102
RTVSPropertyOp24
 70
     1
102
RTVSPropertyOp25
 70
     1
102
RTVSPropertyOp26
 70
     1
102
RTVSPropertyOp27
 70
     1
102
RTVSPropertyOp28
 70
     1
102
RTVSPropertyOp29
 70
     1
102
RTVSPropertyOp30
 70
     1
102
RTVSPropertyOp31
 70
     1
102
RTVSPropertyOp32
 70
     1
  0
XRECORD
  5
254
102
{ACAD_REACTORS
330
253
102
}
330
253
100
AcDbXrecord
280
     1
102
RTVSPropertyOp0
 70
     1
102
RTVSPropertyOp1
 70
     1
102
RTVSPropertyOp2
 70
     1
102
RTVSPropertyOp3
 70
     1
102
RTVSPropertyOp4
 70
     1
102
RTVSPropertyOp5
 70
     1
102
RTVSPropertyOp6
 70
     1
102
RTVSPropertyOp7
 70
     1
102
RTVSPropertyOp8
 70
     1
102
RTVSPropertyOp9
 70
     1
102
RTVSPropertyOp10
 70
     1
102
RTVSPropertyOp11
 70
     1
102
RTVSPropertyOp12
 70
     1
102
RTVSPropertyOp13
 70
     1
102
RTVSPropertyOp14
 70
     1
102
RTVSPropertyOp15
 70
     1
102
RTVSPropertyOp16
 70
     1
102
RTVSPropertyOp17
 70
     1
102
RTVSPropertyOp18
 70
     1
102
RTVSPropertyOp19
 70
     1
102
RTVSPropertyOp20
 70
     1
102
RTVSPropertyOp21
 70
     1
102
RTVSPropertyOp22
 70
     1
102
RTVSPropertyOp23
 70
     1
102
RTVSPropertyOp24
 70
     1
102
RTVSPropertyOp25
 70
     1
102
RTVSPropertyOp26
 70
     1
102
RTVSPropertyOp27
 70
     1
102
RTVSPropertyOp28
 70
     1
102
RTVSPropertyOp29
 70
     1
102
RTVSPropertyOp30
 70
     1
102
RTVSPropertyOp31
 70
     1
102
RTVSPropertyOp32
 70
     1
  0
XRECORD
  5
256
102
{ACAD_REACTORS
330
255
102
}
330
255
100
AcDbXrecord
280
     1
102
RTVSPropertyOp0
 70
     1
102
RTVSPropertyOp1
 70
     1
102
RTVSPropertyOp2
 70
     1
102
RTVSPropertyOp3
 70
     1
102
RTVSPropertyOp4
 70
     1
102
RTVSPropertyOp5
 70
     1
102
RTVSPropertyOp6
 70
     1
102
RTVSPropertyOp7
 70
     1
102
RTVSPropertyOp8
 70
     1
102
RTVSPropertyOp9
 70
     1
102
RTVSPropertyOp10
 70
     1
102
RTVSPropertyOp11
 70
     1
102
RTVSPropertyOp12
 70
     1
102
RTVSPropertyOp13
 70
     1
102
RTVSPropertyOp14
 70
     1
102
RTVSPropertyOp15
 70
     1
102
RTVSPropertyOp16
 70
     1
102
RTVSPropertyOp17
 70
     1
102
RTVSPropertyOp18
 70
     1
102
RTVSPropertyOp19
 70
     1
102
RTVSPropertyOp20
 70
     1
102
RTVSPropertyOp21
 70
     1
102
RTVSPropertyOp22
 70
     1
102
RTVSPropertyOp23
 70
     1
102
RTVSPropertyOp24
 70
     1
102
RTVSPropertyOp25
 70
     1
102
RTVSPropertyOp26
 70
     1
102
RTVSPropertyOp27
 70
     1
102
RTVSPropertyOp28
 70
     1
102
RTVSPropertyOp29
 70
     1
102
RTVSPropertyOp30
 70
     1
102
RTVSPropertyOp31
 70
     1
102
RTVSPropertyOp32
 70
     1
  0
XRECORD
  5
25E
102
{ACAD_REACTORS
330
25D
102
}
330
25D
100
AcDbXrecord
280
     1
102
RTVSPropertyOp0
 70
     1
102
RTVSPropertyOp1
 70
     1
102
RTVSPropertyOp2
 70
     1
102
RTVSPropertyOp3
 70
     1
102
RTVSPropertyOp4
 70
     1
102
RTVSPropertyOp5
 70
     1
102
RTVSPropertyOp6
 70
     1
102
RTVSPropertyOp7
 70
     1
102
RTVSPropertyOp8
 70
     1
102
RTVSPropertyOp9
 70
     1
102
RTVSPropertyOp10
 70
     1
102
RTVSPropertyOp11
 70
     1
102
RTVSPropertyOp12
 70
     1
102
RTVSPropertyOp13
 70
     1
102
RTVSPropertyOp14
 70
     1
102
RTVSPropertyOp15
 70
     1
102
RTVSPropertyOp16
 70
     1
102
RTVSPropertyOp17
 70
     1
102
RTVSPropertyOp18
 70
     1
102
RTVSPropertyOp19
 70
     1
102
RTVSPropertyOp20
 70
     1
102
RTVSPropertyOp21
 70
     1
102
RTVSPropertyOp22
 70
     1
102
RTVSPropertyOp23
 70
     1
102
RTVSPropertyOp24
 70
     1
102
RTVSPropertyOp25
 70
     1
102
RTVSPropertyOp26
 70
     1
102
RTVSPropertyOp27
 70
     1
102
RTVSPropertyOp28
 70
     1
102
RTVSPropertyOp29
 70
     1
102
RTVSPropertyOp30
 70
     1
102
RTVSPropertyOp31
 70
     1
102
RTVSPropertyOp32
 70
     1
  0
XRECORD
  5
242
102
{ACAD_REACTORS
330
241
102
}
330
241
100
AcDbXrecord
280
     1
102
RTVSPropertyOp0
 70
     1
102
RTVSPropertyOp1
 70
     1
102
RTVSPropertyOp2
 70
     1
102
RTVSPropertyOp3
 70
     1
102
RTVSPropertyOp4
 70
     1
102
RTVSPropertyOp5
 70
     1
102
RTVSPropertyOp6
 70
     1
102
RTVSPropertyOp7
 70
     1
102
RTVSPropertyOp8
 70
     1
102
RTVSPropertyOp9
 70
     1
102
RTVSPropertyOp10
 70
     1
102
RTVSPropertyOp11
 70
     1
102
RTVSPropertyOp12
 70
     1
102
RTVSPropertyOp13
 70
     1
102
RTVSPropertyOp14
 70
     1
102
RTVSPropertyOp15
 70
     1
102
RTVSPropertyOp16
 70
     1
102
RTVSPropertyOp17
 70
     1
102
RTVSPropertyOp18
 70
     1
102
RTVSPropertyOp19
 70
     1
102
RTVSPropertyOp20
 70
     1
102
RTVSPropertyOp21
 70
     1
102
RTVSPropertyOp22
 70
     1
102
RTVSPropertyOp23
 70
     1
102
RTVSPropertyOp24
 70
     1
102
RTVSPropertyOp25
 70
     1
102
RTVSPropertyOp26
 70
     1
102
RTVSPropertyOp27
 70
     1
102
RTVSPropertyOp28
 70
     1
102
RTVSPropertyOp29
 70
     1
102
RTVSPropertyOp30
 70
     1
102
RTVSPropertyOp31
 70
     1
102
RTVSPropertyOp32
 70
     1
  0
XRECORD
  5
244
102
{ACAD_REACTORS
330
243
102
}
330
243
100
AcDbXrecord
280
     1
102
RTVSPropertyOp0
 70
     1
102
RTVSPropertyOp1
 70
     1
102
RTVSPropertyOp2
 70
     1
102
RTVSPropertyOp3
 70
     1
102
RTVSPropertyOp4
 70
     1
102
RTVSPropertyOp5
 70
     1
102
RTVSPropertyOp6
 70
     1
102
RTVSPropertyOp7
 70
     1
102
RTVSPropertyOp8
 70
     1
102
RTVSPropertyOp9
 70
     1
102
RTVSPropertyOp10
 70
     1
102
RTVSPropertyOp11
 70
     1
102
RTVSPropertyOp12
 70
     1
102
RTVSPropertyOp13
 70
     1
102
RTVSPropertyOp14
 70
     1
102
RTVSPropertyOp15
 70
     1
102
RTVSPropertyOp16
 70
     1
102
RTVSPropertyOp17
 70
     1
102
RTVSPropertyOp18
 70
     1
102
RTVSPropertyOp19
 70
     1
102
RTVSPropertyOp20
 70
     1
102
RTVSPropertyOp21
 70
     1
102
RTVSPropertyOp22
 70
     1
102
RTVSPropertyOp23
 70
     1
102
RTVSPropertyOp24
 70
     1
102
RTVSPropertyOp25
 70
     1
102
RTVSPropertyOp26
 70
     1
102
RTVSPropertyOp27
 70
     1
102
RTVSPropertyOp28
 70
     1
102
RTVSPropertyOp29
 70
     1
102
RTVSPropertyOp30
 70
     1
102
RTVSPropertyOp31
 70
     1
102
RTVSPropertyOp32
 70
     1
  0
XRECORD
  5
246
102
{ACAD_REACTORS
330
245
102
}
330
245
100
AcDbXrecord
280
     1
102
RTVSPropertyOp0
 70
     1
102
RTVSPropertyOp1
 70
     1
102
RTVSPropertyOp2
 70
     1
102
RTVSPropertyOp3
 70
     1
102
RTVSPropertyOp4
 70
     1
102
RTVSPropertyOp5
 70
     1
102
RTVSPropertyOp6
 70
     1
102
RTVSPropertyOp7
 70
     1
102
RTVSPropertyOp8
 70
     1
102
RTVSPropertyOp9
 70
     1
102
RTVSPropertyOp10
 70
     1
102
RTVSPropertyOp11
 70
     1
102
RTVSPropertyOp12
 70
     1
102
RTVSPropertyOp13
 70
     1
102
RTVSPropertyOp14
 70
     1
102
RTVSPropertyOp15
 70
     1
102
RTVSPropertyOp16
 70
     1
102
RTVSPropertyOp17
 70
     1
102
RTVSPropertyOp18
 70
     1
102
RTVSPropertyOp19
 70
     1
102
RTVSPropertyOp20
 70
     1
102
RTVSPropertyOp21
 70
     1
102
RTVSPropertyOp22
 70
     1
102
RTVSPropertyOp23
 70
     1
102
RTVSPropertyOp24
 70
     1
102
RTVSPropertyOp25
 70
     1
102
RTVSPropertyOp26
 70
     1
102
RTVSPropertyOp27
 70
     1
102
RTVSPropertyOp28
 70
     1
102
RTVSPropertyOp29
 70
     1
102
RTVSPropertyOp30
 70
     1
102
RTVSPropertyOp31
 70
     1
102
RTVSPropertyOp32
 70
     1
  0
XRECORD
  5
248
102
{ACAD_REACTORS
330
247
102
}
330
247
100
AcDbXrecord
280
     1
102
RTVSPropertyOp0
 70
     1
102
RTVSPropertyOp1
 70
     1
102
RTVSPropertyOp2
 70
     1
102
RTVSPropertyOp3
 70
     1
102
RTVSPropertyOp4
 70
     1
102
RTVSPropertyOp5
 70
     1
102
RTVSPropertyOp6
 70
     1
102
RTVSPropertyOp7
 70
     1
102
RTVSPropertyOp8
 70
     1
102
RTVSPropertyOp9
 70
     1
102
RTVSPropertyOp10
 70
     1
102
RTVSPropertyOp11
 70
     1
102
RTVSPropertyOp12
 70
     1
102
RTVSPropertyOp13
 70
     1
102
RTVSPropertyOp14
 70
     1
102
RTVSPropertyOp15
 70
     1
102
RTVSPropertyOp16
 70
     1
102
RTVSPropertyOp17
 70
     1
102
RTVSPropertyOp18
 70
     1
102
RTVSPropertyOp19
 70
     1
102
RTVSPropertyOp20
 70
     1
102
RTVSPropertyOp21
 70
     1
102
RTVSPropertyOp22
 70
     1
102
RTVSPropertyOp23
 70
     1
102
RTVSPropertyOp24
 70
     1
102
RTVSPropertyOp25
 70
     1
102
RTVSPropertyOp26
 70
     1
102
RTVSPropertyOp27
 70
     1
102
RTVSPropertyOp28
 70
     1
102
RTVSPropertyOp29
 70
     1
102
RTVSPropertyOp30
 70
     1
102
RTVSPropertyOp31
 70
     1
102
RTVSPropertyOp32
 70
     1
  0
XRECORD
  5
25C
102
{ACAD_REACTORS
330
25B
102
}
330
25B
100
AcDbXrecord
280
     1
102
RTVSPropertyOp0
 70
     1
102
RTVSPropertyOp1
 70
     1
102
RTVSPropertyOp2
 70
     1
102
RTVSPropertyOp3
 70
     1
102
RTVSPropertyOp4
 70
     1
102
RTVSPropertyOp5
 70
     1
102
RTVSPropertyOp6
 70
     1
102
RTVSPropertyOp7
 70
     1
102
RTVSPropertyOp8
 70
     1
102
RTVSPropertyOp9
 70
     1
102
RTVSPropertyOp10
 70
     1
102
RTVSPropertyOp11
 70
     1
102
RTVSPropertyOp12
 70
     1
102
RTVSPropertyOp13
 70
     1
102
RTVSPropertyOp14
 70
     1
102
RTVSPropertyOp15
 70
     1
102
RTVSPropertyOp16
 70
     1
102
RTVSPropertyOp17
 70
     1
102
RTVSPropertyOp18
 70
     1
102
RTVSPropertyOp19
 70
     1
102
RTVSPropertyOp20
 70
     1
102
RTVSPropertyOp21
 70
     1
102
RTVSPropertyOp22
 70
     1
102
RTVSPropertyOp23
 70
     1
102
RTVSPropertyOp24
 70
     1
102
RTVSPropertyOp25
 70
     1
102
RTVSPropertyOp26
 70
     1
102
RTVSPropertyOp27
 70
     1
102
RTVSPropertyOp28
 70
     1
102
RTVSPropertyOp29
 70
     1
102
RTVSPropertyOp30
 70
     1
102
RTVSPropertyOp31
 70
     1
102
RTVSPropertyOp32
 70
     1
  0
XRECORD
  5
252
102
{ACAD_REACTORS
330
251
102
}
330
251
100
AcDbXrecord
280
     1
102
RTVSPropertyOp0
 70
     1
102
RTVSPropertyOp1
 70
     1
102
RTVSPropertyOp2
 70
     1
102
RTVSPropertyOp3
 70
     1
102
RTVSPropertyOp4
 70
     1
102
RTVSPropertyOp5
 70
     1
102
RTVSPropertyOp6
 70
     1
102
RTVSPropertyOp7
 70
     1
102
RTVSPropertyOp8
 70
     1
102
RTVSPropertyOp9
 70
     1
102
RTVSPropertyOp10
 70
     1
102
RTVSPropertyOp11
 70
     1
102
RTVSPropertyOp12
 70
     1
102
RTVSPropertyOp13
 70
     1
102
RTVSPropertyOp14
 70
     1
102
RTVSPropertyOp15
 70
     1
102
RTVSPropertyOp16
 70
     1
102
RTVSPropertyOp17
 70
     1
102
RTVSPropertyOp18
 70
     1
102
RTVSPropertyOp19
 70
     1
102
RTVSPropertyOp20
 70
     1
102
RTVSPropertyOp21
 70
     1
102
RTVSPropertyOp22
 70
     1
102
RTVSPropertyOp23
 70
     1
102
RTVSPropertyOp24
 70
     1
102
RTVSPropertyOp25
 70
     1
102
RTVSPropertyOp26
 70
     1
102
RTVSPropertyOp27
 70
     1
102
RTVSPropertyOp28
 70
     1
102
RTVSPropertyOp29
 70
     1
102
RTVSPropertyOp30
 70
     1
102
RTVSPropertyOp31
 70
     1
102
RTVSPropertyOp32
 70
     1
  0
XRECORD
  5
25A
102
{ACAD_REACTORS
330
259
102
}
330
259
100
AcDbXrecord
280
     1
102
RTVSPropertyOp0
 70
     1
102
RTVSPropertyOp1
 70
     1
102
RTVSPropertyOp2
 70
     1
102
RTVSPropertyOp3
 70
     1
102
RTVSPropertyOp4
 70
     1
102
RTVSPropertyOp5
 70
     1
102
RTVSPropertyOp6
 70
     1
102
RTVSPropertyOp7
 70
     1
102
RTVSPropertyOp8
 70
     1
102
RTVSPropertyOp9
 70
     1
102
RTVSPropertyOp10
 70
     1
102
RTVSPropertyOp11
 70
     1
102
RTVSPropertyOp12
 70
     1
102
RTVSPropertyOp13
 70
     1
102
RTVSPropertyOp14
 70
     1
102
RTVSPropertyOp15
 70
     1
102
RTVSPropertyOp16
 70
     1
102
RTVSPropertyOp17
 70
     1
102
RTVSPropertyOp18
 70
     1
102
RTVSPropertyOp19
 70
     1
102
RTVSPropertyOp20
 70
     1
102
RTVSPropertyOp21
 70
     1
102
RTVSPropertyOp22
 70
     1
102
RTVSPropertyOp23
 70
     1
102
RTVSPropertyOp24
 70
     1
102
RTVSPropertyOp25
 70
     1
102
RTVSPropertyOp26
 70
     1
102
RTVSPropertyOp27
 70
     1
102
RTVSPropertyOp28
 70
     1
102
RTVSPropertyOp29
 70
     1
102
RTVSPropertyOp30
 70
     1
102
RTVSPropertyOp31
 70
     1
102
RTVSPropertyOp32
 70
     1
  0
ENDSEC
  0
EOF
